  0
SECTION
  2
HEADER
  9
$ACADVER
  1
AC1015
  9
$ACADMAINTVER
 70
     6
  9
$DWGCODEPAGE
  3
ANSI_1252
  9
$INSBASE
 10
0.0
 20
0.0
 30
0.0
  9
$EXTMIN
 10
-29.0381998063
 20
-46.5
 30
0.0
  9
$EXTMAX
 10
121.4290317264
 20
46.5
 30
0.0
  9
$LIMMIN
 10
0.0
 20
0.0
  9
$LIMMAX
 10
420.0
 20
297.0
  9
$ORTHOMODE
 70
     0
  9
$REGENMODE
 70
     1
  9
$FILLMODE
 70
     1
  9
$QTEXTMODE
 70
     0
  9
$MIRRTEXT
 70
     1
  9
$LTSCALE
 40
1.0
  9
$ATTMODE
 70
     1
  9
$TEXTSIZE
 40
6.35
  9
$TRACEWID
 40
1.0
  9
$TEXTSTYLE
  7
Standard
  9
$CLAYER
  8
0
  9
$CELTYPE
  6
ByLayer
  9
$CECOLOR
 62
   256
  9
$CELTSCALE
 40
1.0
  9
$DISPSILH
 70
     0
  9
$DIMSCALE
 40
1.0
  9
$DIMASZ
 40
5.9944
  9
$DIMEXO
 40
0.9906
  9
$DIMDLI
 40
3.75
  9
$DIMRND
 40
0.0
  9
$DIMDLE
 40
0.0
  9
$DIMEXE
 40
0.9906
  9
$DIMTP
 40
0.0
  9
$DIMTM
 40
0.0
  9
$DIMTXT
 40
6.35
  9
$DIMCEN
 40
2.5
  9
$DIMTSZ
 40
0.0
  9
$DIMTOL
 70
     0
  9
$DIMLIM
 70
     0
  9
$DIMTIH
 70
     1
  9
$DIMTOH
 70
     1
  9
$DIMSE1
 70
     0
  9
$DIMSE2
 70
     0
  9
$DIMTAD
 70
     1
  9
$DIMZIN
 70
     0
  9
$DIMBLK
  1

  9
$DIMASO
 70
     1
  9
$DIMSHO
 70
     1
  9
$DIMPOST
  1

  9
$DIMAPOST
  1

  9
$DIMALT
 70
     0
  9
$DIMALTD
 70
     3
  9
$DIMALTF
 40
0.0393700787
  9
$DIMLFAC
 40
1.0
  9
$DIMTOFL
 70
     1
  9
$DIMTVP
 40
0.0
  9
$DIMTIX
 70
     0
  9
$DIMSOXD
 70
     0
  9
$DIMSAH
 70
     0
  9
$DIMBLK1
  1

  9
$DIMBLK2
  1

  9
$DIMSTYLE
  2
ISO-25
  9
$DIMCLRD
 70
     0
  9
$DIMCLRE
 70
     0
  9
$DIMCLRT
 70
     0
  9
$DIMTFAC
 40
1.0
  9
$DIMGAP
 40
1.524
  9
$DIMJUST
 70
     0
  9
$DIMSD1
 70
     0
  9
$DIMSD2
 70
     0
  9
$DIMTOLJ
 70
     0
  9
$DIMTZIN
 70
     0
  9
$DIMALTZ
 70
     0
  9
$DIMALTTZ
 70
     0
  9
$DIMUPT
 70
     0
  9
$DIMDEC
 70
     2
  9
$DIMTDEC
 70
     2
  9
$DIMALTU
 70
     2
  9
$DIMALTTD
 70
     3
  9
$DIMTXSTY
  7
Standard
  9
$DIMAUNIT
 70
     0
  9
$DIMADEC
 70
     2
  9
$DIMALTRND
 40
0.0
  9
$DIMAZIN
 70
     0
  9
$DIMDSEP
 70
    44
  9
$DIMATFIT
 70
     3
  9
$DIMFRAC
 70
     0
  9
$DIMLDRBLK
  1

  9
$DIMLUNIT
 70
     2
  9
$DIMLWD
 70
    -2
  9
$DIMLWE
 70
    -2
  9
$DIMTMOVE
 70
     0
  9
$LUNITS
 70
     2
  9
$LUPREC
 70
     2
  9
$SKETCHINC
 40
1.0
  9
$FILLETRAD
 40
10.0
  9
$AUNITS
 70
     0
  9
$AUPREC
 70
     2
  9
$MENU
  1
.
  9
$ELEVATION
 40
0.0
  9
$PELEVATION
 40
0.0
  9
$THICKNESS
 40
0.0
  9
$LIMCHECK
 70
     0
  9
$CHAMFERA
 40
0.0
  9
$CHAMFERB
 40
0.0
  9
$CHAMFERC
 40
0.0
  9
$CHAMFERD
 40
0.0
  9
$SKPOLY
 70
     0
  9
$TDCREATE
 40
2459380.636749618
  9
$TDUCREATE
 40
2459380.595082951
  9
$TDUPDATE
 40
2459380.636778403
  9
$TDUUPDATE
 40
2459380.595111736
  9
$TDINDWG
 40
0.0000000116
  9
$TDUSRTIMER
 40
0.0000000116
  9
$USRTIMER
 70
     1
  9
$ANGBASE
 50
0.0
  9
$ANGDIR
 70
     0
  9
$PDMODE
 70
     0
  9
$PDSIZE
 40
-1.0
  9
$PLINEWID
 40
0.0
  9
$SPLFRAME
 70
     0
  9
$SPLINETYPE
 70
     6
  9
$SPLINESEGS
 70
     8
  9
$HANDSEED
  5
1EF
  9
$SURFTAB1
 70
     6
  9
$SURFTAB2
 70
     6
  9
$SURFTYPE
 70
     6
  9
$SURFU
 70
     6
  9
$SURFV
 70
     6
  9
$UCSBASE
  2

  9
$UCSNAME
  2

  9
$UCSORG
 10
0.0
 20
0.0
 30
0.0
  9
$UCSXDIR
 10
1.0
 20
0.0
 30
0.0
  9
$UCSYDIR
 10
0.0
 20
1.0
 30
0.0
  9
$UCSORTHOREF
  2

  9
$UCSORTHOVIEW
 70
     0
  9
$UCSORGTOP
 10
0.0
 20
0.0
 30
0.0
  9
$UCSORGBOTTOM
 10
0.0
 20
0.0
 30
0.0
  9
$UCSORGLEFT
 10
0.0
 20
0.0
 30
0.0
  9
$UCSORGRIGHT
 10
0.0
 20
0.0
 30
0.0
  9
$UCSORGFRONT
 10
0.0
 20
0.0
 30
0.0
  9
$UCSORGBACK
 10
0.0
 20
0.0
 30
0.0
  9
$PUCSBASE
  2

  9
$PUCSNAME
  2

  9
$PUCSORG
 10
0.0
 20
0.0
 30
0.0
  9
$PUCSXDIR
 10
1.0
 20
0.0
 30
0.0
  9
$PUCSYDIR
 10
0.0
 20
1.0
 30
0.0
  9
$PUCSORTHOREF
  2

  9
$PUCSORTHOVIEW
 70
     0
  9
$PUCSORGTOP
 10
0.0
 20
0.0
 30
0.0
  9
$PUCSORGBOTTOM
 10
0.0
 20
0.0
 30
0.0
  9
$PUCSORGLEFT
 10
0.0
 20
0.0
 30
0.0
  9
$PUCSORGRIGHT
 10
0.0
 20
0.0
 30
0.0
  9
$PUCSORGFRONT
 10
0.0
 20
0.0
 30
0.0
  9
$PUCSORGBACK
 10
0.0
 20
0.0
 30
0.0
  9
$USERI1
 70
     0
  9
$USERI2
 70
     0
  9
$USERI3
 70
     0
  9
$USERI4
 70
     0
  9
$USERI5
 70
     0
  9
$USERR1
 40
0.0
  9
$USERR2
 40
0.0
  9
$USERR3
 40
0.0
  9
$USERR4
 40
0.0
  9
$USERR5
 40
0.0
  9
$WORLDVIEW
 70
     1
  9
$SHADEDGE
 70
     3
  9
$SHADEDIF
 70
    70
  9
$TILEMODE
 70
     1
  9
$MAXACTVP
 70
    64
  9
$PINSBASE
 10
0.0
 20
0.0
 30
0.0
  9
$PLIMCHECK
 70
     0
  9
$PEXTMIN
 10
-46.5
 20
-46.5
 30
0.0
  9
$PEXTMAX
 10
46.5
 20
46.5
 30
0.0
  9
$PLIMMIN
 10
-56.0384615385
 20
-50.0769230769
  9
$PLIMMAX
 10
85.6076923077
 20
50.0769230769
  9
$UNITMODE
 70
     0
  9
$VISRETAIN
 70
     1
  9
$PLINEGEN
 70
     0
  9
$PSLTSCALE
 70
     1
  9
$TREEDEPTH
 70
  3020
  9
$CMLSTYLE
  2
Standard
  9
$CMLJUST
 70
     0
  9
$CMLSCALE
 40
20.0
  9
$PROXYGRAPHICS
 70
     1
  9
$MEASUREMENT
 70
     1
  9
$CELWEIGHT
370
    -1
  9
$ENDCAPS
280
     0
  9
$JOINSTYLE
280
     0
  9
$LWDISPLAY
290
     1
  9
$INSUNITS
 70
     4
  9
$HYPERLINKBASE
  1

  9
$STYLESHEET
  1

  9
$XEDIT
290
     1
  9
$CEPSNTYPE
380
     0
  9
$PSTYLEMODE
290
     1
  9
$FINGERPRINTGUID
  2
{05b631eb-5790-4032-b968-244147d2c433}
  9
$VERSIONGUID
  2
{FAEB1C32-E019-11D5-929B-00C0DF256EC4}
  9
$EXTNAMES
290
     1
  9
$PSVPSCALE
 40
0.0
  9
$OLESTARTUP
290
     0
  0
ENDSEC
  0
SECTION
  2
CLASSES
  0
CLASS
  1
ACDBDICTIONARYWDFLT
  2
AcDbDictionaryWithDefault
  3
ObjectDBX Classes
 90
        0
280
     0
281
     0
  0
CLASS
  1
VISUALSTYLE
  2
AcDbVisualStyle
  3
ObjectDBX Classes
 90
     4095
280
     0
281
     0
  0
CLASS
  1
MATERIAL
  2
AcDbMaterial
  3
ObjectDBX Classes
 90
     1153
280
     0
281
     0
  0
CLASS
  1
SCALE
  2
AcDbScale
  3
ObjectDBX Classes
 90
     1153
280
     0
281
     0
  0
CLASS
  1
TABLESTYLE
  2
AcDbTableStyle
  3
ObjectDBX Classes
 90
     4095
280
     0
281
     0
  0
CLASS
  1
MLEADERSTYLE
  2
AcDbMLeaderStyle
  3
ACDB_MLEADERSTYLE_CLASS
 90
     4095
280
     0
281
     0
  0
CLASS
  1
SUN
  2
AcDbSun
  3
SCENEOE
 90
     1153
280
     0
281
     0
  0
CLASS
  1
ACDBPLACEHOLDER
  2
AcDbPlaceHolder
  3
ObjectDBX Classes
 90
        0
280
     0
281
     0
  0
CLASS
  1
LAYOUT
  2
AcDbLayout
  3
ObjectDBX Classes
 90
        0
280
     0
281
     0
  0
ENDSEC
  0
SECTION
  2
TABLES
  0
TABLE
  2
VPORT
  5
8
330
0
100
AcDbSymbolTable
 70
     1
  0
VPORT
  5
29
330
8
100
AcDbSymbolTableRecord
100
AcDbViewportTableRecord
  2
*Active
 70
     0
 10
0.0
 20
0.0
 11
1.0
 21
1.0
 12
46.19541596
 22
0.0
 13
0.0
 23
0.0
 14
10.0
 24
10.0
 15
10.0
 25
10.0
 16
0.0
 26
0.0
 36
1.0
 17
0.0
 27
0.0
 37
0.0
 40
94.86
 41
1.6179272208
 42
50.0
 43
0.0
 44
0.0
 50
0.0
 51
0.0
 71
     0
 72
   100
 73
     1
 74
     3
 75
     0
 76
     0
 77
     0
 78
     0
281
     0
 65
     1
110
0.0
120
0.0
130
0.0
111
1.0
121
0.0
131
0.0
112
0.0
122
1.0
132
0.0
 79
     0
146
0.0
  0
ENDTAB
  0
TABLE
  2
LTYPE
  5
5
330
0
100
AcDbSymbolTable
 70
     6
  0
LTYPE
  5
14
330
5
100
AcDbSymbolTableRecord
100
AcDbLinetypeTableRecord
  2
ByBlock
 70
     0
  3

 72
    65
 73
     0
 40
0.0
  0
LTYPE
  5
15
330
5
100
AcDbSymbolTableRecord
100
AcDbLinetypeTableRecord
  2
ByLayer
 70
     0
  3

 72
    65
 73
     0
 40
0.0
  0
LTYPE
  5
16
330
5
100
AcDbSymbolTableRecord
100
AcDbLinetypeTableRecord
  2
Continuous
 70
     0
  3
Solid line
 72
    65
 73
     0
 40
0.0
  0
LTYPE
  5
6E
330
5
100
AcDbSymbolTableRecord
100
AcDbLinetypeTableRecord
  2
HIDDEN
 70
     0
  3
Hidden __ __ __ __ __ __ __ __ __ __ __ __ __ __
 72
    65
 73
     2
 40
1.905
 49
1.27
 74
     0
 49
-0.635
 74
     0
  0
LTYPE
  5
6F
330
5
100
AcDbSymbolTableRecord
100
AcDbLinetypeTableRecord
  2
PHANTOM
 70
     0
  3
Phantom ______  __  __  ______  __  __  ______
 72
    65
 73
     6
 40
12.7
 49
6.35
 74
     0
 49
-1.27
 74
     0
 49
1.27
 74
     0
 49
-1.27
 74
     0
 49
1.27
 74
     0
 49
-1.27
 74
     0
  0
LTYPE
  5
70
330
5
100
AcDbSymbolTableRecord
100
AcDbLinetypeTableRecord
  2
CENTER
 70
     0
  3
Center ____ _ ____ _ ____ _ ____ _ ____ _ ____
 72
    65
 73
     4
 40
10.16
 49
6.35
 74
     0
 49
-1.27
 74
     0
 49
1.27
 74
     0
 49
-1.27
 74
     0
  0
LTYPE
  5
71
330
5
100
AcDbSymbolTableRecord
100
AcDbLinetypeTableRecord
  2
CENTERX2
 70
     0
  3
Center (2x) ________  __  ________  __  _____
 72
    65
 73
     4
 40
20.32
 49
12.7
 74
     0
 49
-2.54
 74
     0
 49
2.54
 74
     0
 49
-2.54
 74
     0
  0
LTYPE
  5
72
330
5
100
AcDbSymbolTableRecord
100
AcDbLinetypeTableRecord
  2
DOT2
 70
     0
  3
Dot (.5x) ........................................
 72
    65
 73
     2
 40
0.635
 49
0.0
 74
     0
 49
-0.635
 74
     0
  0
ENDTAB
  0
TABLE
  2
LAYER
  5
2
330
0
100
AcDbSymbolTable
 70
     1
  0
LAYER
  5
10
330
2
100
AcDbSymbolTableRecord
100
AcDbLayerTableRecord
  2
0
 70
     0
 62
     7
  6
Continuous
370
    -3
390
F
  0
ENDTAB
  0
TABLE
  2
STYLE
  5
3
330
0
100
AcDbSymbolTable
 70
     1
  0
STYLE
  5
11
330
3
100
AcDbSymbolTableRecord
100
AcDbTextStyleTableRecord
  2
Standard
 70
     0
 40
0.0
 41
1.0
 50
0.0
 71
     0
 42
6.35
  3
txt
  4

  0
ENDTAB
  0
TABLE
  2
VIEW
  5
6
330
0
100
AcDbSymbolTable
 70
     0
  0
ENDTAB
  0
TABLE
  2
UCS
  5
7
330
0
100
AcDbSymbolTable
 70
     0
  0
ENDTAB
  0
TABLE
  2
APPID
  5
9
330
0
100
AcDbSymbolTable
 70
     1
  0
APPID
  5
12
330
9
100
AcDbSymbolTableRecord
100
AcDbRegAppTableRecord
  2
ACAD
 70
     0
  0
ENDTAB
  0
TABLE
  2
DIMSTYLE
  5
A
330
0
100
AcDbSymbolTable
 70
     1
100
AcDbDimStyleTable
  0
DIMSTYLE
105
27
330
A
100
AcDbSymbolTableRecord
100
AcDbDimStyleTableRecord
  2
ISO-25
 70
     0
 41
2.5
 42
0.625
 43
3.75
 44
1.25
 73
     0
 74
     0
 77
     1
 78
     8
140
2.5
141
2.5
143
0.0393700787
147
0.625
171
     3
172
     1
178
     0
271
     2
272
     2
274
     3
278
    44
283
     0
284
     8
340
11
  0
ENDTAB
  0
TABLE
  2
BLOCK_RECORD
  5
1
330
0
100
AcDbSymbolTable
 70
     1
  0
BLOCK_RECORD
  5
1F
330
1
100
AcDbSymbolTableRecord
100
AcDbBlockTableRecord
  2
*Model_Space
340
22
  0
BLOCK_RECORD
  5
1B
330
1
100
AcDbSymbolTableRecord
100
AcDbBlockTableRecord
  2
*Paper_Space
340
1E
  0
BLOCK_RECORD
  5
23
330
1
100
AcDbSymbolTableRecord
100
AcDbBlockTableRecord
  2
*Paper_Space0
340
26
  0
ENDTAB
  0
ENDSEC
  0
SECTION
  2
BLOCKS
  0
BLOCK
  5
20
330
1F
100
AcDbEntity
  8
0
100
AcDbBlockBegin
  2
*Model_Space
 70
     0
 10
0.0
 20
0.0
 30
0.0
  3
*Model_Space
  1

  0
ENDBLK
  5
21
330
1F
100
AcDbEntity
  8
0
100
AcDbBlockEnd
  0
BLOCK
  5
1C
330
1B
100
AcDbEntity
 67
     1
  8
0
100
AcDbBlockBegin
  2
*Paper_Space
 70
     0
 10
0.0
 20
0.0
 30
0.0
  3
*Paper_Space
  1

  0
ENDBLK
  5
1D
330
1B
100
AcDbEntity
 67
     1
  8
0
100
AcDbBlockEnd
  0
BLOCK
  5
24
330
23
100
AcDbEntity
  8
0
100
AcDbBlockBegin
  2
*Paper_Space0
 70
     0
 10
0.0
 20
0.0
 30
0.0
  3
*Paper_Space0
  1

  0
ENDBLK
  5
25
330
23
100
AcDbEntity
  8
0
100
AcDbBlockEnd
  0
ENDSEC
  0
SECTION
  2
ENTITIES
  0
SPLINE
  5
81
330
1F
100
AcDbEntity
  8
0
  6
Continuous
 62
     7
370
    25
100
AcDbSpline
210
0.0
220
0.0
230
1.0
 70
     8
 71
     3
 72
     9
 73
     5
 74
     0
 42
0.000000001
 43
0.00000001
 40
0.0
 40
0.0
 40
0.0
 40
0.0
 40
0.497867707827354
 40
1.0
 40
1.0
 40
1.0
 40
1.0
 10
-26.8268480604726
 20
-28.3
 30
0.0
 10
-26.73549555581008
 20
-28.54793107536065
 30
0.0
 10
-26.55200804853396
 20
-29.04591692875651
 30
0.0
 10
-26.36852325695367
 20
-29.54390371972087
 30
0.0
 10
-26.27638961797864
 20
-29.7939589685395
 30
0.0
  0
SPLINE
  5
82
330
1F
100
AcDbEntity
  8
0
  6
Continuous
 62
     7
370
    25
100
AcDbSpline
210
0.0
220
0.0
230
1.0
 70
     8
 71
     3
 72
     9
 73
     5
 74
     0
 42
0.000000001
 43
0.00000001
 40
0.0
 40
0.0
 40
0.0
 40
0.0
 40
0.4978677078273532
 40
1.0
 40
1.0
 40
1.0
 40
1.0
 10
-25.35101472713926
 20
-28.3
 30
0.0
 10
-25.25966222247675
 20
-28.54793107536065
 30
0.0
 10
-25.07617471520063
 20
-29.04591692875652
 30
0.0
 10
-24.89268992362033
 20
-29.54390371972087
 30
0.0
 10
-24.8005562846453
 20
-29.7939589685395
 30
0.0
  0
SPLINE
  5
83
330
1F
100
AcDbEntity
  8
0
  6
Continuous
 62
     7
370
    25
100
AcDbSpline
210
0.0
220
0.0
230
1.0
 70
     8
 71
     3
 72
     9
 73
     5
 74
     0
 42
0.000000001
 43
0.00000001
 40
0.0
 40
0.0
 40
0.0
 40
0.0
 40
0.4978677078273517
 40
1.0
 40
1.0
 40
1.0
 40
1.0
 10
-23.87518139380591
 20
-28.29999999999999
 30
0.0
 10
-23.7838288891434
 20
-28.54793107536064
 30
0.0
 10
-23.6003413818673
 20
-29.04591692875652
 30
0.0
 10
-23.416856590287
 20
-29.54390371972086
 30
0.0
 10
-23.32472295131197
 20
-29.7939589685395
 30
0.0
  0
SPLINE
  5
84
330
1F
100
AcDbEntity
  8
0
  6
Continuous
 62
     7
370
    25
100
AcDbSpline
210
0.0
220
0.0
230
1.0
 70
     8
 71
     3
 72
     9
 73
     5
 74
     0
 42
0.000000001
 43
0.00000001
 40
0.0
 40
0.0
 40
0.0
 40
0.0
 40
0.4978677078273525
 40
1.0
 40
1.0
 40
1.0
 40
1.0
 10
-22.39934806047258
 20
-28.29999999999999
 30
0.0
 10
-22.30799555581008
 20
-28.54793107536065
 30
0.0
 10
-22.12450804853395
 20
-29.04591692875653
 30
0.0
 10
-21.94102325695367
 20
-29.54390371972087
 30
0.0
 10
-21.84888961797864
 20
-29.7939589685395
 30
0.0
  0
SPLINE
  5
85
330
1F
100
AcDbEntity
  8
0
  6
Continuous
 62
     7
370
    25
100
AcDbSpline
210
0.0
220
0.0
230
1.0
 70
     8
 71
     3
 72
     9
 73
     5
 74
     0
 42
0.000000001
 43
0.00000001
 40
0.0
 40
0.0
 40
0.0
 40
0.0
 40
0.4978677078273525
 40
1.0
 40
1.0
 40
1.0
 40
1.0
 10
-20.92351472713926
 20
-28.29999999999999
 30
0.0
 10
-20.83216222247675
 20
-28.54793107536065
 30
0.0
 10
-20.64867471520063
 20
-29.04591692875653
 30
0.0
 10
-20.46518992362033
 20
-29.54390371972087
 30
0.0
 10
-20.37305628464529
 20
-29.7939589685395
 30
0.0
  0
SPLINE
  5
86
330
1F
100
AcDbEntity
  8
0
  6
Continuous
 62
     7
370
    25
100
AcDbSpline
210
0.0
220
0.0
230
1.0
 70
     8
 71
     3
 72
     9
 73
     5
 74
     0
 42
0.000000001
 43
0.00000001
 40
0.0
 40
0.0
 40
0.0
 40
0.0
 40
0.4978677078273525
 40
1.0
 40
1.0
 40
1.0
 40
1.0
 10
-19.44768139380593
 20
-28.29999999999999
 30
0.0
 10
-19.35632888914342
 20
-28.54793107536065
 30
0.0
 10
-19.1728413818673
 20
-29.04591692875653
 30
0.0
 10
-18.989356590287
 20
-29.54390371972087
 30
0.0
 10
-18.89722295131196
 20
-29.7939589685395
 30
0.0
  0
SPLINE
  5
87
330
1F
100
AcDbEntity
  8
0
  6
Continuous
 62
     7
370
    25
100
AcDbSpline
210
0.0
220
0.0
230
1.0
 70
     8
 71
     3
 72
     9
 73
     5
 74
     0
 42
0.000000001
 43
0.00000001
 40
0.0
 40
0.0
 40
0.0
 40
0.0
 40
0.4978677078273532
 40
1.0
 40
1.0
 40
1.0
 40
1.0
 10
-17.9718480604726
 20
-28.3
 30
0.0
 10
-17.88049555581008
 20
-28.54793107536065
 30
0.0
 10
-17.69700804853396
 20
-29.04591692875652
 30
0.0
 10
-17.51352325695367
 20
-29.54390371972087
 30
0.0
 10
-17.42138961797864
 20
-29.7939589685395
 30
0.0
  0
SPLINE
  5
88
330
1F
100
AcDbEntity
  8
0
  6
Continuous
 62
     7
370
    25
100
AcDbSpline
210
0.0
220
0.0
230
1.0
 70
     8
 71
     3
 72
     9
 73
     5
 74
     0
 42
0.000000001
 43
0.00000001
 40
0.0
 40
0.0
 40
0.0
 40
0.0
 40
0.4978677078273525
 40
1.0
 40
1.0
 40
1.0
 40
1.0
 10
-16.49601472713925
 20
-28.29999999999999
 30
0.0
 10
-16.40466222247674
 20
-28.54793107536065
 30
0.0
 10
-16.22117471520063
 20
-29.04591692875653
 30
0.0
 10
-16.03768992362033
 20
-29.54390371972087
 30
0.0
 10
-15.9455562846453
 20
-29.7939589685395
 30
0.0
  0
SPLINE
  5
89
330
1F
100
AcDbEntity
  8
0
  6
Continuous
 62
     7
370
    25
100
AcDbSpline
210
0.0
220
0.0
230
1.0
 70
     8
 71
     3
 72
     9
 73
     5
 74
     0
 42
0.000000001
 43
0.00000001
 40
0.0
 40
0.0
 40
0.0
 40
0.0
 40
0.4978677078273529
 40
1.0
 40
1.0
 40
1.0
 40
1.0
 10
-15.02018139380593
 20
-28.29999999999999
 30
0.0
 10
-14.92882888914341
 20
-28.54793107536065
 30
0.0
 10
-14.74534138186729
 20
-29.04591692875652
 30
0.0
 10
-14.561856590287
 20
-29.54390371972086
 30
0.0
 10
-14.46972295131197
 20
-29.7939589685395
 30
0.0
  0
SPLINE
  5
8A
330
1F
100
AcDbEntity
  8
0
  6
Continuous
 62
     7
370
    25
100
AcDbSpline
210
0.0
220
0.0
230
1.0
 70
     8
 71
     3
 72
     9
 73
     5
 74
     0
 42
0.000000001
 43
0.00000001
 40
0.0
 40
0.0
 40
0.0
 40
0.0
 40
0.4978677078273529
 40
1.0
 40
1.0
 40
1.0
 40
1.0
 10
-13.54434806047259
 20
-28.29999999999999
 30
0.0
 10
-13.45299555581007
 20
-28.54793107536065
 30
0.0
 10
-13.26950804853395
 20
-29.04591692875652
 30
0.0
 10
-13.08602325695367
 20
-29.54390371972086
 30
0.0
 10
-12.99388961797863
 20
-29.7939589685395
 30
0.0
  0
SPLINE
  5
8B
330
1F
100
AcDbEntity
  8
0
  6
Continuous
 62
     7
370
    25
100
AcDbSpline
210
0.0
220
0.0
230
1.0
 70
     8
 71
     3
 72
     9
 73
     5
 74
     0
 42
0.000000001
 43
0.00000001
 40
0.0
 40
0.0
 40
0.0
 40
0.0
 40
0.4978677078273532
 40
1.0
 40
1.0
 40
1.0
 40
1.0
 10
-12.06851472713926
 20
-28.3
 30
0.0
 10
-11.97716222247674
 20
-28.54793107536065
 30
0.0
 10
-11.79367471520063
 20
-29.04591692875652
 30
0.0
 10
-11.61018992362033
 20
-29.54390371972087
 30
0.0
 10
-11.51805628464531
 20
-29.7939589685395
 30
0.0
  0
SPLINE
  5
8C
330
1F
100
AcDbEntity
  8
0
  6
Continuous
 62
     7
370
    25
100
AcDbSpline
210
0.0
220
0.0
230
1.0
 70
     8
 71
     3
 72
     9
 73
     5
 74
     0
 42
0.000000001
 43
0.00000001
 40
0.0
 40
0.0
 40
0.0
 40
0.0
 40
0.4978677078273532
 40
1.0
 40
1.0
 40
1.0
 40
1.0
 10
-10.59268139380593
 20
-28.3
 30
0.0
 10
-10.50132888914341
 20
-28.54793107536065
 30
0.0
 10
-10.31784138186729
 20
-29.04591692875652
 30
0.0
 10
-10.134356590287
 20
-29.54390371972087
 30
0.0
 10
-10.04222295131197
 20
-29.7939589685395
 30
0.0
  0
SPLINE
  5
8D
330
1F
100
AcDbEntity
  8
0
  6
Continuous
 62
     7
370
    25
100
AcDbSpline
210
0.0
220
0.0
230
1.0
 70
     8
 71
     3
 72
     9
 73
     5
 74
     0
 42
0.000000001
 43
0.00000001
 40
0.0
 40
0.0
 40
0.0
 40
0.0
 40
0.4978677078273532
 40
1.0
 40
1.0
 40
1.0
 40
1.0
 10
-9.116848060472597
 20
-28.3
 30
0.0
 10
-9.02549555581008
 20
-28.54793107536065
 30
0.0
 10
-8.84200804853396
 20
-29.04591692875652
 30
0.0
 10
-8.658523256953668
 20
-29.54390371972087
 30
0.0
 10
-8.566389617978635
 20
-29.7939589685395
 30
0.0
  0
SPLINE
  5
8E
330
1F
100
AcDbEntity
  8
0
  6
Continuous
 62
     7
370
    25
100
AcDbSpline
210
0.0
220
0.0
230
1.0
 70
     8
 71
     3
 72
     9
 73
     5
 74
     0
 42
0.000000001
 43
0.00000001
 40
0.0
 40
0.0
 40
0.0
 40
0.0
 40
0.4978677078273523
 40
1.0
 40
1.0
 40
1.0
 40
1.0
 10
-7.641014727139253
 20
-28.29999999999999
 30
0.0
 10
-7.549662222476744
 20
-28.54793107536065
 30
0.0
 10
-7.366174715200624
 20
-29.04591692875652
 30
0.0
 10
-7.182689923620332
 20
-29.54390371972087
 30
0.0
 10
-7.090556284645305
 20
-29.7939589685395
 30
0.0
  0
SPLINE
  5
8F
330
1F
100
AcDbEntity
  8
0
  6
Continuous
 62
     7
370
    25
100
AcDbSpline
210
0.0
220
0.0
230
1.0
 70
     8
 71
     3
 72
     9
 73
     5
 74
     0
 42
0.000000001
 43
0.00000001
 40
0.0
 40
0.0
 40
0.0
 40
0.0
 40
0.5000004373107778
 40
1.0
 40
1.0
 40
1.0
 40
1.0
 10
-25.55778437042935
 20
29.63632825784632
 30
0.0
 10
-25.64989556981179
 20
29.38746852436845
 30
0.0
 10
-25.83411780745191
 20
28.88974949272854
 30
0.0
 10
-26.01834053370439
 20
28.39206332630381
 30
0.0
 10
-26.11045181626806
 20
28.14322046073497
 30
0.0
  0
SPLINE
  5
90
330
1F
100
AcDbEntity
  8
0
  6
Continuous
 62
     7
370
    25
100
AcDbSpline
210
0.0
220
0.0
230
1.0
 70
     8
 71
     3
 72
     9
 73
     5
 74
     0
 42
0.000000001
 43
0.00000001
 40
0.0
 40
0.0
 40
0.0
 40
0.0
 40
0.5000004373107778
 40
1.0
 40
1.0
 40
1.0
 40
1.0
 10
-24.08195103709603
 20
29.63632825784632
 30
0.0
 10
-24.17406223647846
 20
29.38746852436845
 30
0.0
 10
-24.35828447411857
 20
28.88974949272854
 30
0.0
 10
-24.54250720037106
 20
28.39206332630381
 30
0.0
 10
-24.63461848293473
 20
28.14322046073497
 30
0.0
  0
SPLINE
  5
91
330
1F
100
AcDbEntity
  8
0
  6
Continuous
 62
     7
370
    25
100
AcDbSpline
210
0.0
220
0.0
230
1.0
 70
     8
 71
     3
 72
     9
 73
     5
 74
     0
 42
0.000000001
 43
0.00000001
 40
0.0
 40
0.0
 40
0.0
 40
0.0
 40
0.5000004373107778
 40
1.0
 40
1.0
 40
1.0
 40
1.0
 10
-22.60611770376268
 20
29.63632825784632
 30
0.0
 10
-22.69822890314511
 20
29.38746852436845
 30
0.0
 10
-22.88245114078524
 20
28.88974949272854
 30
0.0
 10
-23.06667386703773
 20
28.39206332630381
 30
0.0
 10
-23.15878514960139
 20
28.14322046073497
 30
0.0
  0
SPLINE
  5
92
330
1F
100
AcDbEntity
  8
0
  6
Continuous
 62
     7
370
    25
100
AcDbSpline
210
0.0
220
0.0
230
1.0
 70
     8
 71
     3
 72
     9
 73
     5
 74
     0
 42
0.000000001
 43
0.00000001
 40
0.0
 40
0.0
 40
0.0
 40
0.0
 40
0.5000004373107768
 40
1.0
 40
1.0
 40
1.0
 40
1.0
 10
-21.13028437042935
 20
29.63632825784632
 30
0.0
 10
-21.22239556981179
 20
29.38746852436845
 30
0.0
 10
-21.40661780745191
 20
28.88974949272853
 30
0.0
 10
-21.5908405337044
 20
28.39206332630381
 30
0.0
 10
-21.68295181626806
 20
28.14322046073497
 30
0.0
  0
SPLINE
  5
93
330
1F
100
AcDbEntity
  8
0
  6
Continuous
 62
     7
370
    25
100
AcDbSpline
210
0.0
220
0.0
230
1.0
 70
     8
 71
     3
 72
     9
 73
     5
 74
     0
 42
0.000000001
 43
0.00000001
 40
0.0
 40
0.0
 40
0.0
 40
0.0
 40
0.500000437310776
 40
1.0
 40
1.0
 40
1.0
 40
1.0
 10
-19.65445103709602
 20
29.63632825784632
 30
0.0
 10
-19.74656223647844
 20
29.38746852436845
 30
0.0
 10
-19.93078447411857
 20
28.88974949272853
 30
0.0
 10
-20.11500720037106
 20
28.3920633263038
 30
0.0
 10
-20.20711848293473
 20
28.14322046073497
 30
0.0
  0
SPLINE
  5
94
330
1F
100
AcDbEntity
  8
0
  6
Continuous
 62
     7
370
    25
100
AcDbSpline
210
0.0
220
0.0
230
1.0
 70
     8
 71
     3
 72
     9
 73
     5
 74
     0
 42
0.000000001
 43
0.00000001
 40
0.0
 40
0.0
 40
0.0
 40
0.0
 40
0.500000437310776
 40
1.0
 40
1.0
 40
1.0
 40
1.0
 10
-18.17861770376268
 20
29.63632825784632
 30
0.0
 10
-18.27072890314511
 20
29.38746852436845
 30
0.0
 10
-18.45495114078525
 20
28.88974949272853
 30
0.0
 10
-18.63917386703773
 20
28.3920633263038
 30
0.0
 10
-18.73128514960139
 20
28.14322046073497
 30
0.0
  0
SPLINE
  5
95
330
1F
100
AcDbEntity
  8
0
  6
Continuous
 62
     7
370
    25
100
AcDbSpline
210
0.0
220
0.0
230
1.0
 70
     8
 71
     3
 72
     9
 73
     5
 74
     0
 42
0.000000001
 43
0.00000001
 40
0.0
 40
0.0
 40
0.0
 40
0.0
 40
0.500000437310776
 40
1.0
 40
1.0
 40
1.0
 40
1.0
 10
-16.70278437042935
 20
29.63632825784632
 30
0.0
 10
-16.79489556981179
 20
29.38746852436845
 30
0.0
 10
-16.97911780745191
 20
28.88974949272853
 30
0.0
 10
-17.1633405337044
 20
28.3920633263038
 30
0.0
 10
-17.25545181626806
 20
28.14322046073497
 30
0.0
  0
SPLINE
  5
96
330
1F
100
AcDbEntity
  8
0
  6
Continuous
 62
     7
370
    25
100
AcDbSpline
210
0.0
220
0.0
230
1.0
 70
     8
 71
     3
 72
     9
 73
     5
 74
     0
 42
0.000000001
 43
0.00000001
 40
0.0
 40
0.0
 40
0.0
 40
0.0
 40
0.5000004373107763
 40
1.0
 40
1.0
 40
1.0
 40
1.0
 10
-15.22695103709602
 20
29.63632825784632
 30
0.0
 10
-15.31906223647846
 20
29.38746852436846
 30
0.0
 10
-15.50328447411858
 20
28.88974949272853
 30
0.0
 10
-15.68750720037107
 20
28.39206332630381
 30
0.0
 10
-15.77961848293473
 20
28.14322046073497
 30
0.0
  0
SPLINE
  5
97
330
1F
100
AcDbEntity
  8
0
  6
Continuous
 62
     7
370
    25
100
AcDbSpline
210
0.0
220
0.0
230
1.0
 70
     8
 71
     3
 72
     9
 73
     5
 74
     0
 42
0.000000001
 43
0.00000001
 40
0.0
 40
0.0
 40
0.0
 40
0.0
 40
0.500000437310776
 40
1.0
 40
1.0
 40
1.0
 40
1.0
 10
-13.75111770376269
 20
29.63632825784632
 30
0.0
 10
-13.84322890314512
 20
29.38746852436845
 30
0.0
 10
-14.02745114078525
 20
28.88974949272853
 30
0.0
 10
-14.21167386703773
 20
28.3920633263038
 30
0.0
 10
-14.30378514960139
 20
28.14322046073497
 30
0.0
  0
SPLINE
  5
98
330
1F
100
AcDbEntity
  8
0
  6
Continuous
 62
     7
370
    25
100
AcDbSpline
210
0.0
220
0.0
230
1.0
 70
     8
 71
     3
 72
     9
 73
     5
 74
     0
 42
0.000000001
 43
0.00000001
 40
0.0
 40
0.0
 40
0.0
 40
0.0
 40
0.5000004373107765
 40
1.0
 40
1.0
 40
1.0
 40
1.0
 10
-12.27528437042935
 20
29.63632825784632
 30
0.0
 10
-12.36739556981178
 20
29.38746852436846
 30
0.0
 10
-12.55161780745191
 20
28.88974949272853
 30
0.0
 10
-12.7358405337044
 20
28.39206332630381
 30
0.0
 10
-12.82795181626806
 20
28.14322046073497
 30
0.0
  0
SPLINE
  5
99
330
1F
100
AcDbEntity
  8
0
  6
Continuous
 62
     7
370
    25
100
AcDbSpline
210
0.0
220
0.0
230
1.0
 70
     8
 71
     3
 72
     9
 73
     5
 74
     0
 42
0.000000001
 43
0.00000001
 40
0.0
 40
0.0
 40
0.0
 40
0.0
 40
0.500000437310776
 40
1.0
 40
1.0
 40
1.0
 40
1.0
 10
-10.79945103709602
 20
29.63632825784632
 30
0.0
 10
-10.89156223647846
 20
29.38746852436845
 30
0.0
 10
-11.07578447411858
 20
28.88974949272853
 30
0.0
 10
-11.26000720037107
 20
28.3920633263038
 30
0.0
 10
-11.35211848293473
 20
28.14322046073497
 30
0.0
  0
SPLINE
  5
9A
330
1F
100
AcDbEntity
  8
0
  6
Continuous
 62
     7
370
    25
100
AcDbSpline
210
0.0
220
0.0
230
1.0
 70
     8
 71
     3
 72
     9
 73
     5
 74
     0
 42
0.000000001
 43
0.00000001
 40
0.0
 40
0.0
 40
0.0
 40
0.0
 40
0.500000437310776
 40
1.0
 40
1.0
 40
1.0
 40
1.0
 10
-9.323617703762693
 20
29.63632825784632
 30
0.0
 10
-9.41572890314512
 20
29.38746852436845
 30
0.0
 10
-9.599951140785247
 20
28.88974949272853
 30
0.0
 10
-9.784173867037733
 20
28.3920633263038
 30
0.0
 10
-9.876285149601399
 20
28.14322046073497
 30
0.0
  0
SPLINE
  5
9B
330
1F
100
AcDbEntity
  8
0
  6
Continuous
 62
     7
370
    25
100
AcDbSpline
210
0.0
220
0.0
230
1.0
 70
     8
 71
     3
 72
     9
 73
     5
 74
     0
 42
0.000000001
 43
0.00000001
 40
0.0
 40
0.0
 40
0.0
 40
0.0
 40
0.5000004373107754
 40
1.0
 40
1.0
 40
1.0
 40
1.0
 10
-7.847784370429357
 20
29.63632825784632
 30
0.0
 10
-7.939895569811783
 20
29.38746852436846
 30
0.0
 10
-8.124117807451912
 20
28.88974949272853
 30
0.0
 10
-8.308340533704397
 20
28.39206332630381
 30
0.0
 10
-8.400451816268063
 20
28.14322046073497
 30
0.0
  0
SPLINE
  5
9C
330
1F
100
AcDbEntity
  8
0
  6
Continuous
 62
     7
370
    25
100
AcDbSpline
210
0.0
220
0.0
230
1.0
 70
     8
 71
     3
 72
     9
 73
     5
 74
     0
 42
0.000000001
 43
0.00000001
 40
0.0
 40
0.0
 40
0.0
 40
0.0
 40
0.5000004373107763
 40
1.0
 40
1.0
 40
1.0
 40
1.0
 10
-6.371951037096022
 20
29.63632825784632
 30
0.0
 10
-6.464062236478455
 20
29.38746852436846
 30
0.0
 10
-6.648284474118582
 20
28.88974949272853
 30
0.0
 10
-6.832507200371069
 20
28.39206332630381
 30
0.0
 10
-6.924618482934727
 20
28.14322046073497
 30
0.0
  0
SPLINE
  5
9D
330
1F
100
AcDbEntity
  8
0
  6
Continuous
 62
     7
370
    25
100
AcDbSpline
210
0.0
220
0.0
230
1.0
 70
     8
 71
     3
 72
     9
 73
     5
 74
     0
 42
0.000000001
 43
0.00000001
 40
0.0
 40
0.0
 40
0.0
 40
0.0
 40
0.5000004373107754
 40
1.0
 40
1.0
 40
1.0
 40
1.0
 10
-27.03361770376268
 20
29.63632825784632
 30
0.0
 10
-27.12572890314512
 20
29.38746852436847
 30
0.0
 10
-27.30995114078523
 20
28.88974949272854
 30
0.0
 10
-27.49417386703773
 20
28.39206332630381
 30
0.0
 10
-27.58628514960139
 20
28.14322046073497
 30
0.0
  0
SPLINE
  5
9E
330
1F
100
AcDbEntity
  8
0
  6
Continuous
 62
     7
370
    25
100
AcDbSpline
210
0.0
220
0.0
230
1.0
 70
     8
 71
     3
 72
     9
 73
     5
 74
     0
 42
0.000000001
 43
0.00000001
 40
0.0
 40
0.0
 40
0.0
 40
0.0
 40
0.4978677078273547
 40
1.0
 40
1.0
 40
1.0
 40
1.0
 10
-28.30268139380593
 20
-28.3
 30
0.0
 10
-28.21132888914342
 20
-28.54793107536065
 30
0.0
 10
-28.02784138186729
 20
-29.04591692875653
 30
0.0
 10
-27.844356590287
 20
-29.54390371972087
 30
0.0
 10
-27.75222295131197
 20
-29.7939589685395
 30
0.0
  0
SPLINE
  5
9F
330
1F
100
AcDbEntity
  8
0
  6
Continuous
 62
     7
370
    25
100
AcDbSpline
210
0.0
220
0.0
230
1.0
 70
     8
 71
     3
 72
     9
 73
     5
 74
     0
 42
0.000000001
 43
0.00000001
 40
0.0
 40
0.0
 40
0.0
 40
0.0
 40
0.5000014206757294
 40
1.0
 40
1.0
 40
1.0
 40
1.0
 10
-26.26832676809222
 20
-29.7962157180567
 30
0.0
 10
-26.15205572393157
 20
-29.54618115816486
 30
0.0
 10
-25.91951429634221
 20
-29.04611345924926
 30
0.0
 10
-25.68697086299404
 20
-28.54604666452187
 30
0.0
 10
-25.57069947668877
 20
-28.29601397759093
 30
0.0
  0
SPLINE
  5
A0
330
1F
100
AcDbEntity
  8
0
  6
Continuous
 62
     7
370
    25
100
AcDbSpline
210
0.0
220
0.0
230
1.0
 70
     8
 71
     3
 72
     9
 73
     5
 74
     0
 42
0.000000001
 43
0.00000001
 40
0.0
 40
0.0
 40
0.0
 40
0.0
 40
0.5000014206757312
 40
1.0
 40
1.0
 40
1.0
 40
1.0
 10
-24.7924934347589
 20
-29.7962157180567
 30
0.0
 10
-24.67622239059823
 20
-29.54618115816486
 30
0.0
 10
-24.44368096300886
 20
-29.04611345924926
 30
0.0
 10
-24.21113752966071
 20
-28.54604666452187
 30
0.0
 10
-24.09486614335545
 20
-28.29601397759093
 30
0.0
  0
SPLINE
  5
A1
330
1F
100
AcDbEntity
  8
0
  6
Continuous
 62
     7
370
    25
100
AcDbSpline
210
0.0
220
0.0
230
1.0
 70
     8
 71
     3
 72
     9
 73
     5
 74
     0
 42
0.000000001
 43
0.00000001
 40
0.0
 40
0.0
 40
0.0
 40
0.0
 40
0.5000014206757308
 40
1.0
 40
1.0
 40
1.0
 40
1.0
 10
-23.31666010142557
 20
-29.7962157180567
 30
0.0
 10
-23.2003890572649
 20
-29.54618115816486
 30
0.0
 10
-22.96784762967553
 20
-29.04611345924926
 30
0.0
 10
-22.73530419632737
 20
-28.54604666452187
 30
0.0
 10
-22.6190328100221
 20
-28.29601397759093
 30
0.0
  0
SPLINE
  5
A2
330
1F
100
AcDbEntity
  8
0
  6
Continuous
 62
     7
370
    25
100
AcDbSpline
210
0.0
220
0.0
230
1.0
 70
     8
 71
     3
 72
     9
 73
     5
 74
     0
 42
0.000000001
 43
0.00000001
 40
0.0
 40
0.0
 40
0.0
 40
0.0
 40
0.5000014206757275
 40
1.0
 40
1.0
 40
1.0
 40
1.0
 10
-21.84082676809222
 20
-29.7962157180567
 30
0.0
 10
-21.72455572393157
 20
-29.54618115816487
 30
0.0
 10
-21.49201429634221
 20
-29.04611345924926
 30
0.0
 10
-21.25947086299404
 20
-28.54604666452187
 30
0.0
 10
-21.14319947668877
 20
-28.29601397759093
 30
0.0
  0
SPLINE
  5
A3
330
1F
100
AcDbEntity
  8
0
  6
Continuous
 62
     7
370
    25
100
AcDbSpline
210
0.0
220
0.0
230
1.0
 70
     8
 71
     3
 72
     9
 73
     5
 74
     0
 42
0.000000001
 43
0.00000001
 40
0.0
 40
0.0
 40
0.0
 40
0.0
 40
0.5000014206757284
 40
1.0
 40
1.0
 40
1.0
 40
1.0
 10
-20.36499343475889
 20
-29.7962157180567
 30
0.0
 10
-20.24872239059825
 20
-29.54618115816486
 30
0.0
 10
-20.01618096300887
 20
-29.04611345924926
 30
0.0
 10
-19.78363752966071
 20
-28.54604666452188
 30
0.0
 10
-19.66736614335544
 20
-28.29601397759093
 30
0.0
  0
SPLINE
  5
A4
330
1F
100
AcDbEntity
  8
0
  6
Continuous
 62
     7
370
    25
100
AcDbSpline
210
0.0
220
0.0
230
1.0
 70
     8
 71
     3
 72
     9
 73
     5
 74
     0
 42
0.000000001
 43
0.00000001
 40
0.0
 40
0.0
 40
0.0
 40
0.0
 40
0.5000014206757275
 40
1.0
 40
1.0
 40
1.0
 40
1.0
 10
-18.88916010142556
 20
-29.7962157180567
 30
0.0
 10
-18.77288905726492
 20
-29.54618115816487
 30
0.0
 10
-18.54034762967553
 20
-29.04611345924926
 30
0.0
 10
-18.30780419632737
 20
-28.54604666452187
 30
0.0
 10
-18.1915328100221
 20
-28.29601397759093
 30
0.0
  0
SPLINE
  5
A5
330
1F
100
AcDbEntity
  8
0
  6
Continuous
 62
     7
370
    25
100
AcDbSpline
210
0.0
220
0.0
230
1.0
 70
     8
 71
     3
 72
     9
 73
     5
 74
     0
 42
0.000000001
 43
0.00000001
 40
0.0
 40
0.0
 40
0.0
 40
0.0
 40
0.5000014206757288
 40
0.9999999999999999
 40
0.9999999999999999
 40
0.9999999999999999
 40
0.9999999999999999
 10
-17.41332676809222
 20
-29.7962157180567
 30
0.0
 10
-17.29705572393157
 20
-29.54618115816486
 30
0.0
 10
-17.06451429634219
 20
-29.04611345924925
 30
0.0
 10
-16.83197086299404
 20
-28.54604666452187
 30
0.0
 10
-16.71569947668877
 20
-28.29601397759093
 30
0.0
  0
SPLINE
  5
A6
330
1F
100
AcDbEntity
  8
0
  6
Continuous
 62
     7
370
    25
100
AcDbSpline
210
0.0
220
0.0
230
1.0
 70
     8
 71
     3
 72
     9
 73
     5
 74
     0
 42
0.000000001
 43
0.00000001
 40
0.0
 40
0.0
 40
0.0
 40
0.0
 40
0.5000014206757301
 40
1.0
 40
1.0
 40
1.0
 40
1.0
 10
-15.93749343475889
 20
-29.7962157180567
 30
0.0
 10
-15.82122239059824
 20
-29.54618115816485
 30
0.0
 10
-15.58868096300887
 20
-29.04611345924926
 30
0.0
 10
-15.35613752966071
 20
-28.54604666452187
 30
0.0
 10
-15.23986614335544
 20
-28.29601397759093
 30
0.0
  0
SPLINE
  5
A7
330
1F
100
AcDbEntity
  8
0
  6
Continuous
 62
     7
370
    25
100
AcDbSpline
210
0.0
220
0.0
230
1.0
 70
     8
 71
     3
 72
     9
 73
     5
 74
     0
 42
0.000000001
 43
0.00000001
 40
0.0
 40
0.0
 40
0.0
 40
0.0
 40
0.5000014206757303
 40
1.0
 40
1.0
 40
1.0
 40
1.0
 10
-14.46166010142556
 20
-29.7962157180567
 30
0.0
 10
-14.34538905726492
 20
-29.54618115816486
 30
0.0
 10
-14.11284762967554
 20
-29.04611345924926
 30
0.0
 10
-13.88030419632737
 20
-28.54604666452187
 30
0.0
 10
-13.76403281002211
 20
-28.29601397759093
 30
0.0
  0
SPLINE
  5
A8
330
1F
100
AcDbEntity
  8
0
  6
Continuous
 62
     7
370
    25
100
AcDbSpline
210
0.0
220
0.0
230
1.0
 70
     8
 71
     3
 72
     9
 73
     5
 74
     0
 42
0.000000001
 43
0.00000001
 40
0.0
 40
0.0
 40
0.0
 40
0.0
 40
0.5000014206757298
 40
1.0
 40
1.0
 40
1.0
 40
1.0
 10
-12.98582676809222
 20
-29.7962157180567
 30
0.0
 10
-12.86955572393157
 20
-29.54618115816485
 30
0.0
 10
-12.6370142963422
 20
-29.04611345924926
 30
0.0
 10
-12.40447086299405
 20
-28.54604666452187
 30
0.0
 10
-12.28819947668877
 20
-28.29601397759093
 30
0.0
  0
SPLINE
  5
A9
330
1F
100
AcDbEntity
  8
0
  6
Continuous
 62
     7
370
    25
100
AcDbSpline
210
0.0
220
0.0
230
1.0
 70
     8
 71
     3
 72
     9
 73
     5
 74
     0
 42
0.000000001
 43
0.00000001
 40
0.0
 40
0.0
 40
0.0
 40
0.0
 40
0.5000014206757307
 40
1.0
 40
1.0
 40
1.0
 40
1.0
 10
-11.50999343475889
 20
-29.7962157180567
 30
0.0
 10
-11.39372239059824
 20
-29.54618115816486
 30
0.0
 10
-11.16118096300887
 20
-29.04611345924926
 30
0.0
 10
-10.92863752966071
 20
-28.54604666452187
 30
0.0
 10
-10.81236614335544
 20
-28.29601397759093
 30
0.0
  0
SPLINE
  5
AA
330
1F
100
AcDbEntity
  8
0
  6
Continuous
 62
     7
370
    25
100
AcDbSpline
210
0.0
220
0.0
230
1.0
 70
     8
 71
     3
 72
     9
 73
     5
 74
     0
 42
0.000000001
 43
0.00000001
 40
0.0
 40
0.0
 40
0.0
 40
0.0
 40
0.5000014206757303
 40
1.0
 40
1.0
 40
1.0
 40
1.0
 10
-10.03416010142556
 20
-29.7962157180567
 30
0.0
 10
-9.917889057264913
 20
-29.54618115816486
 30
0.0
 10
-9.685347629675539
 20
-29.04611345924926
 30
0.0
 10
-9.452804196327373
 20
-28.54604666452187
 30
0.0
 10
-9.336532810022106
 20
-28.29601397759093
 30
0.0
  0
SPLINE
  5
AB
330
1F
100
AcDbEntity
  8
0
  6
Continuous
 62
     7
370
    25
100
AcDbSpline
210
0.0
220
0.0
230
1.0
 70
     8
 71
     3
 72
     9
 73
     5
 74
     0
 42
0.000000001
 43
0.00000001
 40
0.0
 40
0.0
 40
0.0
 40
0.0
 40
0.5000014206757303
 40
1.0
 40
1.0
 40
1.0
 40
1.0
 10
-8.558326768092227
 20
-29.7962157180567
 30
0.0
 10
-8.442055723931578
 20
-29.54618115816486
 30
0.0
 10
-8.209514296342203
 20
-29.04611345924926
 30
0.0
 10
-7.976970862994044
 20
-28.54604666452187
 30
0.0
 10
-7.860699476688771
 20
-28.29601397759093
 30
0.0
  0
SPLINE
  5
AC
330
1F
100
AcDbEntity
  8
0
  6
Continuous
 62
     7
370
    25
100
AcDbSpline
210
0.0
220
0.0
230
1.0
 70
     8
 71
     3
 72
     9
 73
     5
 74
     0
 42
0.000000001
 43
0.00000001
 40
0.0
 40
0.0
 40
0.0
 40
0.0
 40
0.5000014206757293
 40
1.0
 40
1.0
 40
1.0
 40
1.0
 10
-7.082493434758891
 20
-29.7962157180567
 30
0.0
 10
-6.966222390598242
 20
-29.54618115816486
 30
0.0
 10
-6.733680963008873
 20
-29.04611345924926
 30
0.0
 10
-6.501137529660708
 20
-28.54604666452187
 30
0.0
 10
-6.384866143355442
 20
-28.29601397759093
 30
0.0
  0
SPLINE
  5
AD
330
1F
100
AcDbEntity
  8
0
  6
Continuous
 62
     7
370
    25
100
AcDbSpline
210
0.0
220
0.0
230
1.0
 70
     8
 71
     3
 72
     9
 73
     5
 74
     0
 42
0.000000001
 43
0.00000001
 40
0.0
 40
0.0
 40
0.0
 40
0.0
 40
0.4999997489397565
 40
1.0
 40
1.0
 40
1.0
 40
1.0
 10
-26.28887836092721
 20
28.14871269141678
 30
0.0
 10
-26.40513164732622
 20
28.39755173154225
 30
0.0
 10
-26.63763833687059
 20
28.89523006168766
 30
0.0
 10
-26.87014467293532
 20
29.39293421000112
 30
0.0
 10
-26.98639789934077
 20
29.64178640911157
 30
0.0
  0
SPLINE
  5
AE
330
1F
100
AcDbEntity
  8
0
  6
Continuous
 62
     7
370
    25
100
AcDbSpline
210
0.0
220
0.0
230
1.0
 70
     8
 71
     3
 72
     9
 73
     5
 74
     0
 42
0.000000001
 43
0.00000001
 40
0.0
 40
0.0
 40
0.0
 40
0.0
 40
0.4999997489397565
 40
1.0
 40
1.0
 40
1.0
 40
1.0
 10
-24.81304502759388
 20
28.14871269141678
 30
0.0
 10
-24.92929831399289
 20
28.39755173154225
 30
0.0
 10
-25.16180500353726
 20
28.89523006168766
 30
0.0
 10
-25.39431133960197
 20
29.39293421000112
 30
0.0
 10
-25.51056456600744
 20
29.64178640911157
 30
0.0
  0
SPLINE
  5
AF
330
1F
100
AcDbEntity
  8
0
  6
Continuous
 62
     7
370
    25
100
AcDbSpline
210
0.0
220
0.0
230
1.0
 70
     8
 71
     3
 72
     9
 73
     5
 74
     0
 42
0.000000001
 43
0.00000001
 40
0.0
 40
0.0
 40
0.0
 40
0.0
 40
0.499999748939757
 40
1.0
 40
1.0
 40
1.0
 40
1.0
 10
-23.33721169426055
 20
28.14871269141678
 30
0.0
 10
-23.45346498065955
 20
28.39755173154225
 30
0.0
 10
-23.68597167020393
 20
28.89523006168766
 30
0.0
 10
-23.91847800626865
 20
29.39293421000112
 30
0.0
 10
-24.03473123267409
 20
29.64178640911157
 30
0.0
  0
SPLINE
  5
B0
330
1F
100
AcDbEntity
  8
0
  6
Continuous
 62
     7
370
    25
100
AcDbSpline
210
0.0
220
0.0
230
1.0
 70
     8
 71
     3
 72
     9
 73
     5
 74
     0
 42
0.000000001
 43
0.00000001
 40
0.0
 40
0.0
 40
0.0
 40
0.0
 40
0.499999748939756
 40
1.0
 40
1.0
 40
1.0
 40
1.0
 10
-21.8613783609272
 20
28.14871269141678
 30
0.0
 10
-21.97763164732621
 20
28.39755173154225
 30
0.0
 10
-22.21013833687059
 20
28.89523006168767
 30
0.0
 10
-22.4426446729353
 20
29.39293421000112
 30
0.0
 10
-22.55889789934076
 20
29.64178640911157
 30
0.0
  0
SPLINE
  5
B1
330
1F
100
AcDbEntity
  8
0
  6
Continuous
 62
     7
370
    25
100
AcDbSpline
210
0.0
220
0.0
230
1.0
 70
     8
 71
     3
 72
     9
 73
     5
 74
     0
 42
0.000000001
 43
0.00000001
 40
0.0
 40
0.0
 40
0.0
 40
0.0
 40
0.499999748939757
 40
1.0
 40
1.0
 40
1.0
 40
1.0
 10
-20.38554502759388
 20
28.14871269141678
 30
0.0
 10
-20.50179831399289
 20
28.39755173154225
 30
0.0
 10
-20.73430500353726
 20
28.89523006168767
 30
0.0
 10
-20.96681133960197
 20
29.39293421000112
 30
0.0
 10
-21.08306456600743
 20
29.64178640911157
 30
0.0
  0
SPLINE
  5
B2
330
1F
100
AcDbEntity
  8
0
  6
Continuous
 62
     7
370
    25
100
AcDbSpline
210
0.0
220
0.0
230
1.0
 70
     8
 71
     3
 72
     9
 73
     5
 74
     0
 42
0.000000001
 43
0.00000001
 40
0.0
 40
0.0
 40
0.0
 40
0.0
 40
0.499999748939756
 40
1.0
 40
1.0
 40
1.0
 40
1.0
 10
-18.90971169426055
 20
28.14871269141678
 30
0.0
 10
-19.02596498065954
 20
28.39755173154225
 30
0.0
 10
-19.25847167020393
 20
28.89523006168767
 30
0.0
 10
-19.49097800626864
 20
29.39293421000112
 30
0.0
 10
-19.60723123267411
 20
29.64178640911157
 30
0.0
  0
SPLINE
  5
B3
330
1F
100
AcDbEntity
  8
0
  6
Continuous
 62
     7
370
    25
100
AcDbSpline
210
0.0
220
0.0
230
1.0
 70
     8
 71
     3
 72
     9
 73
     5
 74
     0
 42
0.000000001
 43
0.00000001
 40
0.0
 40
0.0
 40
0.0
 40
0.0
 40
0.4999997489397566
 40
1.0
 40
1.0
 40
1.0
 40
1.0
 10
-17.43387836092721
 20
28.14871269141678
 30
0.0
 10
-17.5501316473262
 20
28.39755173154225
 30
0.0
 10
-17.78263833687059
 20
28.89523006168766
 30
0.0
 10
-18.01514467293531
 20
29.39293421000112
 30
0.0
 10
-18.13139789934078
 20
29.64178640911157
 30
0.0
  0
SPLINE
  5
B4
330
1F
100
AcDbEntity
  8
0
  6
Continuous
 62
     7
370
    25
100
AcDbSpline
210
0.0
220
0.0
230
1.0
 70
     8
 71
     3
 72
     9
 73
     5
 74
     0
 42
0.000000001
 43
0.00000001
 40
0.0
 40
0.0
 40
0.0
 40
0.0
 40
0.4999997489397565
 40
1.0
 40
1.0
 40
1.0
 40
1.0
 10
-15.95804502759388
 20
28.14871269141678
 30
0.0
 10
-16.07429831399288
 20
28.39755173154225
 30
0.0
 10
-16.30680500353726
 20
28.89523006168767
 30
0.0
 10
-16.53931133960197
 20
29.39293421000112
 30
0.0
 10
-16.65556456600743
 20
29.64178640911157
 30
0.0
  0
SPLINE
  5
B5
330
1F
100
AcDbEntity
  8
0
  6
Continuous
 62
     7
370
    25
100
AcDbSpline
210
0.0
220
0.0
230
1.0
 70
     8
 71
     3
 72
     9
 73
     5
 74
     0
 42
0.000000001
 43
0.00000001
 40
0.0
 40
0.0
 40
0.0
 40
0.0
 40
0.499999748939756
 40
1.0
 40
1.0
 40
1.0
 40
1.0
 10
-14.48221169426054
 20
28.14871269141678
 30
0.0
 10
-14.59846498065954
 20
28.39755173154225
 30
0.0
 10
-14.83097167020393
 20
28.89523006168767
 30
0.0
 10
-15.06347800626864
 20
29.39293421000112
 30
0.0
 10
-15.1797312326741
 20
29.64178640911157
 30
0.0
  0
SPLINE
  5
B6
330
1F
100
AcDbEntity
  8
0
  6
Continuous
 62
     7
370
    25
100
AcDbSpline
210
0.0
220
0.0
230
1.0
 70
     8
 71
     3
 72
     9
 73
     5
 74
     0
 42
0.000000001
 43
0.00000001
 40
0.0
 40
0.0
 40
0.0
 40
0.0
 40
0.4999997489397556
 40
1.0
 40
1.0
 40
1.0
 40
1.0
 10
-13.00637836092721
 20
28.14871269141678
 30
0.0
 10
-13.12263164732622
 20
28.39755173154225
 30
0.0
 10
-13.35513833687059
 20
28.89523006168767
 30
0.0
 10
-13.58764467293531
 20
29.39293421000112
 30
0.0
 10
-13.70389789934077
 20
29.64178640911157
 30
0.0
  0
SPLINE
  5
B7
330
1F
100
AcDbEntity
  8
0
  6
Continuous
 62
     7
370
    25
100
AcDbSpline
210
0.0
220
0.0
230
1.0
 70
     8
 71
     3
 72
     9
 73
     5
 74
     0
 42
0.000000001
 43
0.00000001
 40
0.0
 40
0.0
 40
0.0
 40
0.0
 40
0.499999748939756
 40
1.0
 40
1.0
 40
1.0
 40
1.0
 10
-11.53054502759387
 20
28.14871269141678
 30
0.0
 10
-11.64679831399288
 20
28.39755173154225
 30
0.0
 10
-11.87930500353726
 20
28.89523006168767
 30
0.0
 10
-12.11181133960198
 20
29.39293421000112
 30
0.0
 10
-12.22806456600743
 20
29.64178640911157
 30
0.0
  0
SPLINE
  5
B8
330
1F
100
AcDbEntity
  8
0
  6
Continuous
 62
     7
370
    25
100
AcDbSpline
210
0.0
220
0.0
230
1.0
 70
     8
 71
     3
 72
     9
 73
     5
 74
     0
 42
0.000000001
 43
0.00000001
 40
0.0
 40
0.0
 40
0.0
 40
0.0
 40
0.4999997489397565
 40
1.0
 40
1.0
 40
1.0
 40
1.0
 10
-10.05471169426055
 20
28.14871269141678
 30
0.0
 10
-10.17096498065954
 20
28.39755173154225
 30
0.0
 10
-10.40347167020392
 20
28.89523006168767
 30
0.0
 10
-10.63597800626865
 20
29.39293421000112
 30
0.0
 10
-10.7522312326741
 20
29.64178640911157
 30
0.0
  0
SPLINE
  5
B9
330
1F
100
AcDbEntity
  8
0
  6
Continuous
 62
     7
370
    25
100
AcDbSpline
210
0.0
220
0.0
230
1.0
 70
     8
 71
     3
 72
     9
 73
     5
 74
     0
 42
0.000000001
 43
0.00000001
 40
0.0
 40
0.0
 40
0.0
 40
0.0
 40
0.499999748939756
 40
1.0
 40
1.0
 40
1.0
 40
1.0
 10
-8.57887836092721
 20
28.14871269141678
 30
0.0
 10
-8.695131647326216
 20
28.39755173154225
 30
0.0
 10
-8.927638336870595
 20
28.89523006168767
 30
0.0
 10
-9.160144672935314
 20
29.39293421000112
 30
0.0
 10
-9.276397899340774
 20
29.64178640911157
 30
0.0
  0
SPLINE
  5
BA
330
1F
100
AcDbEntity
  8
0
  6
Continuous
 62
     7
370
    25
100
AcDbSpline
210
0.0
220
0.0
230
1.0
 70
     8
 71
     3
 72
     9
 73
     5
 74
     0
 42
0.000000001
 43
0.00000001
 40
0.0
 40
0.0
 40
0.0
 40
0.0
 40
0.4999997489397565
 40
1.0
 40
1.0
 40
1.0
 40
1.0
 10
-7.103045027593874
 20
28.14871269141678
 30
0.0
 10
-7.219298313992879
 20
28.39755173154225
 30
0.0
 10
-7.45180500353726
 20
28.89523006168767
 30
0.0
 10
-7.684311339601978
 20
29.39293421000112
 30
0.0
 10
-7.800564566007432
 20
29.64178640911157
 30
0.0
  0
SPLINE
  5
BC
330
1F
100
AcDbEntity
  8
0
  6
Continuous
 62
     7
370
    25
100
AcDbSpline
210
0.0
220
0.0
230
1.0
 70
     8
 71
     3
 72
     9
 73
     5
 74
     0
 42
0.000000001
 43
0.00000001
 40
0.0
 40
0.0
 40
0.0
 40
0.0
 40
0.5000014206757321
 40
1.0
 40
1.0
 40
1.0
 40
1.0
 10
-27.74416010142555
 20
-29.7962157180567
 30
0.0
 10
-27.62788905726491
 20
-29.54618115816486
 30
0.0
 10
-27.39534762967553
 20
-29.04611345924927
 30
0.0
 10
-27.16280419632737
 20
-28.54604666452187
 30
0.0
 10
-27.0465328100221
 20
-28.29601397759093
 30
0.0
  0
SPLINE
  5
EB
330
1F
100
AcDbEntity
  8
0
  6
Continuous
 62
     7
370
    25
100
AcDbSpline
210
0.0
220
0.0
230
1.0
 70
     8
 71
     3
 72
    20
 73
    16
 74
     0
 42
0.000000001
 43
0.00000001
 40
0.0
 40
0.0
 40
0.0
 40
0.0
 40
0.2499999999999993
 40
0.2499999999999993
 40
0.3749999999999994
 40
0.3749999999999994
 40
0.4999999999999996
 40
0.4999999999999996
 40
0.6249999999999998
 40
0.6249999999999998
 40
0.7499999999999998
 40
0.7499999999999998
 40
0.8749999999999999
 40
0.8749999999999999
 40
1.0
 40
1.0
 40
1.0
 40
1.0
 10
57.61157236055855
 20
-14.33944430317802
 30
0.0
 10
57.17855330119613
 20
-14.73201005716047
 30
0.0
 10
56.65191587203359
 20
-15.08730471892271
 30
0.0
 10
55.72508304369289
 20
-15.56575373603898
 30
0.0
 10
55.39054597005805
 20
-15.71683105196062
 30
0.0
 10
54.69243988606812
 20
-15.99200781536324
 30
0.0
 10
54.32760668398765
 20
-16.11703110682048
 30
0.0
 10
53.56685390976935
 20
-16.34232489616278
 30
0.0
 10
53.17093758574195
 20
-16.44259798038412
 30
0.0
 10
52.34681834852248
 20
-16.61743567031144
 30
0.0
 10
51.92540354915621
 20
-16.6904610955184
 30
0.0
 10
51.07206666194924
 20
-16.8073893021478
 30
0.0
 10
50.6389231104678
 20
-16.8515501755419
 30
0.0
 10
49.75956860953688
 20
-16.91100661211093
 30
0.0
 10
49.31139671552852
 20
-16.92624712205697
 30
0.0
 10
48.86305324615399
 20
-16.92624712205697
 30
0.0
  0
SPLINE
  5
EC
330
1F
100
AcDbEntity
  8
0
  6
Continuous
 62
     7
370
    25
100
AcDbSpline
210
0.0
220
0.0
230
1.0
 70
     8
 71
     3
 72
     8
 73
     4
 74
     0
 42
0.000000001
 43
0.00000001
 40
0.0
 40
0.0
 40
0.0
 40
0.0
 40
0.0036808457886172
 40
0.0036808457886172
 40
0.0036808457886172
 40
0.0036808457886172
 10
57.61157236055855
 20
-14.33944430317802
 30
0.0
 10
57.01902594620001
 20
-14.87663412171568
 30
0.0
 10
56.42631257571954
 20
-15.41377790482175
 30
0.0
 10
55.83347212111538
 20
-15.9508866119556
 30
0.0
  0
SPLINE
  5
ED
330
1F
100
AcDbEntity
  8
0
  6
Continuous
 62
     7
370
    25
100
AcDbSpline
210
0.0
220
0.0
230
1.0
 70
     8
 71
     3
 72
    20
 73
    16
 74
     0
 42
0.000000001
 43
0.00000001
 40
0.0
 40
0.0
 40
0.0
 40
0.0
 40
0.1250000000000002
 40
0.1250000000000002
 40
0.2500000000000005
 40
0.2500000000000005
 40
0.3750000000000008
 40
0.3750000000000008
 40
0.500000000000001
 40
0.500000000000001
 40
0.7500000000000003
 40
0.7500000000000003
 40
0.8750000000000002
 40
0.8750000000000002
 40
1.0
 40
1.0
 40
1.0
 40
1.0
 10
55.83347212111538
 20
-15.95088661195561
 30
0.0
 10
55.44619544318996
 20
-16.30175618262703
 30
0.0
 10
55.01232024932309
 20
-16.63971065273955
 30
0.0
 10
54.05350665989074
 20
-17.28663151285252
 30
0.0
 10
53.53623557472892
 20
-17.59055261381375
 30
0.0
 10
52.42877113164947
 20
-18.16076431298597
 30
0.0
 10
51.83857068824553
 20
-18.42705125483242
 30
0.0
 10
50.58411971115291
 20
-18.92141264156377
 30
0.0
 10
49.91557099101918
 20
-19.15041370323879
 30
0.0
 10
47.8531141603689
 20
-19.75983206622103
 30
0.0
 10
46.39016074883485
 20
-20.07071560314098
 30
0.0
 10
44.06027143258667
 20
-20.39016822352827
 30
0.0
 10
43.27442259065525
 20
-20.46990139949988
 30
0.0
 10
41.69081347984149
 20
-20.57649103426278
 30
0.0
 10
40.89204807456883
 20
-20.60348623603328
 30
0.0
 10
40.08613771518725
 20
-20.60348623603327
 30
0.0
  0
SPLINE
  5
F0
330
1F
100
AcDbEntity
  8
0
  6
Continuous
 62
     7
370
    25
100
AcDbSpline
210
0.0
220
0.0
230
1.0
 70
     8
 71
     3
 72
    20
 73
    16
 74
     0
 42
0.000000001
 43
0.00000001
 40
0.0
 40
0.0
 40
0.0
 40
0.0
 40
0.2499999999999998
 40
0.2499999999999998
 40
0.3749999999999998
 40
0.3749999999999998
 40
0.4999999999999999
 40
0.4999999999999999
 40
0.6249999999999999
 40
0.6249999999999999
 40
0.7499999999999999
 40
0.7499999999999999
 40
0.875
 40
0.875
 40
1.0
 40
1.0
 40
1.0
 40
1.0
 10
40.08613771518721
 20
-25.79963865873999
 30
0.0
 10
41.69873410418496
 20
-25.79963865873999
 30
0.0
 10
43.27499476905907
 20
-25.69298259496229
 30
0.0
 10
45.58643132309443
 20
-25.37756159482905
 30
0.0
 10
46.35254144590911
 20
-25.2449159855576
 30
0.0
 10
47.82475602936655
 20
-24.9333715036807
 30
0.0
 10
48.53498865083998
 20
-24.75425325513384
 30
0.0
 10
49.90453481016227
 20
-24.35007386091385
 30
0.0
 10
50.56385297529317
 20
-24.12501689031081
 30
0.0
 10
51.8296611992465
 20
-23.6272375929998
 30
0.0
 10
52.42613518963641
 20
-23.35829482848163
 30
0.0
 10
53.53978606508791
 20
-22.78485604357533
 30
0.0
 10
54.05837819099789
 20
-22.47980621371175
 30
0.0
 10
55.0173053288319
 20
-21.83218725309977
 30
0.0
 10
55.4491287579109
 20
-21.4952510456734
 30
0.0
 10
55.83347212111538
 20
-21.14703903466266
 30
0.0
  0
SPLINE
  5
F1
330
1F
100
AcDbEntity
  8
0
  6
Continuous
 62
     7
370
    25
100
AcDbSpline
210
0.0
220
0.0
230
1.0
 70
     8
 71
     3
 72
    20
 73
    16
 74
     0
 42
0.000000001
 43
0.00000001
 40
0.0
 40
0.0
 40
0.0
 40
0.0
 40
0.2499999999999997
 40
0.2499999999999997
 40
0.3749999999999997
 40
0.3749999999999997
 40
0.4999999999999998
 40
0.4999999999999998
 40
0.6249999999999998
 40
0.6249999999999998
 40
0.7499999999999998
 40
0.7499999999999998
 40
0.8749999999999999
 40
0.8749999999999999
 40
1.0
 40
1.0
 40
1.0
 40
1.0
 10
40.08613771518721
 20
20.6034862360341
 30
0.0
 10
41.69873410418497
 20
20.6034862360341
 30
0.0
 10
43.27499476905905
 20
20.49683017225639
 30
0.0
 10
45.58643132309443
 20
20.18140917212314
 30
0.0
 10
46.3525414459091
 20
20.0487635628517
 30
0.0
 10
47.82475602936655
 20
19.7372190809748
 30
0.0
 10
48.53498865083997
 20
19.55810083242793
 30
0.0
 10
49.90453481016227
 20
19.15392143820793
 30
0.0
 10
50.56385297529317
 20
18.92886446760489
 30
0.0
 10
51.8296611992465
 20
18.43108517029388
 30
0.0
 10
52.42613518963641
 20
18.1621424057757
 30
0.0
 10
53.53978606508791
 20
17.5887036208694
 30
0.0
 10
54.05837819099791
 20
17.28365379100582
 30
0.0
 10
55.0173053288319
 20
16.63603483039381
 30
0.0
 10
55.4491287579109
 20
16.29909862296745
 30
0.0
 10
55.83347212111538
 20
15.9508866119567
 30
0.0
  0
SPLINE
  5
F3
330
1F
100
AcDbEntity
  8
0
  6
Continuous
 62
     7
370
    25
100
AcDbSpline
210
0.0
220
0.0
230
1.0
 70
     8
 71
     3
 72
    20
 73
    16
 74
     0
 42
0.000000001
 43
0.00000001
 40
0.0
 40
0.0
 40
0.0
 40
0.0
 40
0.2499999999999986
 40
0.2499999999999986
 40
0.3749999999999988
 40
0.3749999999999988
 40
0.4999999999999991
 40
0.4999999999999991
 40
0.6249999999999994
 40
0.6249999999999994
 40
0.7499999999999996
 40
0.7499999999999996
 40
0.8749999999999998
 40
0.8749999999999998
 40
1.0
 40
1.0
 40
1.0
 40
1.0
 10
48.86305324615399
 20
16.92624712205804
 30
0.0
 10
49.75968105973681
 20
16.92624712205804
 30
0.0
 10
50.63606694262543
 20
16.86684642773395
 30
0.0
 10
51.9211487902288
 20
16.69118541701017
 30
0.0
 10
52.34704410641841
 20
16.61731718446648
 30
0.0
 10
53.16535483570434
 20
16.44385249663534
 30
0.0
 10
53.56010797683156
 20
16.34412554264327
 30
0.0
 10
54.32127320286853
 20
16.11910051542894
 30
0.0
 10
54.68768786529326
 20
15.99380476780604
 30
0.0
 10
55.39111326646998
 20
15.71668316612021
 30
0.0
 10
55.72166550949867
 20
15.56731584910338
 30
0.0
 10
56.33759341491304
 20
15.24976326341864
 30
0.0
 10
56.62374957193956
 20
15.08126687276779
 30
0.0
 10
57.15208623228288
 20
14.72467341006256
 30
0.0
 10
57.39507567934734
 20
14.53571553202417
 30
0.0
 10
57.61157236055855
 20
14.33944430317914
 30
0.0
  0
SPLINE
  5
F5
330
1F
100
AcDbEntity
  8
0
  6
Continuous
 62
     7
370
    25
100
AcDbSpline
210
0.0
220
0.0
230
1.0
 70
     8
 71
     3
 72
    20
 73
    16
 74
     0
 42
0.000000001
 43
0.00000001
 40
0.0
 40
0.0
 40
0.0
 40
0.0
 40
0.1250000000000002
 40
0.1250000000000002
 40
0.2500000000000003
 40
0.2500000000000003
 40
0.3750000000000005
 40
0.3750000000000005
 40
0.5000000000000007
 40
0.5000000000000007
 40
0.7500000000000004
 40
0.7500000000000004
 40
0.8750000000000002
 40
0.8750000000000002
 40
1.0
 40
1.0
 40
1.0
 40
1.0
 10
55.83347212111538
 20
21.14703903466365
 30
0.0
 10
55.44619544318996
 20
21.49790860533506
 30
0.0
 10
55.01232024932308
 20
21.83586307544756
 30
0.0
 10
54.05350665989075
 20
22.4827839355605
 30
0.0
 10
53.53623557472893
 20
22.78670503652171
 30
0.0
 10
52.42877113164948
 20
23.3569167356939
 30
0.0
 10
51.83857068824555
 20
23.62320367754036
 30
0.0
 10
50.5841197111529
 20
24.11756506427166
 30
0.0
 10
49.91557099101919
 20
24.34656612594667
 30
0.0
 10
47.85311416036889
 20
24.95598448892888
 30
0.0
 10
46.39016074883484
 20
25.26686802584882
 30
0.0
 10
44.06027143258664
 20
25.58632064623608
 30
0.0
 10
43.27442259065526
 20
25.66605382220771
 30
0.0
 10
41.69081347984152
 20
25.7726434569706
 30
0.0
 10
40.89204807456883
 20
25.79963865874108
 30
0.0
 10
40.08613771518725
 20
25.79963865874108
 30
0.0
  0
SPLINE
  5
F9
330
1F
100
AcDbEntity
  8
0
  6
Continuous
 62
     7
370
    25
100
AcDbSpline
210
0.0
220
0.0
230
1.0
 70
     8
 71
     3
 72
     8
 73
     4
 74
     0
 42
0.000000001
 43
0.00000001
 40
0.0
 40
0.0
 40
0.0
 40
0.0
 40
0.0036808457886172
 40
0.0036808457886172
 40
0.0036808457886172
 40
0.0036808457886172
 10
57.61157236055856
 20
-33.8750410290642
 30
0.0
 10
57.01902594620002
 20
-34.9494206661395
 30
0.0
 10
56.42631257571954
 20
-36.02370823235159
 30
0.0
 10
55.83347212111538
 20
-37.09792564661929
 30
0.0
  0
SPLINE
  5
FE
330
1F
100
AcDbEntity
  8
0
  6
Continuous
 62
     7
370
    25
100
AcDbSpline
210
0.0
220
0.0
230
1.0
 70
     8
 71
     3
 72
     8
 73
     4
 74
     0
 42
0.000000001
 43
0.00000001
 40
0.0
 40
0.0
 40
0.0
 40
0.0
 40
0.0036808457886172
 40
0.0036808457886172
 40
0.0036808457886172
 40
0.0036808457886172
 10
57.61157236055856
 20
19.53559672588614
 30
0.0
 10
57.01902594620002
 20
20.07278654442378
 30
0.0
 10
56.42631257571954
 20
20.60993032752981
 30
0.0
 10
55.83347212111538
 20
21.14703903466365
 30
0.0
  0
SPLINE
  5
FF
330
1F
100
AcDbEntity
  8
0
  6
Continuous
 62
     7
370
    25
100
AcDbSpline
210
0.0
220
0.0
230
1.0
 70
     8
 71
     3
 72
    20
 73
    16
 74
     0
 42
0.000000001
 43
0.00000001
 40
0.0
 40
0.0
 40
0.0
 40
0.0
 40
0.2499999999999986
 40
0.2499999999999986
 40
0.3749999999999988
 40
0.3749999999999988
 40
0.4999999999999991
 40
0.4999999999999991
 40
0.6249999999999994
 40
0.6249999999999994
 40
0.7499999999999996
 40
0.7499999999999996
 40
0.8749999999999998
 40
0.8749999999999998
 40
1.0
 40
1.0
 40
1.0
 40
1.0
 10
48.863053246154
 20
39.04864666682195
 30
0.0
 10
49.75968105973681
 20
39.04864666682197
 30
0.0
 10
50.63606694262545
 20
38.92984527817378
 30
0.0
 10
51.9211487902288
 20
38.57852325672622
 30
0.0
 10
52.34704410641842
 20
38.43078679163883
 30
0.0
 10
53.16535483570434
 20
38.08385741597655
 30
0.0
 10
53.56010797683158
 20
37.88440350799242
 30
0.0
 10
54.32127320286855
 20
37.43435345356376
 30
0.0
 10
54.68768786529327
 20
37.18376195831798
 30
0.0
 10
55.39111326646997
 20
36.62951875494634
 30
0.0
 10
55.7216655094987
 20
36.33078412091265
 30
0.0
 10
56.33759341491306
 20
35.69567894954318
 30
0.0
 10
56.62374957193956
 20
35.35868616824148
 30
0.0
 10
57.15208623228288
 20
34.64549924283101
 30
0.0
 10
57.39507567934735
 20
34.26758348675425
 30
0.0
 10
57.61157236055856
 20
33.8750410290642
 30
0.0
  0
SPLINE
  5
100
330
1F
100
AcDbEntity
  8
0
  6
Continuous
 62
     7
370
    25
100
AcDbSpline
210
0.0
220
0.0
230
1.0
 70
     8
 71
     3
 72
    20
 73
    16
 74
     0
 42
0.000000001
 43
0.00000001
 40
0.0
 40
0.0
 40
0.0
 40
0.0
 40
0.250000000000001
 40
0.250000000000001
 40
0.3750000000000008
 40
0.3750000000000008
 40
0.5000000000000007
 40
0.5000000000000007
 40
0.6250000000000004
 40
0.6250000000000004
 40
0.7500000000000003
 40
0.7500000000000003
 40
0.8750000000000001
 40
0.8750000000000001
 40
1.0
 40
1.0
 40
1.0
 40
1.0
 10
57.61157236055856
 20
-33.8750410290642
 30
0.0
 10
57.17855330119612
 20
-34.66017253702906
 30
0.0
 10
56.65191587203361
 20
-35.37076186055355
 30
0.0
 10
55.72508304369292
 20
-36.32765989478607
 30
0.0
 10
55.39054597005806
 20
-36.62981452662934
 30
0.0
 10
54.69243988606813
 20
-37.18016805343458
 30
0.0
 10
54.32760668398767
 20
-37.43021463634903
 30
0.0
 10
53.56685390976936
 20
-37.88080221503363
 30
0.0
 10
53.17093758574193
 20
-38.08134838347628
 30
0.0
 10
52.34681834852252
 20
-38.43102376333094
 30
0.0
 10
51.92540354915624
 20
-38.57707461374486
 30
0.0
 10
51.07206666194926
 20
-38.81093102700363
 30
0.0
 10
50.6389231104678
 20
-38.89925277379182
 30
0.0
 10
49.75956860953692
 20
-39.01816564692991
 30
0.0
 10
49.31139671552855
 20
-39.04864666682197
 30
0.0
 10
48.863053246154
 20
-39.04864666682196
 30
0.0
  0
SPLINE
  5
113
330
1F
100
AcDbEntity
  8
0
  6
Continuous
 62
     7
370
    25
100
AcDbSpline
210
0.0
220
0.0
230
1.0
 70
     8
 71
     3
 72
    30
 73
    26
 74
     0
 42
0.000000001
 43
0.00000001
 40
0.0
 40
0.0
 40
0.0
 40
0.0
 40
0.1249999999999999
 40
0.1249999999999999
 40
0.2499999999999999
 40
0.2499999999999999
 40
0.3749999999999998
 40
0.3749999999999998
 40
0.4062499999999998
 40
0.4062499999999998
 40
0.4374999999999998
 40
0.4374999999999998
 40
0.4999999999999999
 40
0.4999999999999999
 40
0.625
 40
0.625
 40
0.7500000000000001
 40
0.7500000000000001
 40
0.7812500000000001
 40
0.7812500000000001
 40
0.8125000000000001
 40
0.8125000000000001
 40
0.8750000000000001
 40
0.8750000000000001
 40
1.0
 40
1.0
 40
1.0
 40
1.0
 10
-29.03819980634699
 20
28.29999999999897
 30
0.0
 10
-29.02022254260252
 20
28.29999938464844
 30
0.0
 10
-29.00088515298856
 20
28.01915493449797
 30
0.0
 10
-28.96107001761636
 20
26.86438692833584
 30
0.0
 10
-28.9406098719326
 20
25.99037193351059
 30
0.0
 10
-28.90049070698419
 20
23.72641891136923
 30
0.0
 10
-28.88085026686187
 20
22.33796918265544
 30
0.0
 10
-28.8578648570149
 20
20.38446739097991
 30
0.0
 10
-28.85339997257406
 20
19.9846942708836
 30
0.0
 10
-28.84429409266069
 20
19.15606464295183
 30
0.0
 10
-28.83966124229891
 20
18.72731203337549
 30
0.0
 10
-28.82555599586503
 20
17.40012231806314
 30
0.0
 10
-28.81587587965632
 20
16.46057364019943
 30
0.0
 10
-28.78631269208218
 20
13.50350617644025
 30
0.0
 10
-28.76590375035355
 20
11.34585314005434
 30
0.0
 10
-28.72557651190799
 20
6.852827030210475
 30
0.0
 10
-28.70567747645837
 20
4.519713348217283
 30
0.0
 10
-28.68222226469099
 20
1.632589674199423
 30
0.0
 10
-28.6776010193311
 20
1.056594897032931
 30
0.0
 10
-28.66851994133728
 20
-0.0893586484447617
 30
0.0
 10
-28.66404142491817
 20
-0.6600925403327123
 30
0.0
 10
-28.65021473045445
 20
-2.38601675158101
 30
0.0
 10
-28.64069132077397
 20
-3.546045088813349
 30
0.0
 10
-28.61149407780141
 20
-7.014492851077256
 30
0.0
 10
-28.59118711217901
 20
-9.310580256055475
 30
0.0
 10
-28.57096827357479
 20
-11.48104261968962
 30
0.0
  0
SPLINE
  5
114
330
1F
100
AcDbEntity
  8
0
  6
Continuous
 62
     7
370
    25
100
AcDbSpline
210
0.0
220
0.0
230
1.0
 70
     8
 71
     3
 72
    36
 73
    32
 74
     0
 42
0.000000001
 43
0.00000001
 40
0.0
 40
0.0
 40
0.0
 40
0.0
 40
0.0007872809281822
 40
0.0372014292352406
 40
0.0741902393486121
 40
0.1115302592840851
 40
0.1489848698549241
 40
0.1863130755346671
 40
0.223278706082679
 40
0.2596597506363244
 40
0.2960776118626538
 40
0.3330689640638429
 40
0.370410261275557
 40
0.4078648357488937
 40
0.4451916933422413
 40
0.4821547150160151
 40
0.5185322435863546
 40
0.5549538116608393
 40
0.5919476992555389
 40
0.629290266654309
 40
0.6667447978107347
 40
0.7040703002450153
 40
0.741030706381724
 40
0.7774047597461409
 40
0.8138300285937313
 40
0.8508264448848131
 40
0.8881702753799989
 40
0.9256247560001548
 40
0.9629488962042474
 40
0.9999066801439677
 40
1.0
 40
1.0
 40
1.0
 40
1.0
 10
-28.3002930667405
 20
-28.29634786826638
 30
0.0
 10
-28.300112077114
 20
-28.29756215449738
 30
0.0
 10
-28.29155976428427
 20
-28.35494088891927
 30
0.0
 10
-28.27467213349118
 20
-28.14996239315314
 30
0.0
 10
-28.24819462341896
 20
-27.64850257699032
 30
0.0
 10
-28.22107555333926
 20
-26.74724229769321
 30
0.0
 10
-28.19366730052401
 20
-25.51042174932675
 30
0.0
 10
-28.16656845561377
 20
-23.9474803590152
 30
0.0
 10
-28.14016260937437
 20
-22.09822766193085
 30
0.0
 10
-28.11514521656605
 20
-19.99107836787695
 30
0.0
 10
-28.09002527407271
 20
-17.63824691500789
 30
0.0
 10
-28.06357594562279
 20
-15.04451762573052
 30
0.0
 10
-28.03644495197227
 20
-12.2345108614429
 30
0.0
 10
-28.00903916869511
 20
-9.258543921253441
 30
0.0
 10
-27.98194288983297
 20
-6.173925319991209
 30
0.0
 10
-27.95554173007843
 20
-3.041282640499086
 30
0.0
 10
-27.93053410212805
 20
0.1030415228278364
 30
0.0
 10
-27.9054039132825
 20
3.247007463202781
 30
0.0
 10
-27.87895028568956
 20
6.378346303296867
 30
0.0
 10
-27.85181622119569
 20
9.457682351331366
 30
0.0
 10
-27.82441054621381
 20
12.42446263007999
 30
0.0
 10
-27.79731746827087
 20
15.22173772798865
 30
0.0
 10
-27.77092088810797
 20
17.79976134535826
 30
0.0
 10
-27.74592285816432
 20
20.13675954010219
 30
0.0
 10
-27.72078280981839
 20
22.22728991679509
 30
0.0
 10
-27.69432349528035
 20
24.05983371477102
 30
0.0
 10
-27.66719166009137
 20
25.5994367205037
 30
0.0
 10
-27.63976632136588
 20
26.82584177871699
 30
0.0
 10
-27.61274985711672
 20
27.66024300701908
 30
0.0
 10
-27.59482917339513
 20
28.0891704664568
 30
0.0
 10
-27.58631911972521
 20
28.14249970880671
 30
0.0
 10
-27.5862976856274
 20
28.14263402807681
 30
0.0
  0
SPLINE
  5
115
330
1F
100
AcDbEntity
  8
0
  6
Continuous
 62
     7
370
    25
100
AcDbSpline
210
0.0
220
0.0
230
1.0
 70
     8
 71
     3
 72
    36
 73
    32
 74
     0
 42
0.000000001
 43
0.00000001
 40
0.0
 40
0.0
 40
0.0
 40
0.0
 40
0.0007872809281822
 40
0.0372014292352406
 40
0.0741902393486121
 40
0.1115302592840851
 40
0.1489848698549241
 40
0.1863130755346671
 40
0.223278706082679
 40
0.2596597506363244
 40
0.2960776118626538
 40
0.3330689640638429
 40
0.370410261275557
 40
0.4078648357488937
 40
0.4451916933422413
 40
0.4821547150160151
 40
0.5185322435863546
 40
0.5549538116608393
 40
0.5919476992555389
 40
0.629290266654309
 40
0.6667447978107347
 40
0.7040703002450153
 40
0.741030706381724
 40
0.7774047597461409
 40
0.8138300285937313
 40
0.8508264448848131
 40
0.8881702753799989
 40
0.9256247560001548
 40
0.9629488962042474
 40
0.9999066801439677
 40
1.0
 40
1.0
 40
1.0
 40
1.0
 10
-26.82445973340718
 20
-28.29634786826639
 30
0.0
 10
-26.82427874378067
 20
-28.29756215449738
 30
0.0
 10
-26.81572643095112
 20
-28.3549408889194
 30
0.0
 10
-26.79883880015776
 20
-28.14996239315307
 30
0.0
 10
-26.77236129008566
 20
-27.64850257699035
 30
0.0
 10
-26.74524222000592
 20
-26.7472422976932
 30
0.0
 10
-26.71783396719069
 20
-25.51042174932675
 30
0.0
 10
-26.69073512228044
 20
-23.9474803590152
 30
0.0
 10
-26.66432927604104
 20
-22.09822766193085
 30
0.0
 10
-26.63931188323272
 20
-19.99107836787695
 30
0.0
 10
-26.61419194073937
 20
-17.63824691500789
 30
0.0
 10
-26.58774261228945
 20
-15.04451762573052
 30
0.0
 10
-26.56061161863894
 20
-12.2345108614429
 30
0.0
 10
-26.53320583536178
 20
-9.258543921253441
 30
0.0
 10
-26.50610955649964
 20
-6.173925319991209
 30
0.0
 10
-26.4797083967451
 20
-3.041282640499086
 30
0.0
 10
-26.45470076879471
 20
0.1030415228278364
 30
0.0
 10
-26.42957057994917
 20
3.247007463202781
 30
0.0
 10
-26.40311695235622
 20
6.378346303296867
 30
0.0
 10
-26.37598288786236
 20
9.457682351331366
 30
0.0
 10
-26.34857721288047
 20
12.42446263007999
 30
0.0
 10
-26.32148413493752
 20
15.22173772798865
 30
0.0
 10
-26.29508755477464
 20
17.79976134535826
 30
0.0
 10
-26.27008952483099
 20
20.13675954010219
 30
0.0
 10
-26.24494947648505
 20
22.22728991679509
 30
0.0
 10
-26.21849016194702
 20
24.05983371477102
 30
0.0
 10
-26.19135832675805
 20
25.5994367205037
 30
0.0
 10
-26.1639329880325
 20
26.82584177871699
 30
0.0
 10
-26.13691652378351
 20
27.66024300701908
 30
0.0
 10
-26.11899584006154
 20
28.0891704664568
 30
0.0
 10
-26.11048578639188
 20
28.14249970880671
 30
0.0
 10
-26.11046435229407
 20
28.14263402807681
 30
0.0
  0
SPLINE
  5
116
330
1F
100
AcDbEntity
  8
0
  6
Continuous
 62
     7
370
    25
100
AcDbSpline
210
0.0
220
0.0
230
1.0
 70
     8
 71
     3
 72
    36
 73
    32
 74
     0
 42
0.000000001
 43
0.00000001
 40
0.0
 40
0.0
 40
0.0
 40
0.0
 40
0.0007872809281818
 40
0.0372014292352402
 40
0.0741902393486117
 40
0.1115302592840847
 40
0.1489848698549238
 40
0.1863130755346667
 40
0.2232787060826787
 40
0.2596597506363242
 40
0.2960776118626536
 40
0.3330689640638427
 40
0.3704102612755569
 40
0.4078648357488936
 40
0.4451916933422413
 40
0.482154715016015
 40
0.5185322435863546
 40
0.5549538116608393
 40
0.591947699255539
 40
0.6292902666543091
 40
0.6667447978107348
 40
0.7040703002450154
 40
0.7410307063817242
 40
0.7774047597461411
 40
0.8138300285937317
 40
0.8508264448848134
 40
0.8881702753799993
 40
0.9256247560001553
 40
0.9629488962042478
 40
0.9999066801439681
 40
1.0
 40
1.0
 40
1.0
 40
1.0
 10
-25.34862640007383
 20
-28.29634786826639
 30
0.0
 10
-25.34844541044735
 20
-28.29756215449739
 30
0.0
 10
-25.33989309761771
 20
-28.35494088891935
 30
0.0
 10
-25.32300546682446
 20
-28.1499623931531
 30
0.0
 10
-25.29652795675231
 20
-27.64850257699034
 30
0.0
 10
-25.26940888667258
 20
-26.74724229769319
 30
0.0
 10
-25.24200063385736
 20
-25.51042174932677
 30
0.0
 10
-25.2149017889471
 20
-23.94748035901519
 30
0.0
 10
-25.18849594270771
 20
-22.09822766193086
 30
0.0
 10
-25.16347854989938
 20
-19.99107836787694
 30
0.0
 10
-25.13835860740604
 20
-17.63824691500789
 30
0.0
 10
-25.11190927895612
 20
-15.04451762573052
 30
0.0
 10
-25.0847782853056
 20
-12.23451086144289
 30
0.0
 10
-25.05737250202845
 20
-9.258543921253445
 30
0.0
 10
-25.0302762231663
 20
-6.173925319991209
 30
0.0
 10
-25.00387506341176
 20
-3.041282640499083
 30
0.0
 10
-24.97886743546139
 20
0.1030415228278324
 30
0.0
 10
-24.95373724661583
 20
3.247007463202787
 30
0.0
 10
-24.9272836190229
 20
6.378346303296858
 30
0.0
 10
-24.90014955452902
 20
9.457682351331368
 30
0.0
 10
-24.87274387954715
 20
12.42446263007999
 30
0.0
 10
-24.8456508016042
 20
15.22173772798865
 30
0.0
 10
-24.81925422144131
 20
17.79976134535825
 30
0.0
 10
-24.79425619149765
 20
20.13675954010219
 30
0.0
 10
-24.76911614315172
 20
22.22728991679508
 30
0.0
 10
-24.74265682861369
 20
24.05983371477103
 30
0.0
 10
-24.7155249934247
 20
25.59943672050368
 30
0.0
 10
-24.68809965469918
 20
26.82584177871707
 30
0.0
 10
-24.66108319045027
 20
27.66024300701883
 30
0.0
 10
-24.64316250672802
 20
28.08917046645732
 30
0.0
 10
-24.63465245305856
 20
28.14249970880671
 30
0.0
 10
-24.63463101896073
 20
28.14263402807681
 30
0.0
  0
SPLINE
  5
117
330
1F
100
AcDbEntity
  8
0
  6
Continuous
 62
     7
370
    25
100
AcDbSpline
210
0.0
220
0.0
230
1.0
 70
     8
 71
     3
 72
    36
 73
    32
 74
     0
 42
0.000000001
 43
0.00000001
 40
0.0
 40
0.0
 40
0.0
 40
0.0
 40
0.0007872809281818
 40
0.0372014292352402
 40
0.0741902393486117
 40
0.1115302592840847
 40
0.1489848698549238
 40
0.1863130755346667
 40
0.2232787060826787
 40
0.2596597506363242
 40
0.2960776118626536
 40
0.3330689640638427
 40
0.3704102612755569
 40
0.4078648357488936
 40
0.4451916933422413
 40
0.482154715016015
 40
0.5185322435863546
 40
0.5549538116608393
 40
0.591947699255539
 40
0.6292902666543091
 40
0.6667447978107348
 40
0.7040703002450154
 40
0.7410307063817242
 40
0.7774047597461411
 40
0.8138300285937317
 40
0.8508264448848134
 40
0.8881702753799993
 40
0.9256247560001553
 40
0.9629488962042478
 40
0.9999066801439681
 40
1.0
 40
1.0
 40
1.0
 40
1.0
 10
-23.87279306674051
 20
-28.29634786826639
 30
0.0
 10
-23.87261207711401
 20
-28.29756215449739
 30
0.0
 10
-23.86405976428435
 20
-28.35494088891935
 30
0.0
 10
-23.84717213349114
 20
-28.1499623931531
 30
0.0
 10
-23.82069462341899
 20
-27.64850257699034
 30
0.0
 10
-23.79357555333925
 20
-26.74724229769319
 30
0.0
 10
-23.76616730052403
 20
-25.51042174932677
 30
0.0
 10
-23.73906845561377
 20
-23.94748035901519
 30
0.0
 10
-23.71266260937437
 20
-22.09822766193086
 30
0.0
 10
-23.68764521656605
 20
-19.99107836787694
 30
0.0
 10
-23.66252527407271
 20
-17.63824691500789
 30
0.0
 10
-23.6360759456228
 20
-15.04451762573052
 30
0.0
 10
-23.60894495197227
 20
-12.23451086144289
 30
0.0
 10
-23.58153916869513
 20
-9.258543921253445
 30
0.0
 10
-23.55444288983297
 20
-6.173925319991209
 30
0.0
 10
-23.52804173007843
 20
-3.041282640499083
 30
0.0
 10
-23.50303410212805
 20
0.1030415228278324
 30
0.0
 10
-23.47790391328249
 20
3.247007463202787
 30
0.0
 10
-23.45145028568957
 20
6.378346303296858
 30
0.0
 10
-23.42431622119569
 20
9.457682351331368
 30
0.0
 10
-23.39691054621382
 20
12.42446263007999
 30
0.0
 10
-23.36981746827087
 20
15.22173772798865
 30
0.0
 10
-23.34342088810798
 20
17.79976134535825
 30
0.0
 10
-23.31842285816431
 20
20.13675954010219
 30
0.0
 10
-23.29328280981839
 20
22.22728991679508
 30
0.0
 10
-23.26682349528035
 20
24.05983371477103
 30
0.0
 10
-23.23969166009139
 20
25.59943672050368
 30
0.0
 10
-23.21226632136579
 20
26.82584177871707
 30
0.0
 10
-23.18524985711709
 20
27.66024300701883
 30
0.0
 10
-23.16732917339433
 20
28.08917046645732
 30
0.0
 10
-23.15881911972523
 20
28.14249970880671
 30
0.0
 10
-23.1587976856274
 20
28.14263402807681
 30
0.0
  0
SPLINE
  5
118
330
1F
100
AcDbEntity
  8
0
  6
Continuous
 62
     7
370
    25
100
AcDbSpline
210
0.0
220
0.0
230
1.0
 70
     8
 71
     3
 72
    36
 73
    32
 74
     0
 42
0.000000001
 43
0.00000001
 40
0.0
 40
0.0
 40
0.0
 40
0.0
 40
0.0007872809281818
 40
0.0372014292352403
 40
0.0741902393486118
 40
0.1115302592840848
 40
0.1489848698549239
 40
0.1863130755346669
 40
0.223278706082679
 40
0.2596597506363244
 40
0.2960776118626539
 40
0.333068964063843
 40
0.3704102612755572
 40
0.4078648357488939
 40
0.4451916933422416
 40
0.4821547150160154
 40
0.5185322435863551
 40
0.5549538116608398
 40
0.5919476992555395
 40
0.6292902666543095
 40
0.6667447978107353
 40
0.7040703002450159
 40
0.7410307063817247
 40
0.7774047597461418
 40
0.8138300285937322
 40
0.850826444884814
 40
0.8881702753799999
 40
0.9256247560001559
 40
0.9629488962042486
 40
0.9999066801439689
 40
1.0
 40
1.0
 40
1.0
 40
1.0
 10
-22.39695973340718
 20
-28.29634786826639
 30
0.0
 10
-22.39677874378067
 20
-28.29756215449738
 30
0.0
 10
-22.38822643095102
 20
-28.35494088891931
 30
0.0
 10
-22.37133880015782
 20
-28.14996239315313
 30
0.0
 10
-22.34486129008566
 20
-27.64850257699033
 30
0.0
 10
-22.3177422200059
 20
-26.7472422976932
 30
0.0
 10
-22.2903339671907
 20
-25.51042174932676
 30
0.0
 10
-22.26323512228043
 20
-23.94748035901518
 30
0.0
 10
-22.23682927604105
 20
-22.09822766193086
 30
0.0
 10
-22.21181188323272
 20
-19.99107836787695
 30
0.0
 10
-22.18669194073937
 20
-17.63824691500789
 30
0.0
 10
-22.16024261228945
 20
-15.04451762573052
 30
0.0
 10
-22.13311161863894
 20
-12.23451086144289
 30
0.0
 10
-22.1057058353618
 20
-9.258543921253446
 30
0.0
 10
-22.07860955649962
 20
-6.173925319991207
 30
0.0
 10
-22.0522083967451
 20
-3.041282640499084
 30
0.0
 10
-22.02720076879471
 20
0.10304152282783
 30
0.0
 10
-22.00207057994916
 20
3.247007463202786
 30
0.0
 10
-21.97561695235624
 20
6.37834630329686
 30
0.0
 10
-21.94848288786234
 20
9.457682351331366
 30
0.0
 10
-21.92107721288047
 20
12.42446263008
 30
0.0
 10
-21.89398413493753
 20
15.22173772798864
 30
0.0
 10
-21.86758755477465
 20
17.79976134535826
 30
0.0
 10
-21.84258952483098
 20
20.13675954010219
 30
0.0
 10
-21.81744947648506
 20
22.22728991679508
 30
0.0
 10
-21.79099016194701
 20
24.05983371477102
 30
0.0
 10
-21.76385832675806
 20
25.59943672050368
 30
0.0
 10
-21.73643298803245
 20
26.82584177871711
 30
0.0
 10
-21.70941652378376
 20
27.66024300701874
 30
0.0
 10
-21.69149584006098
 20
28.08917046645753
 30
0.0
 10
-21.68298578639189
 20
28.14249970880671
 30
0.0
 10
-21.68296435229407
 20
28.14263402807681
 30
0.0
  0
SPLINE
  5
119
330
1F
100
AcDbEntity
  8
0
  6
Continuous
 62
     7
370
    25
100
AcDbSpline
210
0.0
220
0.0
230
1.0
 70
     8
 71
     3
 72
    36
 73
    32
 74
     0
 42
0.000000001
 43
0.00000001
 40
0.0
 40
0.0
 40
0.0
 40
0.0
 40
0.0007872809281836
 40
0.037201429235242
 40
0.0741902393486135
 40
0.1115302592840864
 40
0.1489848698549255
 40
0.1863130755346684
 40
0.2232787060826804
 40
0.2596597506363258
 40
0.2960776118626552
 40
0.3330689640638443
 40
0.3704102612755584
 40
0.4078648357488951
 40
0.4451916933422427
 40
0.4821547150160164
 40
0.518532243586356
 40
0.5549538116608406
 40
0.5919476992555402
 40
0.6292902666543102
 40
0.6667447978107359
 40
0.7040703002450166
 40
0.7410307063817253
 40
0.7774047597461422
 40
0.8138300285937327
 40
0.8508264448848144
 40
0.8881702753800002
 40
0.9256247560001561
 40
0.9629488962042487
 40
0.9999066801439689
 40
1.0
 40
1.0
 40
1.0
 40
1.0
 10
-20.92112640007383
 20
-28.29634786826638
 30
0.0
 10
-20.92094541044734
 20
-28.29756215449737
 30
0.0
 10
-20.91239309761764
 20
-28.35494088891937
 30
0.0
 10
-20.8955054668245
 20
-28.14996239315309
 30
0.0
 10
-20.86902795675232
 20
-27.64850257699035
 30
0.0
 10
-20.84190888667257
 20
-26.74724229769319
 30
0.0
 10
-20.81450063385736
 20
-25.51042174932676
 30
0.0
 10
-20.7874017889471
 20
-23.9474803590152
 30
0.0
 10
-20.76099594270771
 20
-22.09822766193085
 30
0.0
 10
-20.73597854989939
 20
-19.99107836787695
 30
0.0
 10
-20.71085860740603
 20
-17.63824691500789
 30
0.0
 10
-20.68440927895614
 20
-15.04451762573053
 30
0.0
 10
-20.6572782853056
 20
-12.23451086144289
 30
0.0
 10
-20.62987250202846
 20
-9.258543921253452
 30
0.0
 10
-20.60277622316629
 20
-6.173925319991206
 30
0.0
 10
-20.57637506341177
 20
-3.041282640499081
 30
0.0
 10
-20.55136743546138
 20
0.1030415228278257
 30
0.0
 10
-20.52623724661583
 20
3.247007463202794
 30
0.0
 10
-20.4997836190229
 20
6.378346303296854
 30
0.0
 10
-20.47264955452902
 20
9.457682351331366
 30
0.0
 10
-20.44524387954715
 20
12.42446263008
 30
0.0
 10
-20.41815080160418
 20
15.22173772798863
 30
0.0
 10
-20.39175422144132
 20
17.79976134535827
 30
0.0
 10
-20.36675619149765
 20
20.13675954010219
 30
0.0
 10
-20.34161614315172
 20
22.22728991679509
 30
0.0
 10
-20.31515682861368
 20
24.05983371477101
 30
0.0
 10
-20.28802499342473
 20
25.59943672050371
 30
0.0
 10
-20.26059965469908
 20
26.82584177871699
 30
0.0
 10
-20.23358319045055
 20
27.6602430070191
 30
0.0
 10
-20.21566250672743
 20
28.08917046645676
 30
0.0
 10
-20.20715245305855
 20
28.1424997088067
 30
0.0
 10
-20.20713101896073
 20
28.14263402807681
 30
0.0
  0
SPLINE
  5
11A
330
1F
100
AcDbEntity
  8
0
  6
Continuous
 62
     7
370
    25
100
AcDbSpline
210
0.0
220
0.0
230
1.0
 70
     8
 71
     3
 72
    36
 73
    32
 74
     0
 42
0.000000001
 43
0.00000001
 40
0.0
 40
0.0
 40
0.0
 40
0.0
 40
0.0007872809281836
 40
0.037201429235242
 40
0.0741902393486135
 40
0.1115302592840864
 40
0.1489848698549255
 40
0.1863130755346684
 40
0.2232787060826804
 40
0.2596597506363258
 40
0.2960776118626552
 40
0.3330689640638443
 40
0.3704102612755584
 40
0.4078648357488951
 40
0.4451916933422427
 40
0.4821547150160164
 40
0.518532243586356
 40
0.5549538116608406
 40
0.5919476992555402
 40
0.6292902666543102
 40
0.6667447978107359
 40
0.7040703002450166
 40
0.7410307063817253
 40
0.7774047597461422
 40
0.8138300285937327
 40
0.8508264448848144
 40
0.8881702753800002
 40
0.9256247560001561
 40
0.9629488962042487
 40
0.9999066801439689
 40
1.0
 40
1.0
 40
1.0
 40
1.0
 10
-19.4452930667405
 20
-28.29634786826638
 30
0.0
 10
-19.44511207711401
 20
-28.29756215449737
 30
0.0
 10
-19.43655976428438
 20
-28.35494088891932
 30
0.0
 10
-19.41967213349115
 20
-28.14996239315312
 30
0.0
 10
-19.39319462341899
 20
-27.64850257699033
 30
0.0
 10
-19.36607555333925
 20
-26.7472422976932
 30
0.0
 10
-19.33866730052403
 20
-25.51042174932676
 30
0.0
 10
-19.31156845561377
 20
-23.9474803590152
 30
0.0
 10
-19.28516260937436
 20
-22.09822766193085
 30
0.0
 10
-19.26014521656606
 20
-19.99107836787695
 30
0.0
 10
-19.2350252740727
 20
-17.63824691500789
 30
0.0
 10
-19.20857594562279
 20
-15.04451762573053
 30
0.0
 10
-19.18144495197227
 20
-12.23451086144289
 30
0.0
 10
-19.15403916869512
 20
-9.258543921253452
 30
0.0
 10
-19.12694288983296
 20
-6.173925319991206
 30
0.0
 10
-19.10054173007843
 20
-3.041282640499081
 30
0.0
 10
-19.07553410212805
 20
0.1030415228278257
 30
0.0
 10
-19.0504039132825
 20
3.247007463202794
 30
0.0
 10
-19.02395028568955
 20
6.378346303296854
 30
0.0
 10
-18.99681622119569
 20
9.457682351331366
 30
0.0
 10
-18.96941054621382
 20
12.42446263008
 30
0.0
 10
-18.94231746827087
 20
15.22173772798863
 30
0.0
 10
-18.91592088810798
 20
17.79976134535827
 30
0.0
 10
-18.89092285816432
 20
20.13675954010219
 30
0.0
 10
-18.86578280981839
 20
22.22728991679509
 30
0.0
 10
-18.83932349528035
 20
24.05983371477101
 30
0.0
 10
-18.81219166009139
 20
25.59943672050371
 30
0.0
 10
-18.78476632136582
 20
26.82584177871699
 30
0.0
 10
-18.75774985711695
 20
27.6602430070191
 30
0.0
 10
-18.73982917339465
 20
28.08917046645676
 30
0.0
 10
-18.73131911972521
 20
28.1424997088067
 30
0.0
 10
-18.7312976856274
 20
28.14263402807681
 30
0.0
  0
SPLINE
  5
11B
330
1F
100
AcDbEntity
  8
0
  6
Continuous
 62
     7
370
    25
100
AcDbSpline
210
0.0
220
0.0
230
1.0
 70
     8
 71
     3
 72
    36
 73
    32
 74
     0
 42
0.000000001
 43
0.00000001
 40
0.0
 40
0.0
 40
0.0
 40
0.0
 40
0.0007872809281836
 40
0.037201429235242
 40
0.0741902393486135
 40
0.1115302592840864
 40
0.1489848698549255
 40
0.1863130755346684
 40
0.2232787060826804
 40
0.2596597506363258
 40
0.2960776118626552
 40
0.3330689640638443
 40
0.3704102612755584
 40
0.4078648357488951
 40
0.4451916933422427
 40
0.4821547150160164
 40
0.518532243586356
 40
0.5549538116608406
 40
0.5919476992555402
 40
0.6292902666543102
 40
0.6667447978107359
 40
0.7040703002450166
 40
0.7410307063817253
 40
0.7774047597461422
 40
0.8138300285937327
 40
0.8508264448848144
 40
0.8881702753800002
 40
0.9256247560001561
 40
0.9629488962042487
 40
0.9999066801439689
 40
1.0
 40
1.0
 40
1.0
 40
1.0
 10
-17.96945973340717
 20
-28.29634786826638
 30
0.0
 10
-17.96927874378067
 20
-28.29756215449737
 30
0.0
 10
-17.96072643095105
 20
-28.35494088891932
 30
0.0
 10
-17.94383880015781
 20
-28.14996239315312
 30
0.0
 10
-17.91736129008566
 20
-27.64850257699033
 30
0.0
 10
-17.8902422200059
 20
-26.7472422976932
 30
0.0
 10
-17.8628339671907
 20
-25.51042174932676
 30
0.0
 10
-17.83573512228044
 20
-23.9474803590152
 30
0.0
 10
-17.80932927604104
 20
-22.09822766193085
 30
0.0
 10
-17.78431188323272
 20
-19.99107836787695
 30
0.0
 10
-17.75919194073937
 20
-17.63824691500789
 30
0.0
 10
-17.73274261228946
 20
-15.04451762573053
 30
0.0
 10
-17.70561161863893
 20
-12.23451086144289
 30
0.0
 10
-17.6782058353618
 20
-9.258543921253452
 30
0.0
 10
-17.65110955649962
 20
-6.173925319991206
 30
0.0
 10
-17.62470839674511
 20
-3.041282640499081
 30
0.0
 10
-17.5997007687947
 20
0.1030415228278257
 30
0.0
 10
-17.57457057994917
 20
3.247007463202794
 30
0.0
 10
-17.54811695235622
 20
6.378346303296854
 30
0.0
 10
-17.52098288786236
 20
9.457682351331366
 30
0.0
 10
-17.49357721288047
 20
12.42446263008
 30
0.0
 10
-17.46648413493752
 20
15.22173772798863
 30
0.0
 10
-17.44008755477465
 20
17.79976134535827
 30
0.0
 10
-17.41508952483099
 20
20.13675954010219
 30
0.0
 10
-17.38994947648505
 20
22.22728991679509
 30
0.0
 10
-17.36349016194701
 20
24.05983371477101
 30
0.0
 10
-17.33635832675806
 20
25.59943672050371
 30
0.0
 10
-17.30893298803247
 20
26.82584177871699
 30
0.0
 10
-17.28191652378369
 20
27.6602430070191
 30
0.0
 10
-17.26399584006115
 20
28.08917046645676
 30
0.0
 10
-17.25548578639188
 20
28.1424997088067
 30
0.0
 10
-17.25546435229407
 20
28.14263402807681
 30
0.0
  0
SPLINE
  5
11C
330
1F
100
AcDbEntity
  8
0
  6
Continuous
 62
     7
370
    25
100
AcDbSpline
210
0.0
220
0.0
230
1.0
 70
     8
 71
     3
 72
    36
 73
    32
 74
     0
 42
0.000000001
 43
0.00000001
 40
0.0
 40
0.0
 40
0.0
 40
0.0
 40
0.0007872809281836
 40
0.0372014292352419
 40
0.0741902393486134
 40
0.1115302592840862
 40
0.1489848698549252
 40
0.1863130755346681
 40
0.22327870608268
 40
0.2596597506363253
 40
0.2960776118626546
 40
0.3330689640638437
 40
0.3704102612755577
 40
0.4078648357488944
 40
0.4451916933422418
 40
0.4821547150160155
 40
0.518532243586355
 40
0.5549538116608396
 40
0.5919476992555391
 40
0.6292902666543091
 40
0.6667447978107347
 40
0.7040703002450153
 40
0.7410307063817239
 40
0.7774047597461408
 40
0.8138300285937312
 40
0.8508264448848128
 40
0.8881702753799986
 40
0.9256247560001545
 40
0.962948896204247
 40
0.9999066801439671
 40
1.0
 40
1.0
 40
1.0
 40
1.0
 10
-16.49362640007383
 20
-28.29634786826638
 30
0.0
 10
-16.49344541044734
 20
-28.29756215449738
 30
0.0
 10
-16.48489309761773
 20
-28.35494088891937
 30
0.0
 10
-16.46800546682446
 20
-28.14996239315309
 30
0.0
 10
-16.44152795675233
 20
-27.64850257699035
 30
0.0
 10
-16.41440888667258
 20
-26.74724229769319
 30
0.0
 10
-16.38700063385735
 20
-25.51042174932677
 30
0.0
 10
-16.3599017889471
 20
-23.9474803590152
 30
0.0
 10
-16.33349594270771
 20
-22.09822766193086
 30
0.0
 10
-16.30847854989938
 20
-19.99107836787695
 30
0.0
 10
-16.28335860740604
 20
-17.63824691500789
 30
0.0
 10
-16.25690927895613
 20
-15.04451762573052
 30
0.0
 10
-16.22977828530561
 20
-12.2345108614429
 30
0.0
 10
-16.20237250202845
 20
-9.25854392125345
 30
0.0
 10
-16.1752762231663
 20
-6.173925319991204
 30
0.0
 10
-16.14887506341177
 20
-3.041282640499085
 30
0.0
 10
-16.12386743546138
 20
0.1030415228278334
 30
0.0
 10
-16.09873724661583
 20
3.247007463202786
 30
0.0
 10
-16.07228361902289
 20
6.378346303296863
 30
0.0
 10
-16.04514955452903
 20
9.457682351331362
 30
0.0
 10
-16.01774387954714
 20
12.42446263008
 30
0.0
 10
-15.99065080160421
 20
15.22173772798864
 30
0.0
 10
-15.96425422144131
 20
17.79976134535827
 30
0.0
 10
-15.93925619149765
 20
20.13675954010219
 30
0.0
 10
-15.91411614315173
 20
22.22728991679508
 30
0.0
 10
-15.88765682861368
 20
24.05983371477102
 30
0.0
 10
-15.86052499342472
 20
25.59943672050369
 30
0.0
 10
-15.83309965469917
 20
26.82584177871708
 30
0.0
 10
-15.80608319045022
 20
27.66024300701879
 30
0.0
 10
-15.78816250672812
 20
28.08917046645746
 30
0.0
 10
-15.77965245305855
 20
28.14249970880671
 30
0.0
 10
-15.77963101896073
 20
28.14263402807682
 30
0.0
  0
SPLINE
  5
11D
330
1F
100
AcDbEntity
  8
0
  6
Continuous
 62
     7
370
    25
100
AcDbSpline
210
0.0
220
0.0
230
1.0
 70
     8
 71
     3
 72
    36
 73
    32
 74
     0
 42
0.000000001
 43
0.00000001
 40
0.0
 40
0.0
 40
0.0
 40
0.0
 40
0.00078728092818
 40
0.0372014292352385
 40
0.07419023934861
 40
0.111530259284083
 40
0.1489848698549221
 40
0.1863130755346652
 40
0.2232787060826772
 40
0.2596597506363226
 40
0.2960776118626521
 40
0.3330689640638412
 40
0.3704102612755554
 40
0.4078648357488922
 40
0.4451916933422398
 40
0.4821547150160136
 40
0.5185322435863533
 40
0.554953811660838
 40
0.5919476992555377
 40
0.6292902666543078
 40
0.6667447978107335
 40
0.7040703002450142
 40
0.741030706381723
 40
0.77740475974614
 40
0.8138300285937304
 40
0.8508264448848122
 40
0.8881702753799982
 40
0.9256247560001541
 40
0.9629488962042468
 40
0.999906680143967
 40
1.0
 40
1.0
 40
1.0
 40
1.0
 10
-15.0177930667405
 20
-28.29634786826639
 30
0.0
 10
-15.01761207711399
 20
-28.29756215449738
 30
0.0
 10
-15.00905976428433
 20
-28.35494088891926
 30
0.0
 10
-14.99217213349116
 20
-28.14996239315314
 30
0.0
 10
-14.96569462341898
 20
-27.64850257699032
 30
0.0
 10
-14.93857555333925
 20
-26.74724229769321
 30
0.0
 10
-14.91116730052403
 20
-25.51042174932675
 30
0.0
 10
-14.88406845561377
 20
-23.9474803590152
 30
0.0
 10
-14.85766260937438
 20
-22.09822766193086
 30
0.0
 10
-14.83264521656606
 20
-19.99107836787695
 30
0.0
 10
-14.8075252740727
 20
-17.63824691500789
 30
0.0
 10
-14.78107594562279
 20
-15.04451762573052
 30
0.0
 10
-14.75394495197228
 20
-12.23451086144289
 30
0.0
 10
-14.72653916869512
 20
-9.258543921253446
 30
0.0
 10
-14.69944288983296
 20
-6.173925319991207
 30
0.0
 10
-14.67304173007844
 20
-3.041282640499084
 30
0.0
 10
-14.64803410212804
 20
0.10304152282783
 30
0.0
 10
-14.6229039132825
 20
3.247007463202786
 30
0.0
 10
-14.59645028568957
 20
6.37834630329686
 30
0.0
 10
-14.56931622119569
 20
9.457682351331366
 30
0.0
 10
-14.54191054621382
 20
12.42446263008
 30
0.0
 10
-14.51481746827087
 20
15.22173772798864
 30
0.0
 10
-14.48842088810798
 20
17.79976134535826
 30
0.0
 10
-14.46342285816432
 20
20.13675954010219
 30
0.0
 10
-14.43828280981839
 20
22.22728991679509
 30
0.0
 10
-14.41182349528034
 20
24.05983371477102
 30
0.0
 10
-14.3846916600914
 20
25.59943672050368
 30
0.0
 10
-14.35726632136577
 20
26.82584177871707
 30
0.0
 10
-14.33024985711713
 20
27.66024300701883
 30
0.0
 10
-14.31232917339426
 20
28.08917046645733
 30
0.0
 10
-14.30381911972523
 20
28.14249970880671
 30
0.0
 10
-14.30379768562739
 20
28.14263402807682
 30
0.0
  0
SPLINE
  5
11E
330
1F
100
AcDbEntity
  8
0
  6
Continuous
 62
     7
370
    25
100
AcDbSpline
210
0.0
220
0.0
230
1.0
 70
     8
 71
     3
 72
    36
 73
    32
 74
     0
 42
0.000000001
 43
0.00000001
 40
0.0
 40
0.0
 40
0.0
 40
0.0
 40
0.00078728092818
 40
0.0372014292352385
 40
0.07419023934861
 40
0.111530259284083
 40
0.1489848698549221
 40
0.1863130755346652
 40
0.2232787060826772
 40
0.2596597506363226
 40
0.2960776118626521
 40
0.3330689640638412
 40
0.3704102612755554
 40
0.4078648357488922
 40
0.4451916933422398
 40
0.4821547150160136
 40
0.5185322435863533
 40
0.554953811660838
 40
0.5919476992555377
 40
0.6292902666543078
 40
0.6667447978107335
 40
0.7040703002450142
 40
0.741030706381723
 40
0.77740475974614
 40
0.8138300285937304
 40
0.8508264448848122
 40
0.8881702753799982
 40
0.9256247560001541
 40
0.9629488962042468
 40
0.999906680143967
 40
1.0
 40
1.0
 40
1.0
 40
1.0
 10
-13.54195973340717
 20
-28.29634786826639
 30
0.0
 10
-13.54177874378067
 20
-28.29756215449738
 30
0.0
 10
-13.53322643095099
 20
-28.35494088891926
 30
0.0
 10
-13.51633880015783
 20
-28.14996239315314
 30
0.0
 10
-13.48986129008565
 20
-27.64850257699032
 30
0.0
 10
-13.46274222000592
 20
-26.74724229769321
 30
0.0
 10
-13.43533396719068
 20
-25.51042174932675
 30
0.0
 10
-13.40823512228044
 20
-23.9474803590152
 30
0.0
 10
-13.38182927604104
 20
-22.09822766193086
 30
0.0
 10
-13.35681188323272
 20
-19.99107836787695
 30
0.0
 10
-13.33169194073938
 20
-17.63824691500789
 30
0.0
 10
-13.30524261228946
 20
-15.04451762573052
 30
0.0
 10
-13.27811161863894
 20
-12.23451086144289
 30
0.0
 10
-13.2507058353618
 20
-9.258543921253446
 30
0.0
 10
-13.22360955649963
 20
-6.173925319991207
 30
0.0
 10
-13.1972083967451
 20
-3.041282640499084
 30
0.0
 10
-13.1722007687947
 20
0.10304152282783
 30
0.0
 10
-13.14707057994915
 20
3.247007463202786
 30
0.0
 10
-13.12061695235623
 20
6.37834630329686
 30
0.0
 10
-13.09348288786236
 20
9.457682351331366
 30
0.0
 10
-13.06607721288048
 20
12.42446263008
 30
0.0
 10
-13.03898413493753
 20
15.22173772798864
 30
0.0
 10
-13.01258755477465
 20
17.79976134535826
 30
0.0
 10
-12.98758952483099
 20
20.13675954010219
 30
0.0
 10
-12.96244947648506
 20
22.22728991679509
 30
0.0
 10
-12.93599016194701
 20
24.05983371477102
 30
0.0
 10
-12.90885832675806
 20
25.59943672050368
 30
0.0
 10
-12.88143298803247
 20
26.82584177871707
 30
0.0
 10
-12.85441652378369
 20
27.66024300701883
 30
0.0
 10
-12.83649584006115
 20
28.08917046645733
 30
0.0
 10
-12.82798578639189
 20
28.14249970880671
 30
0.0
 10
-12.82796435229407
 20
28.14263402807682
 30
0.0
  0
SPLINE
  5
11F
330
1F
100
AcDbEntity
  8
0
  6
Continuous
 62
     7
370
    25
100
AcDbSpline
210
0.0
220
0.0
230
1.0
 70
     8
 71
     3
 72
    36
 73
    32
 74
     0
 42
0.000000001
 43
0.00000001
 40
0.0
 40
0.0
 40
0.0
 40
0.0
 40
0.00078728092818
 40
0.0372014292352385
 40
0.07419023934861
 40
0.111530259284083
 40
0.1489848698549221
 40
0.1863130755346652
 40
0.2232787060826772
 40
0.2596597506363226
 40
0.2960776118626521
 40
0.3330689640638412
 40
0.3704102612755554
 40
0.4078648357488922
 40
0.4451916933422398
 40
0.4821547150160136
 40
0.5185322435863533
 40
0.554953811660838
 40
0.5919476992555377
 40
0.6292902666543078
 40
0.6667447978107335
 40
0.7040703002450142
 40
0.741030706381723
 40
0.77740475974614
 40
0.8138300285937304
 40
0.8508264448848122
 40
0.8881702753799982
 40
0.9256247560001541
 40
0.9629488962042468
 40
0.999906680143967
 40
1.0
 40
1.0
 40
1.0
 40
1.0
 10
-12.06612640007384
 20
-28.29634786826639
 30
0.0
 10
-12.06594541044734
 20
-28.29756215449738
 30
0.0
 10
-12.05739309761765
 20
-28.35494088891926
 30
0.0
 10
-12.0405054668245
 20
-28.14996239315314
 30
0.0
 10
-12.01402795675231
 20
-27.64850257699032
 30
0.0
 10
-11.98690888667259
 20
-26.74724229769321
 30
0.0
 10
-11.95950063385735
 20
-25.51042174932675
 30
0.0
 10
-11.9324017889471
 20
-23.9474803590152
 30
0.0
 10
-11.90599594270771
 20
-22.09822766193086
 30
0.0
 10
-11.88097854989939
 20
-19.99107836787695
 30
0.0
 10
-11.85585860740604
 20
-17.63824691500789
 30
0.0
 10
-11.82940927895613
 20
-15.04451762573052
 30
0.0
 10
-11.80227828530561
 20
-12.23451086144289
 30
0.0
 10
-11.77487250202846
 20
-9.258543921253446
 30
0.0
 10
-11.7477762231663
 20
-6.173925319991207
 30
0.0
 10
-11.72137506341177
 20
-3.041282640499084
 30
0.0
 10
-11.69636743546137
 20
0.10304152282783
 30
0.0
 10
-11.67123724661583
 20
3.247007463202786
 30
0.0
 10
-11.6447836190229
 20
6.37834630329686
 30
0.0
 10
-11.61764955452903
 20
9.457682351331366
 30
0.0
 10
-11.59024387954714
 20
12.42446263008
 30
0.0
 10
-11.56315080160419
 20
15.22173772798864
 30
0.0
 10
-11.53675422144131
 20
17.79976134535826
 30
0.0
 10
-11.51175619149766
 20
20.13675954010219
 30
0.0
 10
-11.48661614315172
 20
22.22728991679509
 30
0.0
 10
-11.46015682861368
 20
24.05983371477102
 30
0.0
 10
-11.43302499342472
 20
25.59943672050368
 30
0.0
 10
-11.40559965469916
 20
26.82584177871707
 30
0.0
 10
-11.37858319045026
 20
27.66024300701883
 30
0.0
 10
-11.36066250672804
 20
28.08917046645733
 30
0.0
 10
-11.35215245305855
 20
28.14249970880671
 30
0.0
 10
-11.35213101896073
 20
28.14263402807682
 30
0.0
  0
SPLINE
  5
120
330
1F
100
AcDbEntity
  8
0
  6
Continuous
 62
     7
370
    25
100
AcDbSpline
210
0.0
220
0.0
230
1.0
 70
     8
 71
     3
 72
    36
 73
    32
 74
     0
 42
0.000000001
 43
0.00000001
 40
0.0
 40
0.0
 40
0.0
 40
0.0
 40
0.00078728092818
 40
0.0372014292352385
 40
0.07419023934861
 40
0.111530259284083
 40
0.1489848698549221
 40
0.1863130755346652
 40
0.2232787060826772
 40
0.2596597506363226
 40
0.2960776118626521
 40
0.3330689640638412
 40
0.3704102612755554
 40
0.4078648357488922
 40
0.4451916933422398
 40
0.4821547150160136
 40
0.5185322435863533
 40
0.554953811660838
 40
0.5919476992555377
 40
0.6292902666543078
 40
0.6667447978107335
 40
0.7040703002450142
 40
0.741030706381723
 40
0.77740475974614
 40
0.8138300285937304
 40
0.8508264448848122
 40
0.8881702753799982
 40
0.9256247560001541
 40
0.9629488962042468
 40
0.999906680143967
 40
1.0
 40
1.0
 40
1.0
 40
1.0
 10
-10.5902930667405
 20
-28.29634786826639
 30
0.0
 10
-10.590112077114
 20
-28.29756215449738
 30
0.0
 10
-10.58155976428434
 20
-28.35494088891926
 30
0.0
 10
-10.56467213349115
 20
-28.14996239315314
 30
0.0
 10
-10.53819462341898
 20
-27.64850257699032
 30
0.0
 10
-10.51107555333925
 20
-26.74724229769321
 30
0.0
 10
-10.48366730052402
 20
-25.51042174932675
 30
0.0
 10
-10.45656845561378
 20
-23.9474803590152
 30
0.0
 10
-10.43016260937438
 20
-22.09822766193086
 30
0.0
 10
-10.40514521656605
 20
-19.99107836787695
 30
0.0
 10
-10.38002527407271
 20
-17.63824691500789
 30
0.0
 10
-10.35357594562279
 20
-15.04451762573052
 30
0.0
 10
-10.32644495197228
 20
-12.23451086144289
 30
0.0
 10
-10.29903916869513
 20
-9.258543921253446
 30
0.0
 10
-10.27194288983296
 20
-6.173925319991207
 30
0.0
 10
-10.24554173007844
 20
-3.041282640499084
 30
0.0
 10
-10.22053410212804
 20
0.10304152282783
 30
0.0
 10
-10.1954039132825
 20
3.247007463202786
 30
0.0
 10
-10.16895028568957
 20
6.37834630329686
 30
0.0
 10
-10.14181622119569
 20
9.457682351331366
 30
0.0
 10
-10.11441054621381
 20
12.42446263008
 30
0.0
 10
-10.08731746827086
 20
15.22173772798864
 30
0.0
 10
-10.06092088810798
 20
17.79976134535826
 30
0.0
 10
-10.03592285816432
 20
20.13675954010219
 30
0.0
 10
-10.01078280981839
 20
22.22728991679509
 30
0.0
 10
-9.984323495280348
 20
24.05983371477102
 30
0.0
 10
-9.957191660091402
 20
25.59943672050368
 30
0.0
 10
-9.929766321365774
 20
26.82584177871707
 30
0.0
 10
-9.902749857117144
 20
27.66024300701883
 30
0.0
 10
-9.884829173394234
 20
28.08917046645733
 30
0.0
 10
-9.876319119725224
 20
28.14249970880671
 30
0.0
 10
-9.876297685627401
 20
28.14263402807682
 30
0.0
  0
SPLINE
  5
121
330
1F
100
AcDbEntity
  8
0
  6
Continuous
 62
     7
370
    25
100
AcDbSpline
210
0.0
220
0.0
230
1.0
 70
     8
 71
     3
 72
    36
 73
    32
 74
     0
 42
0.000000001
 43
0.00000001
 40
0.0
 40
0.0
 40
0.0
 40
0.0
 40
0.00078728092818
 40
0.0372014292352385
 40
0.07419023934861
 40
0.111530259284083
 40
0.1489848698549221
 40
0.1863130755346652
 40
0.2232787060826772
 40
0.2596597506363226
 40
0.2960776118626521
 40
0.3330689640638412
 40
0.3704102612755554
 40
0.4078648357488922
 40
0.4451916933422398
 40
0.4821547150160136
 40
0.5185322435863533
 40
0.554953811660838
 40
0.5919476992555377
 40
0.6292902666543078
 40
0.6667447978107335
 40
0.7040703002450142
 40
0.741030706381723
 40
0.77740475974614
 40
0.8138300285937304
 40
0.8508264448848122
 40
0.8881702753799982
 40
0.9256247560001541
 40
0.9629488962042468
 40
0.999906680143967
 40
1.0
 40
1.0
 40
1.0
 40
1.0
 10
-9.114459733407173
 20
-28.29634786826639
 30
0.0
 10
-9.114278743780666
 20
-28.29756215449738
 30
0.0
 10
-9.105726430951034
 20
-28.35494088891926
 30
0.0
 10
-9.08883880015781
 20
-28.14996239315314
 30
0.0
 10
-9.062361290085654
 20
-27.64850257699032
 30
0.0
 10
-9.035242220005916
 20
-26.74724229769321
 30
0.0
 10
-9.007833967190688
 20
-25.51042174932675
 30
0.0
 10
-8.98073512228044
 20
-23.9474803590152
 30
0.0
 10
-8.954329276041042
 20
-22.09822766193086
 30
0.0
 10
-8.929311883232725
 20
-19.99107836787695
 30
0.0
 10
-8.904191940739373
 20
-17.63824691500789
 30
0.0
 10
-8.877742612289463
 20
-15.04451762573052
 30
0.0
 10
-8.85061161863894
 20
-12.23451086144289
 30
0.0
 10
-8.823205835361794
 20
-9.258543921253446
 30
0.0
 10
-8.796109556499628
 20
-6.173925319991207
 30
0.0
 10
-8.769708396745104
 20
-3.041282640499084
 30
0.0
 10
-8.74470076879471
 20
0.10304152282783
 30
0.0
 10
-8.719570579949169
 20
3.247007463202786
 30
0.0
 10
-8.69311695235623
 20
6.37834630329686
 30
0.0
 10
-8.665982887862363
 20
9.457682351331366
 30
0.0
 10
-8.63857721288048
 20
12.42446263008
 30
0.0
 10
-8.611484134937536
 20
15.22173772798864
 30
0.0
 10
-8.585087554774647
 20
17.79976134535826
 30
0.0
 10
-8.56008952483099
 20
20.13675954010219
 30
0.0
 10
-8.53494947648506
 20
22.22728991679509
 30
0.0
 10
-8.50849016194702
 20
24.05983371477102
 30
0.0
 10
-8.481358326758059
 20
25.59943672050368
 30
0.0
 10
-8.453932988032472
 20
26.82584177871707
 30
0.0
 10
-8.42691652378371
 20
27.66024300701883
 30
0.0
 10
-8.40899584006112
 20
28.08917046645733
 30
0.0
 10
-8.400485786391895
 20
28.14249970880671
 30
0.0
 10
-8.400464352294065
 20
28.14263402807682
 30
0.0
  0
SPLINE
  5
122
330
1F
100
AcDbEntity
  8
0
  6
Continuous
 62
     7
370
    25
100
AcDbSpline
210
0.0
220
0.0
230
1.0
 70
     8
 71
     3
 72
    36
 73
    32
 74
     0
 42
0.000000001
 43
0.00000001
 40
0.0
 40
0.0
 40
0.0
 40
0.0
 40
0.00078728092818
 40
0.0372014292352385
 40
0.07419023934861
 40
0.111530259284083
 40
0.1489848698549221
 40
0.1863130755346652
 40
0.2232787060826772
 40
0.2596597506363226
 40
0.2960776118626521
 40
0.3330689640638412
 40
0.3704102612755554
 40
0.4078648357488922
 40
0.4451916933422398
 40
0.4821547150160136
 40
0.5185322435863533
 40
0.554953811660838
 40
0.5919476992555377
 40
0.6292902666543078
 40
0.6667447978107335
 40
0.7040703002450142
 40
0.741030706381723
 40
0.77740475974614
 40
0.8138300285937304
 40
0.8508264448848122
 40
0.8881702753799982
 40
0.9256247560001541
 40
0.9629488962042468
 40
0.999906680143967
 40
1.0
 40
1.0
 40
1.0
 40
1.0
 10
-7.638626400073838
 20
-28.29634786826639
 30
0.0
 10
-7.638445410447336
 20
-28.29756215449738
 30
0.0
 10
-7.62989309761767
 20
-28.35494088891926
 30
0.0
 10
-7.613005466824488
 20
-28.14996239315314
 30
0.0
 10
-7.586527956752319
 20
-27.64850257699032
 30
0.0
 10
-7.559408886672579
 20
-26.74724229769321
 30
0.0
 10
-7.532000633857352
 20
-25.51042174932675
 30
0.0
 10
-7.504901788947103
 20
-23.9474803590152
 30
0.0
 10
-7.478495942707705
 20
-22.09822766193086
 30
0.0
 10
-7.45347854989939
 20
-19.99107836787695
 30
0.0
 10
-7.428358607406038
 20
-17.63824691500789
 30
0.0
 10
-7.401909278956127
 20
-15.04451762573052
 30
0.0
 10
-7.374778285305604
 20
-12.23451086144289
 30
0.0
 10
-7.347372502028458
 20
-9.258543921253446
 30
0.0
 10
-7.320276223166291
 20
-6.173925319991207
 30
0.0
 10
-7.293875063411767
 20
-3.041282640499084
 30
0.0
 10
-7.268867435461374
 20
0.10304152282783
 30
0.0
 10
-7.243737246615825
 20
3.247007463202786
 30
0.0
 10
-7.217283619022894
 20
6.37834630329686
 30
0.0
 10
-7.190149554529027
 20
9.457682351331366
 30
0.0
 10
-7.162743879547143
 20
12.42446263008
 30
0.0
 10
-7.1356508016042
 20
15.22173772798864
 30
0.0
 10
-7.109254221441312
 20
17.79976134535826
 30
0.0
 10
-7.084256191497648
 20
20.13675954010219
 30
0.0
 10
-7.059116143151724
 20
22.22728991679509
 30
0.0
 10
-7.032656828613683
 20
24.05983371477102
 30
0.0
 10
-7.005524993424723
 20
25.59943672050368
 30
0.0
 10
-6.978099654699143
 20
26.82584177871707
 30
0.0
 10
-6.951083190450354
 20
27.66024300701883
 30
0.0
 10
-6.93316250672784
 20
28.08917046645733
 30
0.0
 10
-6.924652453058552
 20
28.14249970880671
 30
0.0
 10
-6.92463101896073
 20
28.14263402807682
 30
0.0
  0
SPLINE
  5
123
330
1F
100
AcDbEntity
  8
0
  6
Continuous
 62
     7
370
    25
100
AcDbSpline
210
0.0
220
0.0
230
1.0
 70
     8
 71
     3
 72
    36
 73
    32
 74
     0
 42
0.000000001
 43
0.00000001
 40
0.0
 40
0.0
 40
0.0
 40
0.0
 40
0.0300406897180541
 40
0.0648242725755072
 40
0.0999381219407842
 40
0.135159728644491
 40
0.1702624682635746
 40
0.2050242537914188
 40
0.2392363129056191
 40
0.2734829932829115
 40
0.3082689666392427
 40
0.3433840171140134
 40
0.3786055898727959
 40
0.4137070617947692
 40
0.4484663940198059
 40
0.4826751468117284
 40
0.5169253129945689
 40
0.551713670554655
 40
0.5868299154724753
 40
0.622051447497435
 40
0.6571516450713825
 40
0.6919085177280905
 40
0.7261140025435217
 40
0.7603676488191026
 40
0.7951583842851673
 40
0.830275816978225
 40
0.8654973014805103
 40
0.9005962180569741
 40
0.9353506248825626
 40
0.9680720075909836
 40
1.0
 40
1.0
 40
1.0
 40
1.0
 10
-27.7441004584605
 20
-29.77662002427272
 30
0.0
 10
-27.73679565962882
 20
-29.74212279681062
 30
0.0
 10
-27.72103276353624
 20
-29.66768184032492
 30
0.0
 10
-27.69563438923739
 20
-29.10047349770435
 30
0.0
 10
-27.66851229627902
 20
-28.16858465892233
 30
0.0
 10
-27.64110485630043
 20
-26.86158986296502
 30
0.0
 10
-27.61400579308129
 20
-25.21703934838536
 30
0.0
 10
-27.58760000291478
 20
-23.26944392575497
 30
0.0
 10
-27.56258259830055
 20
-21.05069418178867
 30
0.0
 10
-27.53746266262493
 20
-18.57313171893164
 30
0.0
 10
-27.5110133317865
 20
-15.84193174110504
 30
0.0
 10
-27.4838823373509
 20
-12.88298287773599
 30
0.0
 10
-27.45647655268384
 20
-9.749279480991348
 30
0.0
 10
-27.42938027278527
 20
-6.501164941294521
 30
0.0
 10
-27.40297911168845
 20
-3.202480974848048
 30
0.0
 10
-27.37797148707176
 20
0.1085030601182225
 30
0.0
 10
-27.35284130098692
 20
3.419109933081658
 30
0.0
 10
-27.32638767197888
 20
6.716421049071134
 30
0.0
 10
-27.2992536069029
 20
9.958972649712717
 30
0.0
 10
-27.27184792871972
 20
13.08300393690265
 30
0.0
 10
-27.24475485674031
 20
16.02854082142363
 30
0.0
 10
-27.2183582494457
 20
18.74322283507697
 30
0.0
 10
-27.19336031751497
 20
21.2040388054262
 30
0.0
 10
-27.16821991754102
 20
23.40556558026444
 30
0.0
 10
-27.14176194890965
 20
25.33451416705196
 30
0.0
 10
-27.11462501780031
 20
26.95846968982546
 30
0.0
 10
-27.08721875867595
 20
28.23958678514629
 30
0.0
 10
-27.06013151686522
 20
29.1563895479939
 30
0.0
 10
-27.03410562386212
 20
29.68051928469803
 30
0.0
 10
-27.01004810079197
 20
29.87170183076066
 30
0.0
 10
-26.99419789822684
 20
29.71018959477918
 30
0.0
 10
-26.98637005540142
 20
29.63042453231705
 30
0.0
  0
SPLINE
  5
124
330
1F
100
AcDbEntity
  8
0
  6
Continuous
 62
     7
370
    25
100
AcDbSpline
210
0.0
220
0.0
230
1.0
 70
     8
 71
     3
 72
    36
 73
    32
 74
     0
 42
0.000000001
 43
0.00000001
 40
0.0
 40
0.0
 40
0.0
 40
0.0
 40
0.0300406897180541
 40
0.0648242725755071
 40
0.0999381219407842
 40
0.135159728644491
 40
0.1702624682635746
 40
0.2050242537914189
 40
0.2392363129056191
 40
0.2734829932829115
 40
0.3082689666392427
 40
0.3433840171140135
 40
0.3786055898727959
 40
0.4137070617947693
 40
0.448466394019806
 40
0.4826751468117285
 40
0.516925312994569
 40
0.5517136705546551
 40
0.5868299154724754
 40
0.6220514474974351
 40
0.6571516450713827
 40
0.6919085177280907
 40
0.726114002543522
 40
0.7603676488191029
 40
0.7951583842851676
 40
0.8302758169782252
 40
0.8654973014805105
 40
0.9005962180569744
 40
0.9353506248825628
 40
0.9680720075909839
 40
0.9999999999999999
 40
0.9999999999999999
 40
0.9999999999999999
 40
0.9999999999999999
 10
-26.26826712512717
 20
-29.77662002427273
 30
0.0
 10
-26.26096232629548
 20
-29.74212279681063
 30
0.0
 10
-26.24519943020291
 20
-29.66768184032493
 30
0.0
 10
-26.21980105590406
 20
-29.10047349770435
 30
0.0
 10
-26.19267896294568
 20
-28.16858465892233
 30
0.0
 10
-26.16527152296712
 20
-26.86158986296502
 30
0.0
 10
-26.13817245974796
 20
-25.21703934838536
 30
0.0
 10
-26.11176666958147
 20
-23.26944392575497
 30
0.0
 10
-26.08674926496721
 20
-21.05069418178867
 30
0.0
 10
-26.0616293292916
 20
-18.57313171893164
 30
0.0
 10
-26.03517999845317
 20
-15.84193174110504
 30
0.0
 10
-26.00804900401757
 20
-12.88298287773599
 30
0.0
 10
-25.98064321935051
 20
-9.749279480991348
 30
0.0
 10
-25.95354693945194
 20
-6.501164941294521
 30
0.0
 10
-25.9271457783551
 20
-3.202480974848044
 30
0.0
 10
-25.90213815373843
 20
0.108503060118219
 30
0.0
 10
-25.87700796765358
 20
3.419109933081658
 30
0.0
 10
-25.85055433864554
 20
6.716421049071136
 30
0.0
 10
-25.82342027356956
 20
9.958972649712715
 30
0.0
 10
-25.7960145953864
 20
13.08300393690266
 30
0.0
 10
-25.76892152340697
 20
16.02854082142362
 30
0.0
 10
-25.74252491611236
 20
18.74322283507698
 30
0.0
 10
-25.71752698418164
 20
21.20403880542619
 30
0.0
 10
-25.69238658420771
 20
23.40556558026444
 30
0.0
 10
-25.66592861557632
 20
25.33451416705196
 30
0.0
 10
-25.63879168446698
 20
26.95846968982546
 30
0.0
 10
-25.61138542534261
 20
28.2395867851463
 30
0.0
 10
-25.58429818353189
 20
29.1563895479939
 30
0.0
 10
-25.55827229052877
 20
29.68051928469804
 30
0.0
 10
-25.53421476745864
 20
29.87170183076066
 30
0.0
 10
-25.5183645648935
 20
29.71018959477918
 30
0.0
 10
-25.51053672206809
 20
29.63042453231705
 30
0.0
  0
SPLINE
  5
125
330
1F
100
AcDbEntity
  8
0
  6
Continuous
 62
     7
370
    25
100
AcDbSpline
210
0.0
220
0.0
230
1.0
 70
     8
 71
     3
 72
    36
 73
    32
 74
     0
 42
0.000000001
 43
0.00000001
 40
0.0
 40
0.0
 40
0.0
 40
0.0
 40
0.0300406897180545
 40
0.0648242725755075
 40
0.0999381219407846
 40
0.1351597286444914
 40
0.170262468263575
 40
0.2050242537914192
 40
0.2392363129056194
 40
0.2734829932829119
 40
0.3082689666392431
 40
0.3433840171140137
 40
0.3786055898727962
 40
0.4137070617947696
 40
0.4484663940198063
 40
0.4826751468117287
 40
0.5169253129945692
 40
0.5517136705546554
 40
0.5868299154724756
 40
0.6220514474974354
 40
0.6571516450713829
 40
0.6919085177280909
 40
0.7261140025435221
 40
0.760367648819103
 40
0.7951583842851677
 40
0.8302758169782253
 40
0.8654973014805106
 40
0.9005962180569745
 40
0.9353506248825629
 40
0.968072007590984
 40
1.0
 40
1.0
 40
1.0
 40
1.0
 10
-24.79243379179384
 20
-29.77662002427273
 30
0.0
 10
-24.78512899296215
 20
-29.74212279681064
 30
0.0
 10
-24.76936609686957
 20
-29.66768184032493
 30
0.0
 10
-24.74396772257072
 20
-29.10047349770435
 30
0.0
 10
-24.71684562961235
 20
-28.16858465892234
 30
0.0
 10
-24.68943818963378
 20
-26.86158986296502
 30
0.0
 10
-24.66233912641463
 20
-25.21703934838536
 30
0.0
 10
-24.63593333624813
 20
-23.26944392575496
 30
0.0
 10
-24.61091593163388
 20
-21.05069418178867
 30
0.0
 10
-24.58579599595824
 20
-18.57313171893163
 30
0.0
 10
-24.55934666511987
 20
-15.84193174110506
 30
0.0
 10
-24.53221567068423
 20
-12.88298287773598
 30
0.0
 10
-24.50480988601716
 20
-9.74927948099135
 30
0.0
 10
-24.47771360611861
 20
-6.501164941294524
 30
0.0
 10
-24.45131244502177
 20
-3.202480974848043
 30
0.0
 10
-24.4263048204051
 20
0.1085030601182219
 30
0.0
 10
-24.40117463432025
 20
3.419109933081658
 30
0.0
 10
-24.37472100531221
 20
6.716421049071136
 30
0.0
 10
-24.34758694023623
 20
9.958972649712715
 30
0.0
 10
-24.32018126205305
 20
13.08300393690266
 30
0.0
 10
-24.29308819007366
 20
16.02854082142362
 30
0.0
 10
-24.26669158277902
 20
18.74322283507697
 30
0.0
 10
-24.24169365084832
 20
21.2040388054262
 30
0.0
 10
-24.21655325087437
 20
23.40556558026444
 30
0.0
 10
-24.19009528224299
 20
25.33451416705196
 30
0.0
 10
-24.16295835113365
 20
26.95846968982546
 30
0.0
 10
-24.13555209200928
 20
28.2395867851463
 30
0.0
 10
-24.10846485019856
 20
29.1563895479939
 30
0.0
 10
-24.08243895719545
 20
29.68051928469804
 30
0.0
 10
-24.05838143412531
 20
29.87170183076066
 30
0.0
 10
-24.04253123156017
 20
29.71018959477918
 30
0.0
 10
-24.03470338873474
 20
29.63042453231705
 30
0.0
  0
SPLINE
  5
126
330
1F
100
AcDbEntity
  8
0
  6
Continuous
 62
     7
370
    25
100
AcDbSpline
210
0.0
220
0.0
230
1.0
 70
     8
 71
     3
 72
    36
 73
    32
 74
     0
 42
0.000000001
 43
0.00000001
 40
0.0
 40
0.0
 40
0.0
 40
0.0
 40
0.0300406897180545
 40
0.0648242725755075
 40
0.0999381219407845
 40
0.1351597286444912
 40
0.1702624682635749
 40
0.2050242537914191
 40
0.2392363129056193
 40
0.2734829932829116
 40
0.3082689666392428
 40
0.3433840171140135
 40
0.3786055898727959
 40
0.4137070617947692
 40
0.4484663940198059
 40
0.4826751468117284
 40
0.5169253129945688
 40
0.5517136705546549
 40
0.5868299154724751
 40
0.6220514474974348
 40
0.6571516450713824
 40
0.6919085177280904
 40
0.7261140025435215
 40
0.7603676488191023
 40
0.795158384285167
 40
0.8302758169782246
 40
0.86549730148051
 40
0.9005962180569738
 40
0.9353506248825622
 40
0.9680720075909831
 40
1.0
 40
1.0
 40
1.0
 40
1.0
 10
-23.3166004584605
 20
-29.77662002427273
 30
0.0
 10
-23.30929565962882
 20
-29.74212279681063
 30
0.0
 10
-23.29353276353624
 20
-29.66768184032492
 30
0.0
 10
-23.26813438923739
 20
-29.10047349770435
 30
0.0
 10
-23.24101229627901
 20
-28.16858465892232
 30
0.0
 10
-23.21360485630045
 20
-26.86158986296502
 30
0.0
 10
-23.18650579308129
 20
-25.21703934838536
 30
0.0
 10
-23.1601000029148
 20
-23.26944392575497
 30
0.0
 10
-23.13508259830055
 20
-21.05069418178866
 30
0.0
 10
-23.10996266262492
 20
-18.57313171893164
 30
0.0
 10
-23.08351333178653
 20
-15.84193174110505
 30
0.0
 10
-23.0563823373509
 20
-12.88298287773598
 30
0.0
 10
-23.02897655268384
 20
-9.74927948099135
 30
0.0
 10
-23.00188027278527
 20
-6.501164941294514
 30
0.0
 10
-22.97547911168844
 20
-3.202480974848052
 30
0.0
 10
-22.95047148707176
 20
0.1085030601182224
 30
0.0
 10
-22.92534130098693
 20
3.419109933081663
 30
0.0
 10
-22.89888767197887
 20
6.716421049071126
 30
0.0
 10
-22.8717536069029
 20
9.958972649712722
 30
0.0
 10
-22.84434792871973
 20
13.08300393690266
 30
0.0
 10
-22.81725485674031
 20
16.02854082142362
 30
0.0
 10
-22.79085824944568
 20
18.74322283507697
 30
0.0
 10
-22.76586031751498
 20
21.20403880542619
 30
0.0
 10
-22.74071991754104
 20
23.40556558026444
 30
0.0
 10
-22.71426194890964
 20
25.33451416705197
 30
0.0
 10
-22.68712501780031
 20
26.95846968982546
 30
0.0
 10
-22.65971875867595
 20
28.2395867851463
 30
0.0
 10
-22.63263151686522
 20
29.15638954799391
 30
0.0
 10
-22.6066056238621
 20
29.68051928469803
 30
0.0
 10
-22.58254810079195
 20
29.87170183076066
 30
0.0
 10
-22.56669789822684
 20
29.71018959477918
 30
0.0
 10
-22.55887005540141
 20
29.63042453231704
 30
0.0
  0
SPLINE
  5
127
330
1F
100
AcDbEntity
  8
0
  6
Continuous
 62
     7
370
    25
100
AcDbSpline
210
0.0
220
0.0
230
1.0
 70
     8
 71
     3
 72
    36
 73
    32
 74
     0
 42
0.000000001
 43
0.00000001
 40
0.0
 40
0.0
 40
0.0
 40
0.0
 40
0.0300406897180546
 40
0.0648242725755076
 40
0.0999381219407846
 40
0.1351597286444913
 40
0.1702624682635749
 40
0.2050242537914191
 40
0.2392363129056193
 40
0.2734829932829117
 40
0.3082689666392429
 40
0.3433840171140136
 40
0.378605589872796
 40
0.4137070617947693
 40
0.448466394019806
 40
0.4826751468117284
 40
0.5169253129945689
 40
0.5517136705546549
 40
0.5868299154724752
 40
0.6220514474974348
 40
0.6571516450713824
 40
0.6919085177280904
 40
0.7261140025435215
 40
0.7603676488191023
 40
0.795158384285167
 40
0.8302758169782246
 40
0.86549730148051
 40
0.9005962180569738
 40
0.9353506248825622
 40
0.9680720075909831
 40
1.0
 40
1.0
 40
1.0
 40
1.0
 10
-21.84076712512717
 20
-29.77662002427273
 30
0.0
 10
-21.83346232629548
 20
-29.74212279681063
 30
0.0
 10
-21.81769943020291
 20
-29.66768184032492
 30
0.0
 10
-21.79230105590406
 20
-29.10047349770436
 30
0.0
 10
-21.76517896294568
 20
-28.16858465892233
 30
0.0
 10
-21.73777152296712
 20
-26.86158986296502
 30
0.0
 10
-21.71067245974796
 20
-25.21703934838536
 30
0.0
 10
-21.68426666958145
 20
-23.26944392575496
 30
0.0
 10
-21.65924926496721
 20
-21.05069418178867
 30
0.0
 10
-21.6341293292916
 20
-18.57313171893164
 30
0.0
 10
-21.60767999845319
 20
-15.84193174110505
 30
0.0
 10
-21.58054900401757
 20
-12.88298287773599
 30
0.0
 10
-21.55314321935049
 20
-9.749279480991342
 30
0.0
 10
-21.52604693945194
 20
-6.501164941294522
 30
0.0
 10
-21.4996457783551
 20
-3.202480974848049
 30
0.0
 10
-21.47463815373843
 20
0.1085030601182268
 30
0.0
 10
-21.44950796765359
 20
3.41910993308165
 30
0.0
 10
-21.42305433864554
 20
6.716421049071143
 30
0.0
 10
-21.39592027356955
 20
9.958972649712708
 30
0.0
 10
-21.36851459538638
 20
13.08300393690267
 30
0.0
 10
-21.34142152340698
 20
16.02854082142362
 30
0.0
 10
-21.31502491611235
 20
18.74322283507697
 30
0.0
 10
-21.29002698418164
 20
21.20403880542619
 30
0.0
 10
-21.26488658420771
 20
23.40556558026444
 30
0.0
 10
-21.2384286155763
 20
25.33451416705197
 30
0.0
 10
-21.21129168446697
 20
26.95846968982546
 30
0.0
 10
-21.18388542534262
 20
28.2395867851463
 30
0.0
 10
-21.1567981835319
 20
29.15638954799391
 30
0.0
 10
-21.13077229052877
 20
29.68051928469803
 30
0.0
 10
-21.10671476745864
 20
29.87170183076066
 30
0.0
 10
-21.09086456489349
 20
29.71018959477918
 30
0.0
 10
-21.08303672206809
 20
29.63042453231704
 30
0.0
  0
SPLINE
  5
128
330
1F
100
AcDbEntity
  8
0
  6
Continuous
 62
     7
370
    25
100
AcDbSpline
210
0.0
220
0.0
230
1.0
 70
     8
 71
     3
 72
    36
 73
    32
 74
     0
 42
0.000000001
 43
0.00000001
 40
0.0
 40
0.0
 40
0.0
 40
0.0
 40
0.0300406897180546
 40
0.0648242725755076
 40
0.0999381219407846
 40
0.1351597286444913
 40
0.1702624682635749
 40
0.2050242537914191
 40
0.2392363129056193
 40
0.2734829932829117
 40
0.3082689666392429
 40
0.3433840171140136
 40
0.378605589872796
 40
0.4137070617947693
 40
0.448466394019806
 40
0.4826751468117284
 40
0.5169253129945689
 40
0.5517136705546549
 40
0.5868299154724752
 40
0.6220514474974348
 40
0.6571516450713824
 40
0.6919085177280904
 40
0.7261140025435215
 40
0.7603676488191023
 40
0.795158384285167
 40
0.8302758169782246
 40
0.86549730148051
 40
0.9005962180569738
 40
0.9353506248825622
 40
0.9680720075909831
 40
1.0
 40
1.0
 40
1.0
 40
1.0
 10
-20.36493379179384
 20
-29.77662002427273
 30
0.0
 10
-20.35762899296214
 20
-29.74212279681063
 30
0.0
 10
-20.34186609686957
 20
-29.66768184032492
 30
0.0
 10
-20.31646772257073
 20
-29.10047349770436
 30
0.0
 10
-20.28934562961233
 20
-28.16858465892233
 30
0.0
 10
-20.26193818963377
 20
-26.86158986296502
 30
0.0
 10
-20.23483912641462
 20
-25.21703934838536
 30
0.0
 10
-20.20843333624812
 20
-23.26944392575496
 30
0.0
 10
-20.18341593163388
 20
-21.05069418178867
 30
0.0
 10
-20.15829599595827
 20
-18.57313171893164
 30
0.0
 10
-20.13184666511986
 20
-15.84193174110505
 30
0.0
 10
-20.10471567068423
 20
-12.88298287773599
 30
0.0
 10
-20.07730988601718
 20
-9.749279480991342
 30
0.0
 10
-20.05021360611861
 20
-6.501164941294522
 30
0.0
 10
-20.02381244502177
 20
-3.202480974848049
 30
0.0
 10
-19.9988048204051
 20
0.1085030601182268
 30
0.0
 10
-19.97367463432025
 20
3.41910993308165
 30
0.0
 10
-19.9472210053122
 20
6.716421049071143
 30
0.0
 10
-19.92008694023622
 20
9.958972649712708
 30
0.0
 10
-19.89268126205306
 20
13.08300393690267
 30
0.0
 10
-19.86558819007366
 20
16.02854082142362
 30
0.0
 10
-19.83919158277903
 20
18.74322283507697
 30
0.0
 10
-19.81419365084831
 20
21.20403880542619
 30
0.0
 10
-19.78905325087436
 20
23.40556558026444
 30
0.0
 10
-19.76259528224297
 20
25.33451416705197
 30
0.0
 10
-19.73545835113365
 20
26.95846968982546
 30
0.0
 10
-19.70805209200928
 20
28.2395867851463
 30
0.0
 10
-19.68096485019856
 20
29.15638954799391
 30
0.0
 10
-19.65493895719543
 20
29.68051928469803
 30
0.0
 10
-19.63088143412529
 20
29.87170183076066
 30
0.0
 10
-19.61503123156018
 20
29.71018959477918
 30
0.0
 10
-19.60720338873474
 20
29.63042453231704
 30
0.0
  0
SPLINE
  5
129
330
1F
100
AcDbEntity
  8
0
  6
Continuous
 62
     7
370
    25
100
AcDbSpline
210
0.0
220
0.0
230
1.0
 70
     8
 71
     3
 72
    36
 73
    32
 74
     0
 42
0.000000001
 43
0.00000001
 40
0.0
 40
0.0
 40
0.0
 40
0.0
 40
0.0300406897180546
 40
0.0648242725755076
 40
0.0999381219407846
 40
0.1351597286444913
 40
0.1702624682635749
 40
0.2050242537914191
 40
0.2392363129056193
 40
0.2734829932829117
 40
0.3082689666392429
 40
0.3433840171140136
 40
0.378605589872796
 40
0.4137070617947693
 40
0.448466394019806
 40
0.4826751468117284
 40
0.5169253129945689
 40
0.5517136705546549
 40
0.5868299154724752
 40
0.6220514474974348
 40
0.6571516450713824
 40
0.6919085177280904
 40
0.7261140025435215
 40
0.7603676488191023
 40
0.795158384285167
 40
0.8302758169782246
 40
0.86549730148051
 40
0.9005962180569738
 40
0.9353506248825622
 40
0.9680720075909831
 40
1.0
 40
1.0
 40
1.0
 40
1.0
 10
-18.88910045846051
 20
-29.77662002427273
 30
0.0
 10
-18.88179565962882
 20
-29.74212279681063
 30
0.0
 10
-18.86603276353624
 20
-29.66768184032492
 30
0.0
 10
-18.8406343892374
 20
-29.10047349770436
 30
0.0
 10
-18.81351229627902
 20
-28.16858465892233
 30
0.0
 10
-18.78610485630044
 20
-26.86158986296502
 30
0.0
 10
-18.7590057930813
 20
-25.21703934838536
 30
0.0
 10
-18.7326000029148
 20
-23.26944392575496
 30
0.0
 10
-18.70758259830055
 20
-21.05069418178867
 30
0.0
 10
-18.68246266262492
 20
-18.57313171893164
 30
0.0
 10
-18.65601333178653
 20
-15.84193174110505
 30
0.0
 10
-18.6288823373509
 20
-12.88298287773599
 30
0.0
 10
-18.60147655268383
 20
-9.749279480991342
 30
0.0
 10
-18.57438027278528
 20
-6.501164941294522
 30
0.0
 10
-18.54797911168844
 20
-3.202480974848049
 30
0.0
 10
-18.52297148707177
 20
0.1085030601182268
 30
0.0
 10
-18.49784130098692
 20
3.41910993308165
 30
0.0
 10
-18.47138767197887
 20
6.716421049071143
 30
0.0
 10
-18.4442536069029
 20
9.958972649712708
 30
0.0
 10
-18.41684792871973
 20
13.08300393690267
 30
0.0
 10
-18.38975485674031
 20
16.02854082142362
 30
0.0
 10
-18.3633582494457
 20
18.74322283507697
 30
0.0
 10
-18.33836031751497
 20
21.20403880542619
 30
0.0
 10
-18.31321991754105
 20
23.40556558026444
 30
0.0
 10
-18.28676194890964
 20
25.33451416705197
 30
0.0
 10
-18.25962501780032
 20
26.95846968982546
 30
0.0
 10
-18.23221875867595
 20
28.2395867851463
 30
0.0
 10
-18.20513151686523
 20
29.15638954799391
 30
0.0
 10
-18.17910562386212
 20
29.68051928469803
 30
0.0
 10
-18.15504810079195
 20
29.87170183076066
 30
0.0
 10
-18.13919789822684
 20
29.71018959477918
 30
0.0
 10
-18.13137005540141
 20
29.63042453231704
 30
0.0
  0
SPLINE
  5
12A
330
1F
100
AcDbEntity
  8
0
  6
Continuous
 62
     7
370
    25
100
AcDbSpline
210
0.0
220
0.0
230
1.0
 70
     8
 71
     3
 72
    36
 73
    32
 74
     0
 42
0.000000001
 43
0.00000001
 40
0.0
 40
0.0
 40
0.0
 40
0.0
 40
0.0300406897180546
 40
0.0648242725755076
 40
0.0999381219407846
 40
0.1351597286444914
 40
0.170262468263575
 40
0.2050242537914192
 40
0.2392363129056194
 40
0.2734829932829118
 40
0.3082689666392429
 40
0.3433840171140136
 40
0.3786055898727961
 40
0.4137070617947694
 40
0.448466394019806
 40
0.4826751468117285
 40
0.5169253129945689
 40
0.551713670554655
 40
0.5868299154724753
 40
0.6220514474974349
 40
0.6571516450713825
 40
0.6919085177280905
 40
0.7261140025435217
 40
0.7603676488191026
 40
0.7951583842851672
 40
0.8302758169782247
 40
0.8654973014805101
 40
0.900596218056974
 40
0.9353506248825624
 40
0.9680720075909832
 40
1.0
 40
1.0
 40
1.0
 40
1.0
 10
-17.41326712512718
 20
-29.77662002427273
 30
0.0
 10
-17.40596232629549
 20
-29.74212279681063
 30
0.0
 10
-17.39019943020291
 20
-29.66768184032493
 30
0.0
 10
-17.36480105590406
 20
-29.10047349770435
 30
0.0
 10
-17.33767896294568
 20
-28.16858465892234
 30
0.0
 10
-17.3102715229671
 20
-26.86158986296502
 30
0.0
 10
-17.28317245974796
 20
-25.21703934838536
 30
0.0
 10
-17.25676666958147
 20
-23.26944392575497
 30
0.0
 10
-17.23174926496721
 20
-21.05069418178867
 30
0.0
 10
-17.20662932929159
 20
-18.57313171893164
 30
0.0
 10
-17.18017999845318
 20
-15.84193174110505
 30
0.0
 10
-17.15304900401755
 20
-12.88298287773598
 30
0.0
 10
-17.12564321935051
 20
-9.749279480991351
 30
0.0
 10
-17.09854693945194
 20
-6.501164941294519
 30
0.0
 10
-17.0721457783551
 20
-3.202480974848044
 30
0.0
 10
-17.04713815373844
 20
0.1085030601182144
 30
0.0
 10
-17.02200796765359
 20
3.419109933081667
 30
0.0
 10
-16.99555433864554
 20
6.716421049071132
 30
0.0
 10
-16.96842027356957
 20
9.958972649712711
 30
0.0
 10
-16.94101459538638
 20
13.08300393690267
 30
0.0
 10
-16.91392152340698
 20
16.02854082142363
 30
0.0
 10
-16.88752491611235
 20
18.74322283507697
 30
0.0
 10
-16.86252698418164
 20
21.2040388054262
 30
0.0
 10
-16.83738658420771
 20
23.40556558026443
 30
0.0
 10
-16.81092861557632
 20
25.33451416705197
 30
0.0
 10
-16.78379168446698
 20
26.95846968982545
 30
0.0
 10
-16.75638542534262
 20
28.2395867851463
 30
0.0
 10
-16.7292981835319
 20
29.1563895479939
 30
0.0
 10
-16.70327229052877
 20
29.68051928469802
 30
0.0
 10
-16.67921476745864
 20
29.87170183076067
 30
0.0
 10
-16.66336456489351
 20
29.71018959477919
 30
0.0
 10
-16.65553672206808
 20
29.63042453231705
 30
0.0
  0
SPLINE
  5
12B
330
1F
100
AcDbEntity
  8
0
  6
Continuous
 62
     7
370
    25
100
AcDbSpline
210
0.0
220
0.0
230
1.0
 70
     8
 71
     3
 72
    36
 73
    32
 74
     0
 42
0.000000001
 43
0.00000001
 40
0.0
 40
0.0
 40
0.0
 40
0.0
 40
0.0300406897180531
 40
0.0648242725755062
 40
0.0999381219407833
 40
0.1351597286444901
 40
0.1702624682635737
 40
0.2050242537914179
 40
0.2392363129056182
 40
0.2734829932829106
 40
0.3082689666392419
 40
0.3433840171140126
 40
0.3786055898727951
 40
0.4137070617947685
 40
0.4484663940198052
 40
0.4826751468117277
 40
0.5169253129945682
 40
0.5517136705546544
 40
0.5868299154724747
 40
0.6220514474974344
 40
0.6571516450713819
 40
0.6919085177280899
 40
0.7261140025435212
 40
0.7603676488191021
 40
0.7951583842851668
 40
0.8302758169782245
 40
0.8654973014805099
 40
0.9005962180569738
 40
0.9353506248825622
 40
0.9680720075909832
 40
1.0
 40
1.0
 40
1.0
 40
1.0
 10
-15.93743379179384
 20
-29.77662002427272
 30
0.0
 10
-15.93012899296214
 20
-29.74212279681063
 30
0.0
 10
-15.91436609686958
 20
-29.66768184032493
 30
0.0
 10
-15.88896772257073
 20
-29.10047349770434
 30
0.0
 10
-15.86184562961235
 20
-28.16858465892234
 30
0.0
 10
-15.83443818963377
 20
-26.86158986296501
 30
0.0
 10
-15.80733912641462
 20
-25.21703934838536
 30
0.0
 10
-15.78093333624812
 20
-23.26944392575496
 30
0.0
 10
-15.75591593163388
 20
-21.05069418178867
 30
0.0
 10
-15.73079599595825
 20
-18.57313171893163
 30
0.0
 10
-15.70434666511986
 20
-15.84193174110506
 30
0.0
 10
-15.67721567068424
 20
-12.88298287773598
 30
0.0
 10
-15.64980988601716
 20
-9.74927948099135
 30
0.0
 10
-15.62271360611862
 20
-6.501164941294521
 30
0.0
 10
-15.59631244502177
 20
-3.202480974848044
 30
0.0
 10
-15.5713048204051
 20
0.108503060118219
 30
0.0
 10
-15.54617463432025
 20
3.419109933081658
 30
0.0
 10
-15.51972100531221
 20
6.716421049071136
 30
0.0
 10
-15.49258694023623
 20
9.958972649712715
 30
0.0
 10
-15.46518126205306
 20
13.08300393690266
 30
0.0
 10
-15.43808819007365
 20
16.02854082142362
 30
0.0
 10
-15.41169158277902
 20
18.74322283507698
 30
0.0
 10
-15.38669365084831
 20
21.20403880542619
 30
0.0
 10
-15.36155325087437
 20
23.40556558026444
 30
0.0
 10
-15.33509528224298
 20
25.33451416705196
 30
0.0
 10
-15.30795835113365
 20
26.95846968982546
 30
0.0
 10
-15.28055209200929
 20
28.2395867851463
 30
0.0
 10
-15.25346485019856
 20
29.1563895479939
 30
0.0
 10
-15.22743895719544
 20
29.68051928469803
 30
0.0
 10
-15.20338143412529
 20
29.87170183076065
 30
0.0
 10
-15.18753123156017
 20
29.71018959477918
 30
0.0
 10
-15.17970338873475
 20
29.63042453231705
 30
0.0
  0
SPLINE
  5
12C
330
1F
100
AcDbEntity
  8
0
  6
Continuous
 62
     7
370
    25
100
AcDbSpline
210
0.0
220
0.0
230
1.0
 70
     8
 71
     3
 72
    36
 73
    32
 74
     0
 42
0.000000001
 43
0.00000001
 40
0.0
 40
0.0
 40
0.0
 40
0.0
 40
0.0300406897180531
 40
0.0648242725755062
 40
0.0999381219407833
 40
0.1351597286444901
 40
0.1702624682635737
 40
0.2050242537914179
 40
0.2392363129056182
 40
0.2734829932829106
 40
0.3082689666392419
 40
0.3433840171140126
 40
0.3786055898727951
 40
0.4137070617947685
 40
0.4484663940198052
 40
0.4826751468117277
 40
0.5169253129945682
 40
0.5517136705546544
 40
0.5868299154724747
 40
0.6220514474974344
 40
0.6571516450713819
 40
0.6919085177280899
 40
0.7261140025435212
 40
0.7603676488191021
 40
0.7951583842851668
 40
0.8302758169782245
 40
0.8654973014805099
 40
0.9005962180569738
 40
0.9353506248825622
 40
0.9680720075909832
 40
1.0
 40
1.0
 40
1.0
 40
1.0
 10
-14.4616004584605
 20
-29.77662002427272
 30
0.0
 10
-14.45429565962882
 20
-29.74212279681063
 30
0.0
 10
-14.43853276353625
 20
-29.66768184032493
 30
0.0
 10
-14.41313438923739
 20
-29.10047349770434
 30
0.0
 10
-14.38601229627902
 20
-28.16858465892234
 30
0.0
 10
-14.35860485630044
 20
-26.86158986296501
 30
0.0
 10
-14.3315057930813
 20
-25.21703934838536
 30
0.0
 10
-14.30510000291479
 20
-23.26944392575496
 30
0.0
 10
-14.28008259830054
 20
-21.05069418178867
 30
0.0
 10
-14.25496266262492
 20
-18.57313171893163
 30
0.0
 10
-14.22851333178652
 20
-15.84193174110506
 30
0.0
 10
-14.2013823373509
 20
-12.88298287773598
 30
0.0
 10
-14.17397655268383
 20
-9.74927948099135
 30
0.0
 10
-14.14688027278528
 20
-6.501164941294521
 30
0.0
 10
-14.12047911168844
 20
-3.202480974848044
 30
0.0
 10
-14.09547148707176
 20
0.108503060118219
 30
0.0
 10
-14.07034130098692
 20
3.419109933081658
 30
0.0
 10
-14.04388767197887
 20
6.716421049071136
 30
0.0
 10
-14.0167536069029
 20
9.958972649712715
 30
0.0
 10
-13.98934792871973
 20
13.08300393690266
 30
0.0
 10
-13.96225485674031
 20
16.02854082142362
 30
0.0
 10
-13.9358582494457
 20
18.74322283507698
 30
0.0
 10
-13.91086031751498
 20
21.20403880542619
 30
0.0
 10
-13.88571991754103
 20
23.40556558026444
 30
0.0
 10
-13.85926194890964
 20
25.33451416705196
 30
0.0
 10
-13.83212501780031
 20
26.95846968982546
 30
0.0
 10
-13.80471875867595
 20
28.2395867851463
 30
0.0
 10
-13.77763151686522
 20
29.1563895479939
 30
0.0
 10
-13.75160562386212
 20
29.68051928469803
 30
0.0
 10
-13.72754810079196
 20
29.87170183076065
 30
0.0
 10
-13.71169789822683
 20
29.71018959477918
 30
0.0
 10
-13.70387005540141
 20
29.63042453231705
 30
0.0
  0
SPLINE
  5
12D
330
1F
100
AcDbEntity
  8
0
  6
Continuous
 62
     7
370
    25
100
AcDbSpline
210
0.0
220
0.0
230
1.0
 70
     8
 71
     3
 72
    36
 73
    32
 74
     0
 42
0.000000001
 43
0.00000001
 40
0.0
 40
0.0
 40
0.0
 40
0.0
 40
0.0300406897180531
 40
0.0648242725755062
 40
0.0999381219407833
 40
0.1351597286444901
 40
0.1702624682635737
 40
0.2050242537914179
 40
0.2392363129056182
 40
0.2734829932829106
 40
0.3082689666392419
 40
0.3433840171140126
 40
0.3786055898727951
 40
0.4137070617947685
 40
0.4484663940198052
 40
0.4826751468117277
 40
0.5169253129945682
 40
0.5517136705546544
 40
0.5868299154724747
 40
0.6220514474974344
 40
0.6571516450713819
 40
0.6919085177280899
 40
0.7261140025435212
 40
0.7603676488191021
 40
0.7951583842851668
 40
0.8302758169782245
 40
0.8654973014805099
 40
0.9005962180569738
 40
0.9353506248825622
 40
0.9680720075909832
 40
1.0
 40
1.0
 40
1.0
 40
1.0
 10
-12.98576712512717
 20
-29.77662002427272
 30
0.0
 10
-12.97846232629548
 20
-29.74212279681063
 30
0.0
 10
-12.96269943020292
 20
-29.66768184032493
 30
0.0
 10
-12.93730105590406
 20
-29.10047349770434
 30
0.0
 10
-12.91017896294568
 20
-28.16858465892234
 30
0.0
 10
-12.88277152296711
 20
-26.86158986296501
 30
0.0
 10
-12.85567245974796
 20
-25.21703934838536
 30
0.0
 10
-12.82926666958147
 20
-23.26944392575496
 30
0.0
 10
-12.8042492649672
 20
-21.05069418178867
 30
0.0
 10
-12.77912932929159
 20
-18.57313171893163
 30
0.0
 10
-12.75267999845318
 20
-15.84193174110506
 30
0.0
 10
-12.72554900401757
 20
-12.88298287773598
 30
0.0
 10
-12.6981432193505
 20
-9.74927948099135
 30
0.0
 10
-12.67104693945194
 20
-6.501164941294521
 30
0.0
 10
-12.64464577835511
 20
-3.202480974848044
 30
0.0
 10
-12.61963815373843
 20
0.108503060118219
 30
0.0
 10
-12.59450796765358
 20
3.419109933081658
 30
0.0
 10
-12.56805433864554
 20
6.716421049071136
 30
0.0
 10
-12.54092027356956
 20
9.958972649712715
 30
0.0
 10
-12.5135145953864
 20
13.08300393690266
 30
0.0
 10
-12.48642152340698
 20
16.02854082142362
 30
0.0
 10
-12.46002491611236
 20
18.74322283507698
 30
0.0
 10
-12.43502698418164
 20
21.20403880542619
 30
0.0
 10
-12.4098865842077
 20
23.40556558026444
 30
0.0
 10
-12.38342861557631
 20
25.33451416705196
 30
0.0
 10
-12.35629168446697
 20
26.95846968982546
 30
0.0
 10
-12.32888542534262
 20
28.2395867851463
 30
0.0
 10
-12.30179818353189
 20
29.1563895479939
 30
0.0
 10
-12.27577229052878
 20
29.68051928469803
 30
0.0
 10
-12.25171476745863
 20
29.87170183076065
 30
0.0
 10
-12.23586456489351
 20
29.71018959477918
 30
0.0
 10
-12.22803672206808
 20
29.63042453231705
 30
0.0
  0
SPLINE
  5
12E
330
1F
100
AcDbEntity
  8
0
  6
Continuous
 62
     7
370
    25
100
AcDbSpline
210
0.0
220
0.0
230
1.0
 70
     8
 71
     3
 72
    36
 73
    32
 74
     0
 42
0.000000001
 43
0.00000001
 40
0.0
 40
0.0
 40
0.0
 40
0.0
 40
0.0300406897180531
 40
0.0648242725755062
 40
0.0999381219407833
 40
0.1351597286444901
 40
0.1702624682635737
 40
0.2050242537914179
 40
0.2392363129056182
 40
0.2734829932829106
 40
0.3082689666392419
 40
0.3433840171140126
 40
0.3786055898727951
 40
0.4137070617947685
 40
0.4484663940198052
 40
0.4826751468117277
 40
0.5169253129945682
 40
0.5517136705546544
 40
0.5868299154724747
 40
0.6220514474974344
 40
0.6571516450713819
 40
0.6919085177280899
 40
0.7261140025435212
 40
0.7603676488191021
 40
0.7951583842851668
 40
0.8302758169782245
 40
0.8654973014805099
 40
0.9005962180569738
 40
0.9353506248825622
 40
0.9680720075909832
 40
1.0
 40
1.0
 40
1.0
 40
1.0
 10
-11.50993379179384
 20
-29.77662002427272
 30
0.0
 10
-11.50262899296214
 20
-29.74212279681063
 30
0.0
 10
-11.48686609686958
 20
-29.66768184032493
 30
0.0
 10
-11.46146772257073
 20
-29.10047349770434
 30
0.0
 10
-11.43434562961235
 20
-28.16858465892234
 30
0.0
 10
-11.40693818963377
 20
-26.86158986296501
 30
0.0
 10
-11.37983912641463
 20
-25.21703934838536
 30
0.0
 10
-11.35343333624813
 20
-23.26944392575496
 30
0.0
 10
-11.32841593163388
 20
-21.05069418178867
 30
0.0
 10
-11.30329599595826
 20
-18.57313171893163
 30
0.0
 10
-11.27684666511986
 20
-15.84193174110506
 30
0.0
 10
-11.24971567068423
 20
-12.88298287773598
 30
0.0
 10
-11.22230988601717
 20
-9.74927948099135
 30
0.0
 10
-11.19521360611861
 20
-6.501164941294521
 30
0.0
 10
-11.16881244502178
 20
-3.202480974848044
 30
0.0
 10
-11.1438048204051
 20
0.108503060118219
 30
0.0
 10
-11.11867463432025
 20
3.419109933081658
 30
0.0
 10
-11.09222100531221
 20
6.716421049071136
 30
0.0
 10
-11.06508694023623
 20
9.958972649712715
 30
0.0
 10
-11.03768126205306
 20
13.08300393690266
 30
0.0
 10
-11.01058819007365
 20
16.02854082142362
 30
0.0
 10
-10.98419158277903
 20
18.74322283507698
 30
0.0
 10
-10.95919365084831
 20
21.20403880542619
 30
0.0
 10
-10.93405325087437
 20
23.40556558026444
 30
0.0
 10
-10.90759528224298
 20
25.33451416705196
 30
0.0
 10
-10.88045835113365
 20
26.95846968982546
 30
0.0
 10
-10.85305209200928
 20
28.2395867851463
 30
0.0
 10
-10.82596485019856
 20
29.1563895479939
 30
0.0
 10
-10.79993895719544
 20
29.68051928469803
 30
0.0
 10
-10.7758814341253
 20
29.87170183076065
 30
0.0
 10
-10.76003123156017
 20
29.71018959477918
 30
0.0
 10
-10.75220338873475
 20
29.63042453231705
 30
0.0
  0
SPLINE
  5
12F
330
1F
100
AcDbEntity
  8
0
  6
Continuous
 62
     7
370
    25
100
AcDbSpline
210
0.0
220
0.0
230
1.0
 70
     8
 71
     3
 72
    36
 73
    32
 74
     0
 42
0.000000001
 43
0.00000001
 40
0.0
 40
0.0
 40
0.0
 40
0.0
 40
0.0300406897180531
 40
0.0648242725755062
 40
0.0999381219407833
 40
0.1351597286444901
 40
0.1702624682635737
 40
0.2050242537914179
 40
0.2392363129056182
 40
0.2734829932829106
 40
0.3082689666392419
 40
0.3433840171140126
 40
0.3786055898727951
 40
0.4137070617947685
 40
0.4484663940198052
 40
0.4826751468117277
 40
0.5169253129945682
 40
0.5517136705546544
 40
0.5868299154724747
 40
0.6220514474974344
 40
0.6571516450713819
 40
0.6919085177280899
 40
0.7261140025435212
 40
0.7603676488191021
 40
0.7951583842851668
 40
0.8302758169782245
 40
0.8654973014805099
 40
0.9005962180569738
 40
0.9353506248825622
 40
0.9680720075909832
 40
1.0
 40
1.0
 40
1.0
 40
1.0
 10
-10.03410045846051
 20
-29.77662002427272
 30
0.0
 10
-10.02679565962882
 20
-29.74212279681063
 30
0.0
 10
-10.01103276353625
 20
-29.66768184032493
 30
0.0
 10
-9.985634389237392
 20
-29.10047349770434
 30
0.0
 10
-9.958512296279018
 20
-28.16858465892234
 30
0.0
 10
-9.931104856300443
 20
-26.86158986296501
 30
0.0
 10
-9.904005793081296
 20
-25.21703934838536
 30
0.0
 10
-9.877600002914793
 20
-23.26944392575496
 30
0.0
 10
-9.852582598300547
 20
-21.05069418178867
 30
0.0
 10
-9.827462662624923
 20
-18.57313171893163
 30
0.0
 10
-9.801013331786526
 20
-15.84193174110506
 30
0.0
 10
-9.773882337350894
 20
-12.88298287773598
 30
0.0
 10
-9.746476552683832
 20
-9.74927948099135
 30
0.0
 10
-9.71938027278528
 20
-6.501164941294521
 30
0.0
 10
-9.692979111688441
 20
-3.202480974848044
 30
0.0
 10
-9.66797148707177
 20
0.108503060118219
 30
0.0
 10
-9.642841300986916
 20
3.419109933081658
 30
0.0
 10
-9.616387671978872
 20
6.716421049071136
 30
0.0
 10
-9.589253606902895
 20
9.958972649712715
 30
0.0
 10
-9.561847928719725
 20
13.08300393690266
 30
0.0
 10
-9.53475485674031
 20
16.02854082142362
 30
0.0
 10
-9.508358249445696
 20
18.74322283507698
 30
0.0
 10
-9.483360317514975
 20
21.20403880542619
 30
0.0
 10
-9.45821991754104
 20
23.40556558026444
 30
0.0
 10
-9.431761948909642
 20
25.33451416705196
 30
0.0
 10
-9.404625017800317
 20
26.95846968982546
 30
0.0
 10
-9.377218758675948
 20
28.2395867851463
 30
0.0
 10
-9.350131516865229
 20
29.1563895479939
 30
0.0
 10
-9.324105623862113
 20
29.68051928469803
 30
0.0
 10
-9.300048100791964
 20
29.87170183076065
 30
0.0
 10
-9.284197898226834
 20
29.71018959477918
 30
0.0
 10
-9.276370055401419
 20
29.63042453231705
 30
0.0
  0
SPLINE
  5
130
330
1F
100
AcDbEntity
  8
0
  6
Continuous
 62
     7
370
    25
100
AcDbSpline
210
0.0
220
0.0
230
1.0
 70
     8
 71
     3
 72
    35
 73
    31
 74
     0
 42
0.000000001
 43
0.00000001
 40
0.0
 40
0.0
 40
0.0
 40
0.0
 40
0.0321086710722254
 40
0.0692867329331778
 40
0.1068177966314856
 40
0.1444640356126425
 40
0.181983224777124
 40
0.2191379887946105
 40
0.2557051835931118
 40
0.2923093829597229
 40
0.3294899998799266
 40
0.3670223473713168
 40
0.4046685500708031
 40
0.4421863842707378
 40
0.4793385261016623
 40
0.5159021869728314
 40
0.5525101121055555
 40
0.5896932773565351
 40
0.6272269015156501
 40
0.664873060677224
 40
0.7023895328038514
 40
0.7395390457513786
 40
0.7760992136807007
 40
0.8127108584734642
 40
0.8498965653239086
 40
0.8874314590239283
 40
0.9250775673913981
 40
0.9625926703375164
 40
0.9997395477077289
 40
1.0
 40
1.0
 40
1.0
 40
1.0
 10
-8.558267125127173
 20
-29.77662002427272
 30
0.0
 10
-8.550962326295487
 20
-29.74212279681063
 30
0.0
 10
-8.535199430202915
 20
-29.66768184032493
 30
0.0
 10
-8.509801055904056
 20
-29.10047349770434
 30
0.0
 10
-8.48267896294569
 20
-28.16858465892233
 30
0.0
 10
-8.455271522967115
 20
-26.86158986296502
 30
0.0
 10
-8.428172459747959
 20
-25.21703934838533
 30
0.0
 10
-8.401766669581464
 20
-23.26944392575507
 30
0.0
 10
-8.376749264967218
 20
-21.05069418178829
 30
0.0
 10
-8.351629329291594
 20
-18.57313171893305
 30
0.0
 10
-8.325179998453184
 20
-15.84193174109967
 30
0.0
 10
-8.298049004017601
 20
-12.88298287775629
 30
0.0
 10
-8.270643219350365
 20
-9.749279480915423
 30
0.0
 10
-8.24354693945245
 20
-6.501164941575604
 30
0.0
 10
-8.217145778353231
 20
-3.202480973817236
 30
0.0
 10
-8.192138153745331
 20
0.1085030563357674
 30
0.0
 10
-8.16700796762762
 20
3.4191099473188
 30
0.0
 10
-8.14055433874452
 20
6.71642099479142
 30
0.0
 10
-8.113420273196004
 20
9.958972854566563
 30
0.0
 10
-8.086014596782674
 20
13.08300317121116
 30
0.0
 10
-8.058921518238074
 20
16.02854365594887
 30
0.0
 10
-8.032524935067231
 20
18.74321244060224
 30
0.0
 10
-8.007526914624925
 20
21.20407694894899
 30
0.0
 10
-7.982386846072859
 20
23.40542197861122
 30
0.0
 10
-7.955927617261958
 20
25.33506162282388
 30
0.0
 10
-7.928795451948203
 20
26.95640367792625
 30
0.0
 10
-7.901371344200381
 20
28.24730860397862
 30
0.0
 10
-7.874350308003083
 20
29.1278055228907
 30
0.0
 10
-7.856400987879749
 20
29.57584723427602
 30
0.0
 10
-7.847846904846037
 20
29.63469514902761
 30
0.0
 10
-7.847787346183216
 20
29.63510488354838
 30
0.0
  0
SPLINE
  5
131
330
1F
100
AcDbEntity
  8
0
  6
Continuous
 62
     7
370
    25
100
AcDbSpline
210
0.0
220
0.0
230
1.0
 70
     8
 71
     3
 72
    36
 73
    32
 74
     0
 42
0.000000001
 43
0.00000001
 40
0.0
 40
0.0
 40
0.0
 40
0.0
 40
0.0300406897180531
 40
0.0648242725755062
 40
0.0999381219407833
 40
0.1351597286444901
 40
0.1702624682635737
 40
0.2050242537914179
 40
0.2392363129056182
 40
0.2734829932829106
 40
0.3082689666392419
 40
0.3433840171140126
 40
0.3786055898727951
 40
0.4137070617947685
 40
0.4484663940198052
 40
0.4826751468117277
 40
0.5169253129945682
 40
0.5517136705546544
 40
0.5868299154724747
 40
0.6220514474974344
 40
0.6571516450713819
 40
0.6919085177280899
 40
0.7261140025435212
 40
0.7603676488191021
 40
0.7951583842851668
 40
0.8302758169782245
 40
0.8654973014805099
 40
0.9005962180569738
 40
0.9353506248825622
 40
0.9680720075909832
 40
1.0
 40
1.0
 40
1.0
 40
1.0
 10
-7.082433791793838
 20
-29.77662002427272
 30
0.0
 10
-7.07512899296215
 20
-29.74212279681063
 30
0.0
 10
-7.05936609686958
 20
-29.66768184032493
 30
0.0
 10
-7.03396772257072
 20
-29.10047349770434
 30
0.0
 10
-7.006845629612353
 20
-28.16858465892234
 30
0.0
 10
-6.979438189633772
 20
-26.86158986296501
 30
0.0
 10
-6.95233912641463
 20
-25.21703934838536
 30
0.0
 10
-6.925933336248129
 20
-23.26944392575496
 30
0.0
 10
-6.900915931633874
 20
-21.05069418178867
 30
0.0
 10
-6.87579599595825
 20
-18.57313171893163
 30
0.0
 10
-6.849346665119854
 20
-15.84193174110506
 30
0.0
 10
-6.82221567068423
 20
-12.88298287773598
 30
0.0
 10
-6.794809886017168
 20
-9.74927948099135
 30
0.0
 10
-6.767713606118608
 20
-6.501164941294521
 30
0.0
 10
-6.741312445021776
 20
-3.202480974848044
 30
0.0
 10
-6.716304820405098
 20
0.108503060118219
 30
0.0
 10
-6.69117463432025
 20
3.419109933081658
 30
0.0
 10
-6.664721005312208
 20
6.716421049071136
 30
0.0
 10
-6.63758694023623
 20
9.958972649712715
 30
0.0
 10
-6.610181262053059
 20
13.08300393690266
 30
0.0
 10
-6.583088190073645
 20
16.02854082142362
 30
0.0
 10
-6.55669158277903
 20
18.74322283507698
 30
0.0
 10
-6.531693650848311
 20
21.20403880542619
 30
0.0
 10
-6.506553250874368
 20
23.40556558026444
 30
0.0
 10
-6.480095282242977
 20
25.33451416705196
 30
0.0
 10
-6.452958351133645
 20
26.95846968982546
 30
0.0
 10
-6.425552092009283
 20
28.2395867851463
 30
0.0
 10
-6.398464850198557
 20
29.1563895479939
 30
0.0
 10
-6.372438957195442
 20
29.68051928469803
 30
0.0
 10
-6.348381434125298
 20
29.87170183076065
 30
0.0
 10
-6.33253123156017
 20
29.71018959477918
 30
0.0
 10
-6.324703388734747
 20
29.63042453231705
 30
0.0
  0
SPLINE
  5
133
330
1F
100
AcDbEntity
  8
0
  6
Continuous
 62
     7
370
    25
100
AcDbSpline
210
0.0
220
0.0
230
1.0
 70
    24
 71
     3
 72
    10
 73
     6
 74
     0
 42
0.000000001
 43
0.00000001
 40
0.0
 40
0.0
 40
0.0
 40
0.0
 40
0.5
 40
0.5
 40
1.0
 40
1.0
 40
1.0
 40
1.0
 10
-6.070968273574763
 20
25.84126821659943
 30
0.0
 10
-6.070968273574763
 20
26.25141000096064
 30
0.0
 10
-6.070968273574756
 20
26.62688785113142
 30
0.0
 10
-6.070968273574756
 20
27.3072037472155
 30
0.0
 10
-6.070968273574763
 20
27.61313172747699
 30
0.0
 10
-6.070968273574763
 20
27.87778448453918
 30
0.0
  0
SPLINE
  5
134
330
1F
100
AcDbEntity
  8
0
  6
Continuous
 62
     7
370
    25
100
AcDbSpline
210
0.0
220
0.0
230
1.0
 70
     8
 71
     3
 72
    35
 73
    31
 74
     0
 42
0.000000001
 43
0.00000001
 40
0.0
 40
0.0
 40
0.0
 40
0.0
 40
0.0307945063534634
 40
0.0667340732429682
 40
0.1030148873598096
 40
0.1394070415763197
 40
0.1756763765665615
 40
0.2115934214139364
 40
0.2469424629277948
 40
0.2823272767540504
 40
0.318269313621229
 40
0.3545513687824501
 40
0.3909434879254178
 40
0.4272115130697622
 40
0.46312602304754
 40
0.4984716483142465
 40
0.5338600638383348
 40
0.5698045641787742
 40
0.6060878534962854
 40
0.6424799305510913
 40
0.6787466389774935
 40
0.7146586076118485
 40
0.7500008562520745
 40
0.7853928675712742
 40
0.8213398248778201
 40
0.8576243414621176
 40
0.8940163694141912
 40
0.9302817542521132
 40
0.9661911750720406
 40
1.0
 40
1.0
 40
1.0
 40
1.0
 10
-27.04648921979759
 20
-28.27655101747916
 30
0.0
 10
-27.0392417704063
 20
-28.24396990827282
 30
0.0
 10
-27.02353598792186
 20
-28.17336412868485
 30
0.0
 10
-26.99819678385144
 20
-27.63559873373704
 30
0.0
 10
-26.97107497007666
 20
-26.75072601176734
 30
0.0
 10
-26.9436674564801
 20
-25.50949025403834
 30
0.0
 10
-26.91656841431436
 20
-23.94772703228571
 30
0.0
 10
-26.89016262020012
 20
-22.09816300189351
 30
0.0
 10
-26.86514521368319
 20
-19.99109558666585
 30
0.0
 10
-26.84002527485881
 20
-17.63824221977795
 30
0.0
 10
-26.81357594540855
 20
-15.04451890533587
 30
0.0
 10
-26.78644495203006
 20
-12.23451051598445
 30
0.0
 10
-26.75903916867983
 20
-9.258544013675968
 30
0.0
 10
-26.73194288983645
 20
-6.173925295307606
 30
0.0
 10
-26.70554173007952
 20
-3.041282647739529
 30
0.0
 10
-26.6805341021204
 20
0.1030415275802234
 30
0.0
 10
-26.65540391331223
 20
3.247007451276179
 30
0.0
 10
-26.62895028557588
 20
6.378346347119286
 30
0.0
 10
-26.60181622162482
 20
9.457682186388338
 30
0.0
 10
-26.57441054460982
 20
12.42446324647616
 30
0.0
 10
-26.54731747420867
 20
15.22173544617387
 30
0.0
 10
-26.52092086633343
 20
17.79976971298065
 30
0.0
 10
-26.49592293806809
 20
20.1367288343177
 30
0.0
 10
-26.4707825089989
 20
22.22740551707493
 30
0.0
 10
-26.44432464210149
 20
24.05939300913012
 30
0.0
 10
-26.41718733216826
 20
25.60109987447251
 30
0.0
 10
-26.38978249718693
 20
26.81962566064332
 30
0.0
 10
-26.3626899787342
 20
27.68325334417121
 30
0.0
 10
-26.33668320292988
 20
28.20645372251044
 30
0.0
 10
-26.32030758502611
 20
28.2694506016858
 30
0.0
 10
-26.31236647301365
 20
28.29999999999897
 30
0.0
  0
SPLINE
  5
135
330
1F
100
AcDbEntity
  8
0
  6
Continuous
 62
     7
370
    25
100
AcDbSpline
210
0.0
220
0.0
230
1.0
 70
     8
 71
     3
 72
    35
 73
    31
 74
     0
 42
0.000000001
 43
0.00000001
 40
0.0
 40
0.0
 40
0.0
 40
0.0
 40
0.0307945063534631
 40
0.0667340732429679
 40
0.1030148873598093
 40
0.1394070415763194
 40
0.1756763765665613
 40
0.2115934214139362
 40
0.2469424629277946
 40
0.2823272767540502
 40
0.3182693136212288
 40
0.3545513687824499
 40
0.3909434879254176
 40
0.4272115130697621
 40
0.4631260230475398
 40
0.4984716483142463
 40
0.5338600638383347
 40
0.5698045641787741
 40
0.6060878534962852
 40
0.6424799305510912
 40
0.6787466389774935
 40
0.7146586076118484
 40
0.7500008562520744
 40
0.7853928675712741
 40
0.82133982487782
 40
0.8576243414621176
 40
0.8940163694141912
 40
0.9302817542521132
 40
0.9661911750720406
 40
1.0
 40
1.0
 40
1.0
 40
1.0
 10
-25.57065588646425
 20
-28.27655101747916
 30
0.0
 10
-25.56340843707296
 20
-28.24396990827282
 30
0.0
 10
-25.54770265458853
 20
-28.17336412868485
 30
0.0
 10
-25.5223634505181
 20
-27.63559873373704
 30
0.0
 10
-25.49524163674333
 20
-26.75072601176733
 30
0.0
 10
-25.46783412314677
 20
-25.50949025403835
 30
0.0
 10
-25.44073508098103
 20
-23.94772703228571
 30
0.0
 10
-25.41432928686679
 20
-22.09816300189351
 30
0.0
 10
-25.38931188034986
 20
-19.99109558666586
 30
0.0
 10
-25.36419194152546
 20
-17.63824221977795
 30
0.0
 10
-25.33774261207524
 20
-15.04451890533588
 30
0.0
 10
-25.31061161869674
 20
-12.23451051598446
 30
0.0
 10
-25.28320583534648
 20
-9.258544013675957
 30
0.0
 10
-25.25610955650312
 20
-6.173925295307612
 30
0.0
 10
-25.22970839674619
 20
-3.041282647739528
 30
0.0
 10
-25.20470076878706
 20
0.1030415275802268
 30
0.0
 10
-25.1795705799789
 20
3.247007451276175
 30
0.0
 10
-25.15311695224255
 20
6.378346347119288
 30
0.0
 10
-25.1259828882915
 20
9.457682186388338
 30
0.0
 10
-25.09857721127648
 20
12.42446324647617
 30
0.0
 10
-25.07148414087536
 20
15.22173544617386
 30
0.0
 10
-25.0450875330001
 20
17.79976971298066
 30
0.0
 10
-25.02008960473476
 20
20.13672883431769
 30
0.0
 10
-24.99494917566557
 20
22.22740551707493
 30
0.0
 10
-24.96849130876816
 20
24.05939300913013
 30
0.0
 10
-24.94135399883493
 20
25.60109987447251
 30
0.0
 10
-24.91394916385359
 20
26.81962566064331
 30
0.0
 10
-24.88685664540087
 20
27.68325334417121
 30
0.0
 10
-24.86084986959657
 20
28.20645372251044
 30
0.0
 10
-24.84447425169277
 20
28.2694506016858
 30
0.0
 10
-24.83653313968032
 20
28.29999999999897
 30
0.0
  0
SPLINE
  5
136
330
1F
100
AcDbEntity
  8
0
  6
Continuous
 62
     7
370
    25
100
AcDbSpline
210
0.0
220
0.0
230
1.0
 70
     8
 71
     3
 72
    35
 73
    31
 74
     0
 42
0.000000001
 43
0.00000001
 40
0.0
 40
0.0
 40
0.0
 40
0.0
 40
0.0307945063534631
 40
0.0667340732429679
 40
0.1030148873598093
 40
0.1394070415763194
 40
0.1756763765665613
 40
0.2115934214139362
 40
0.2469424629277946
 40
0.2823272767540502
 40
0.3182693136212288
 40
0.3545513687824499
 40
0.3909434879254176
 40
0.4272115130697621
 40
0.4631260230475398
 40
0.4984716483142463
 40
0.5338600638383347
 40
0.5698045641787741
 40
0.6060878534962852
 40
0.6424799305510912
 40
0.6787466389774935
 40
0.7146586076118484
 40
0.7500008562520744
 40
0.7853928675712741
 40
0.82133982487782
 40
0.8576243414621176
 40
0.8940163694141912
 40
0.9302817542521132
 40
0.9661911750720406
 40
1.0
 40
1.0
 40
1.0
 40
1.0
 10
-24.09482255313092
 20
-28.27655101747916
 30
0.0
 10
-24.08757510373963
 20
-28.24396990827282
 30
0.0
 10
-24.0718693212552
 20
-28.17336412868485
 30
0.0
 10
-24.04653011718477
 20
-27.63559873373704
 30
0.0
 10
-24.01940830341
 20
-26.75072601176733
 30
0.0
 10
-23.99200078981344
 20
-25.50949025403835
 30
0.0
 10
-23.96490174764769
 20
-23.94772703228571
 30
0.0
 10
-23.93849595353347
 20
-22.09816300189351
 30
0.0
 10
-23.91347854701653
 20
-19.99109558666586
 30
0.0
 10
-23.88835860819214
 20
-17.63824221977795
 30
0.0
 10
-23.86190927874189
 20
-15.04451890533588
 30
0.0
 10
-23.8347782853634
 20
-12.23451051598446
 30
0.0
 10
-23.80737250201314
 20
-9.258544013675957
 30
0.0
 10
-23.78027622316979
 20
-6.173925295307612
 30
0.0
 10
-23.75387506341285
 20
-3.041282647739528
 30
0.0
 10
-23.72886743545373
 20
0.1030415275802268
 30
0.0
 10
-23.70373724664557
 20
3.247007451276175
 30
0.0
 10
-23.67728361890921
 20
6.378346347119288
 30
0.0
 10
-23.65014955495816
 20
9.457682186388338
 30
0.0
 10
-23.62274387794315
 20
12.42446324647617
 30
0.0
 10
-23.59565080754201
 20
15.22173544617386
 30
0.0
 10
-23.56925419966675
 20
17.79976971298066
 30
0.0
 10
-23.54425627140143
 20
20.13672883431769
 30
0.0
 10
-23.51911584233223
 20
22.22740551707493
 30
0.0
 10
-23.49265797543482
 20
24.05939300913013
 30
0.0
 10
-23.4655206655016
 20
25.60109987447251
 30
0.0
 10
-23.43811583052026
 20
26.81962566064331
 30
0.0
 10
-23.41102331206754
 20
27.68325334417121
 30
0.0
 10
-23.38501653626322
 20
28.20645372251044
 30
0.0
 10
-23.36864091835944
 20
28.2694506016858
 30
0.0
 10
-23.36069980634699
 20
28.29999999999897
 30
0.0
  0
SPLINE
  5
137
330
1F
100
AcDbEntity
  8
0
  6
Continuous
 62
     7
370
    25
100
AcDbSpline
210
0.0
220
0.0
230
1.0
 70
     8
 71
     3
 72
    35
 73
    31
 74
     0
 42
0.000000001
 43
0.00000001
 40
0.0
 40
0.0
 40
0.0
 40
0.0
 40
0.0307945063534631
 40
0.0667340732429679
 40
0.1030148873598093
 40
0.1394070415763194
 40
0.1756763765665613
 40
0.2115934214139362
 40
0.2469424629277946
 40
0.2823272767540502
 40
0.3182693136212288
 40
0.3545513687824499
 40
0.3909434879254176
 40
0.4272115130697621
 40
0.4631260230475398
 40
0.4984716483142463
 40
0.5338600638383347
 40
0.5698045641787741
 40
0.6060878534962852
 40
0.6424799305510912
 40
0.6787466389774935
 40
0.7146586076118484
 40
0.7500008562520744
 40
0.7853928675712741
 40
0.82133982487782
 40
0.8576243414621176
 40
0.8940163694141912
 40
0.9302817542521132
 40
0.9661911750720406
 40
1.0
 40
1.0
 40
1.0
 40
1.0
 10
-22.61898921979759
 20
-28.27655101747916
 30
0.0
 10
-22.6117417704063
 20
-28.24396990827282
 30
0.0
 10
-22.59603598792186
 20
-28.17336412868485
 30
0.0
 10
-22.57069678385144
 20
-27.63559873373704
 30
0.0
 10
-22.54357497007666
 20
-26.75072601176733
 30
0.0
 10
-22.51616745648009
 20
-25.50949025403835
 30
0.0
 10
-22.48906841431436
 20
-23.94772703228571
 30
0.0
 10
-22.46266262020012
 20
-22.09816300189351
 30
0.0
 10
-22.4376452136832
 20
-19.99109558666586
 30
0.0
 10
-22.4125252748588
 20
-17.63824221977795
 30
0.0
 10
-22.38607594540855
 20
-15.04451890533588
 30
0.0
 10
-22.35894495203007
 20
-12.23451051598446
 30
0.0
 10
-22.33153916867982
 20
-9.258544013675957
 30
0.0
 10
-22.30444288983645
 20
-6.173925295307612
 30
0.0
 10
-22.27804173007954
 20
-3.041282647739528
 30
0.0
 10
-22.2530341021204
 20
0.1030415275802268
 30
0.0
 10
-22.22790391331224
 20
3.247007451276175
 30
0.0
 10
-22.20145028557588
 20
6.378346347119288
 30
0.0
 10
-22.17431622162483
 20
9.457682186388338
 30
0.0
 10
-22.14691054460981
 20
12.42446324647617
 30
0.0
 10
-22.11981747420869
 20
15.22173544617386
 30
0.0
 10
-22.09342086633344
 20
17.79976971298066
 30
0.0
 10
-22.06842293806809
 20
20.13672883431769
 30
0.0
 10
-22.04328250899891
 20
22.22740551707493
 30
0.0
 10
-22.01682464210149
 20
24.05939300913013
 30
0.0
 10
-21.98968733216827
 20
25.60109987447251
 30
0.0
 10
-21.96228249718692
 20
26.81962566064331
 30
0.0
 10
-21.93518997873421
 20
27.68325334417121
 30
0.0
 10
-21.90918320292988
 20
28.20645372251044
 30
0.0
 10
-21.89280758502611
 20
28.2694506016858
 30
0.0
 10
-21.88486647301364
 20
28.29999999999897
 30
0.0
  0
SPLINE
  5
138
330
1F
100
AcDbEntity
  8
0
  6
Continuous
 62
     7
370
    25
100
AcDbSpline
210
0.0
220
0.0
230
1.0
 70
     8
 71
     3
 72
    35
 73
    31
 74
     0
 42
0.000000001
 43
0.00000001
 40
0.0
 40
0.0
 40
0.0
 40
0.0
 40
0.0307945063534632
 40
0.0667340732429681
 40
0.1030148873598094
 40
0.1394070415763196
 40
0.1756763765665614
 40
0.2115934214139363
 40
0.2469424629277947
 40
0.2823272767540503
 40
0.3182693136212289
 40
0.35455136878245
 40
0.3909434879254178
 40
0.4272115130697622
 40
0.46312602304754
 40
0.4984716483142465
 40
0.5338600638383348
 40
0.5698045641787742
 40
0.6060878534962854
 40
0.6424799305510914
 40
0.6787466389774937
 40
0.7146586076118486
 40
0.7500008562520746
 40
0.7853928675712744
 40
0.8213398248778202
 40
0.8576243414621177
 40
0.8940163694141913
 40
0.9302817542521132
 40
0.9661911750720406
 40
1.0
 40
1.0
 40
1.0
 40
1.0
 10
-21.14315588646426
 20
-28.27655101747916
 30
0.0
 10
-21.13590843707296
 20
-28.24396990827282
 30
0.0
 10
-21.12020265458853
 20
-28.17336412868486
 30
0.0
 10
-21.0948634505181
 20
-27.63559873373703
 30
0.0
 10
-21.06774163674334
 20
-26.75072601176734
 30
0.0
 10
-21.04033412314675
 20
-25.50949025403835
 30
0.0
 10
-21.01323508098103
 20
-23.94772703228571
 30
0.0
 10
-20.98682928686678
 20
-22.09816300189351
 30
0.0
 10
-20.96181188034986
 20
-19.99109558666586
 30
0.0
 10
-20.93669194152546
 20
-17.63824221977795
 30
0.0
 10
-20.91024261207523
 20
-15.04451890533588
 30
0.0
 10
-20.88311161869673
 20
-12.23451051598445
 30
0.0
 10
-20.85570583534649
 20
-9.25854401367597
 30
0.0
 10
-20.82860955650312
 20
-6.173925295307601
 30
0.0
 10
-20.8022083967462
 20
-3.041282647739532
 30
0.0
 10
-20.77720076878707
 20
0.103041527580224
 30
0.0
 10
-20.75207057997889
 20
3.247007451276179
 30
0.0
 10
-20.72561695224255
 20
6.378346347119285
 30
0.0
 10
-20.69848288829149
 20
9.457682186388343
 30
0.0
 10
-20.67107721127648
 20
12.42446324647615
 30
0.0
 10
-20.64398414087536
 20
15.22173544617388
 30
0.0
 10
-20.61758753300009
 20
17.79976971298065
 30
0.0
 10
-20.59258960473475
 20
20.1367288343177
 30
0.0
 10
-20.56744917566557
 20
22.22740551707493
 30
0.0
 10
-20.54099130876815
 20
24.05939300913012
 30
0.0
 10
-20.51385399883493
 20
25.6010998744725
 30
0.0
 10
-20.48644916385359
 20
26.81962566064332
 30
0.0
 10
-20.45935664540087
 20
27.68325334417121
 30
0.0
 10
-20.43334986959657
 20
28.20645372251044
 30
0.0
 10
-20.41697425169278
 20
28.2694506016858
 30
0.0
 10
-20.40903313968031
 20
28.29999999999897
 30
0.0
  0
SPLINE
  5
139
330
1F
100
AcDbEntity
  8
0
  6
Continuous
 62
     7
370
    25
100
AcDbSpline
210
0.0
220
0.0
230
1.0
 70
     8
 71
     3
 72
    35
 73
    31
 74
     0
 42
0.000000001
 43
0.00000001
 40
0.0
 40
0.0
 40
0.0
 40
0.0
 40
0.0307945063534632
 40
0.0667340732429681
 40
0.1030148873598094
 40
0.1394070415763196
 40
0.1756763765665614
 40
0.2115934214139363
 40
0.2469424629277947
 40
0.2823272767540503
 40
0.3182693136212289
 40
0.35455136878245
 40
0.3909434879254178
 40
0.4272115130697622
 40
0.46312602304754
 40
0.4984716483142465
 40
0.5338600638383348
 40
0.5698045641787742
 40
0.6060878534962854
 40
0.6424799305510914
 40
0.6787466389774937
 40
0.7146586076118486
 40
0.7500008562520746
 40
0.7853928675712744
 40
0.8213398248778202
 40
0.8576243414621177
 40
0.8940163694141913
 40
0.9302817542521132
 40
0.9661911750720406
 40
1.0
 40
1.0
 40
1.0
 40
1.0
 10
-19.66732255313093
 20
-28.27655101747916
 30
0.0
 10
-19.66007510373963
 20
-28.24396990827282
 30
0.0
 10
-19.6443693212552
 20
-28.17336412868486
 30
0.0
 10
-19.61903011718477
 20
-27.63559873373703
 30
0.0
 10
-19.59190830341
 20
-26.75072601176734
 30
0.0
 10
-19.56450078981342
 20
-25.50949025403835
 30
0.0
 10
-19.5374017476477
 20
-23.94772703228571
 30
0.0
 10
-19.51099595353346
 20
-22.09816300189351
 30
0.0
 10
-19.48597854701653
 20
-19.99109558666586
 30
0.0
 10
-19.46085860819213
 20
-17.63824221977795
 30
0.0
 10
-19.43440927874189
 20
-15.04451890533588
 30
0.0
 10
-19.40727828536341
 20
-12.23451051598445
 30
0.0
 10
-19.37987250201316
 20
-9.25854401367597
 30
0.0
 10
-19.35277622316978
 20
-6.173925295307601
 30
0.0
 10
-19.32637506341286
 20
-3.041282647739532
 30
0.0
 10
-19.30136743545373
 20
0.103041527580224
 30
0.0
 10
-19.27623724664557
 20
3.247007451276179
 30
0.0
 10
-19.24978361890921
 20
6.378346347119285
 30
0.0
 10
-19.22264955495816
 20
9.457682186388343
 30
0.0
 10
-19.19524387794315
 20
12.42446324647615
 30
0.0
 10
-19.16815080754201
 20
15.22173544617388
 30
0.0
 10
-19.14175419966675
 20
17.79976971298065
 30
0.0
 10
-19.11675627140143
 20
20.1367288343177
 30
0.0
 10
-19.09161584233222
 20
22.22740551707493
 30
0.0
 10
-19.06515797543481
 20
24.05939300913012
 30
0.0
 10
-19.0380206655016
 20
25.6010998744725
 30
0.0
 10
-19.01061583052026
 20
26.81962566064332
 30
0.0
 10
-18.98352331206754
 20
27.68325334417121
 30
0.0
 10
-18.95751653626322
 20
28.20645372251044
 30
0.0
 10
-18.94114091835945
 20
28.2694506016858
 30
0.0
 10
-18.93319980634699
 20
28.29999999999897
 30
0.0
  0
SPLINE
  5
13A
330
1F
100
AcDbEntity
  8
0
  6
Continuous
 62
     7
370
    25
100
AcDbSpline
210
0.0
220
0.0
230
1.0
 70
     8
 71
     3
 72
    35
 73
    31
 74
     0
 42
0.000000001
 43
0.00000001
 40
0.0
 40
0.0
 40
0.0
 40
0.0
 40
0.0307945063534632
 40
0.0667340732429681
 40
0.1030148873598094
 40
0.1394070415763196
 40
0.1756763765665614
 40
0.2115934214139363
 40
0.2469424629277947
 40
0.2823272767540503
 40
0.3182693136212289
 40
0.35455136878245
 40
0.3909434879254178
 40
0.4272115130697622
 40
0.46312602304754
 40
0.4984716483142465
 40
0.5338600638383348
 40
0.5698045641787742
 40
0.6060878534962854
 40
0.6424799305510914
 40
0.6787466389774937
 40
0.7146586076118486
 40
0.7500008562520746
 40
0.7853928675712744
 40
0.8213398248778202
 40
0.8576243414621177
 40
0.8940163694141913
 40
0.9302817542521132
 40
0.9661911750720406
 40
1.0
 40
1.0
 40
1.0
 40
1.0
 10
-18.19148921979759
 20
-28.27655101747916
 30
0.0
 10
-18.1842417704063
 20
-28.24396990827282
 30
0.0
 10
-18.16853598792186
 20
-28.17336412868486
 30
0.0
 10
-18.14319678385144
 20
-27.63559873373703
 30
0.0
 10
-18.11607497007667
 20
-26.75072601176734
 30
0.0
 10
-18.08866745648009
 20
-25.50949025403835
 30
0.0
 10
-18.06156841431438
 20
-23.94772703228571
 30
0.0
 10
-18.03516262020012
 20
-22.09816300189351
 30
0.0
 10
-18.01014521368319
 20
-19.99109558666586
 30
0.0
 10
-17.9850252748588
 20
-17.63824221977795
 30
0.0
 10
-17.95857594540856
 20
-15.04451890533588
 30
0.0
 10
-17.93144495203007
 20
-12.23451051598445
 30
0.0
 10
-17.90403916867983
 20
-9.25854401367597
 30
0.0
 10
-17.87694288983645
 20
-6.173925295307601
 30
0.0
 10
-17.85054173007953
 20
-3.041282647739532
 30
0.0
 10
-17.8255341021204
 20
0.103041527580224
 30
0.0
 10
-17.80040391331224
 20
3.247007451276179
 30
0.0
 10
-17.77395028557588
 20
6.378346347119285
 30
0.0
 10
-17.74681622162482
 20
9.457682186388343
 30
0.0
 10
-17.71941054460982
 20
12.42446324647615
 30
0.0
 10
-17.69231747420869
 20
15.22173544617388
 30
0.0
 10
-17.66592086633342
 20
17.79976971298065
 30
0.0
 10
-17.64092293806808
 20
20.1367288343177
 30
0.0
 10
-17.61578250899889
 20
22.22740551707493
 30
0.0
 10
-17.58932464210149
 20
24.05939300913012
 30
0.0
 10
-17.56218733216826
 20
25.6010998744725
 30
0.0
 10
-17.53478249718693
 20
26.81962566064332
 30
0.0
 10
-17.50768997873421
 20
27.68325334417121
 30
0.0
 10
-17.48168320292989
 20
28.20645372251044
 30
0.0
 10
-17.46530758502611
 20
28.2694506016858
 30
0.0
 10
-17.45736647301364
 20
28.29999999999897
 30
0.0
  0
SPLINE
  5
13B
330
1F
100
AcDbEntity
  8
0
  6
Continuous
 62
     7
370
    25
100
AcDbSpline
210
0.0
220
0.0
230
1.0
 70
     8
 71
     3
 72
    35
 73
    31
 74
     0
 42
0.000000001
 43
0.00000001
 40
0.0
 40
0.0
 40
0.0
 40
0.0
 40
0.0307945063534632
 40
0.066734073242968
 40
0.1030148873598094
 40
0.1394070415763195
 40
0.1756763765665614
 40
0.2115934214139363
 40
0.2469424629277947
 40
0.2823272767540502
 40
0.3182693136212288
 40
0.35455136878245
 40
0.3909434879254177
 40
0.4272115130697621
 40
0.4631260230475399
 40
0.4984716483142463
 40
0.5338600638383348
 40
0.5698045641787741
 40
0.6060878534962852
 40
0.6424799305510913
 40
0.6787466389774935
 40
0.7146586076118485
 40
0.7500008562520745
 40
0.7853928675712741
 40
0.82133982487782
 40
0.8576243414621176
 40
0.8940163694141912
 40
0.9302817542521132
 40
0.9661911750720406
 40
1.0
 40
1.0
 40
1.0
 40
1.0
 10
-16.71565588646426
 20
-28.27655101747916
 30
0.0
 10
-16.70840843707297
 20
-28.24396990827282
 30
0.0
 10
-16.69270265458853
 20
-28.17336412868486
 30
0.0
 10
-16.66736345051811
 20
-27.63559873373703
 30
0.0
 10
-16.64024163674333
 20
-26.75072601176733
 30
0.0
 10
-16.61283412314675
 20
-25.50949025403835
 30
0.0
 10
-16.58573508098103
 20
-23.94772703228571
 30
0.0
 10
-16.55932928686679
 20
-22.09816300189351
 30
0.0
 10
-16.53431188034986
 20
-19.99109558666585
 30
0.0
 10
-16.50919194152546
 20
-17.63824221977794
 30
0.0
 10
-16.48274261207523
 20
-15.04451890533588
 30
0.0
 10
-16.45561161869673
 20
-12.23451051598445
 30
0.0
 10
-16.4282058353465
 20
-9.258544013675968
 30
0.0
 10
-16.40110955650312
 20
-6.173925295307606
 30
0.0
 10
-16.37470839674619
 20
-3.04128264773953
 30
0.0
 10
-16.34970076878707
 20
0.1030415275802314
 30
0.0
 10
-16.3245705799789
 20
3.247007451276165
 30
0.0
 10
-16.29811695224255
 20
6.378346347119294
 30
0.0
 10
-16.27098288829148
 20
9.45768218638834
 30
0.0
 10
-16.24357721127649
 20
12.42446324647616
 30
0.0
 10
-16.21648414087534
 20
15.22173544617387
 30
0.0
 10
-16.19008753300009
 20
17.79976971298066
 30
0.0
 10
-16.16508960473476
 20
20.13672883431768
 30
0.0
 10
-16.13994917566557
 20
22.22740551707494
 30
0.0
 10
-16.11349130876815
 20
24.05939300913012
 30
0.0
 10
-16.08635399883493
 20
25.60109987447251
 30
0.0
 10
-16.05894916385359
 20
26.81962566064331
 30
0.0
 10
-16.03185664540087
 20
27.68325334417121
 30
0.0
 10
-16.00584986959656
 20
28.20645372251044
 30
0.0
 10
-15.98947425169278
 20
28.2694506016858
 30
0.0
 10
-15.98153313968032
 20
28.29999999999897
 30
0.0
  0
SPLINE
  5
13C
330
1F
100
AcDbEntity
  8
0
  6
Continuous
 62
     7
370
    25
100
AcDbSpline
210
0.0
220
0.0
230
1.0
 70
     8
 71
     3
 72
    35
 73
    31
 74
     0
 42
0.000000001
 43
0.00000001
 40
0.0
 40
0.0
 40
0.0
 40
0.0
 40
0.0307945063534617
 40
0.0667340732429666
 40
0.1030148873598081
 40
0.1394070415763182
 40
0.1756763765665602
 40
0.2115934214139351
 40
0.2469424629277936
 40
0.2823272767540492
 40
0.3182693136212278
 40
0.354551368782449
 40
0.3909434879254168
 40
0.4272115130697613
 40
0.4631260230475391
 40
0.4984716483142456
 40
0.5338600638383342
 40
0.5698045641787736
 40
0.6060878534962847
 40
0.6424799305510909
 40
0.6787466389774931
 40
0.7146586076118482
 40
0.7500008562520741
 40
0.785392867571274
 40
0.8213398248778199
 40
0.8576243414621175
 40
0.8940163694141912
 40
0.9302817542521131
 40
0.9661911750720406
 40
1.0
 40
1.0
 40
1.0
 40
1.0
 10
-15.23982255313092
 20
-28.27655101747915
 30
0.0
 10
-15.23257510373963
 20
-28.24396990827281
 30
0.0
 10
-15.21686932125519
 20
-28.17336412868484
 30
0.0
 10
-15.19153011718478
 20
-27.63559873373703
 30
0.0
 10
-15.16440830341
 20
-26.75072601176733
 30
0.0
 10
-15.13700078981343
 20
-25.50949025403835
 30
0.0
 10
-15.1099017476477
 20
-23.94772703228571
 30
0.0
 10
-15.08349595353346
 20
-22.0981630018935
 30
0.0
 10
-15.05847854701653
 20
-19.99109558666586
 30
0.0
 10
-15.03335860819213
 20
-17.63824221977794
 30
0.0
 10
-15.00690927874189
 20
-15.04451890533588
 30
0.0
 10
-14.97977828536341
 20
-12.23451051598445
 30
0.0
 10
-14.95237250201316
 20
-9.258544013675966
 30
0.0
 10
-14.92527622316979
 20
-6.173925295307602
 30
0.0
 10
-14.89887506341286
 20
-3.041282647739536
 30
0.0
 10
-14.87386743545373
 20
0.1030415275802345
 30
0.0
 10
-14.84873724664557
 20
3.247007451276169
 30
0.0
 10
-14.82228361890922
 20
6.378346347119288
 30
0.0
 10
-14.79514955495815
 20
9.457682186388348
 30
0.0
 10
-14.76774387794315
 20
12.42446324647615
 30
0.0
 10
-14.74065080754202
 20
15.22173544617388
 30
0.0
 10
-14.71425419966677
 20
17.79976971298064
 30
0.0
 10
-14.68925627140142
 20
20.1367288343177
 30
0.0
 10
-14.66411584233224
 20
22.22740551707494
 30
0.0
 10
-14.63765797543481
 20
24.05939300913012
 30
0.0
 10
-14.6105206655016
 20
25.60109987447251
 30
0.0
 10
-14.58311583052026
 20
26.81962566064331
 30
0.0
 10
-14.55602331206753
 20
27.6832533441712
 30
0.0
 10
-14.53001653626323
 20
28.20645372251044
 30
0.0
 10
-14.51364091835944
 20
28.2694506016858
 30
0.0
 10
-14.50569980634699
 20
28.29999999999897
 30
0.0
  0
SPLINE
  5
13D
330
1F
100
AcDbEntity
  8
0
  6
Continuous
 62
     7
370
    25
100
AcDbSpline
210
0.0
220
0.0
230
1.0
 70
     8
 71
     3
 72
    35
 73
    31
 74
     0
 42
0.000000001
 43
0.00000001
 40
0.0
 40
0.0
 40
0.0
 40
0.0
 40
0.0307945063534652
 40
0.0667340732429699
 40
0.1030148873598112
 40
0.1394070415763213
 40
0.1756763765665631
 40
0.2115934214139379
 40
0.2469424629277962
 40
0.2823272767540518
 40
0.3182693136212303
 40
0.3545513687824514
 40
0.390943487925419
 40
0.4272115130697633
 40
0.463126023047541
 40
0.4984716483142474
 40
0.5338600638383357
 40
0.5698045641787751
 40
0.6060878534962861
 40
0.6424799305510921
 40
0.6787466389774942
 40
0.7146586076118491
 40
0.750000856252075
 40
0.7853928675712747
 40
0.8213398248778205
 40
0.857624341462118
 40
0.8940163694141915
 40
0.9302817542521133
 40
0.9661911750720407
 40
1.0
 40
1.0
 40
1.0
 40
1.0
 10
-13.76398921979759
 20
-28.27655101747916
 30
0.0
 10
-13.7567417704063
 20
-28.24396990827282
 30
0.0
 10
-13.74103598792185
 20
-28.17336412868486
 30
0.0
 10
-13.71569678385144
 20
-27.63559873373703
 30
0.0
 10
-13.68857497007666
 20
-26.75072601176733
 30
0.0
 10
-13.6611674564801
 20
-25.50949025403835
 30
0.0
 10
-13.63406841431437
 20
-23.94772703228571
 30
0.0
 10
-13.60766262020012
 20
-22.09816300189351
 30
0.0
 10
-13.58264521368319
 20
-19.99109558666585
 30
0.0
 10
-13.5575252748588
 20
-17.63824221977795
 30
0.0
 10
-13.53107594540856
 20
-15.04451890533588
 30
0.0
 10
-13.50394495203007
 20
-12.23451051598445
 30
0.0
 10
-13.47653916867982
 20
-9.258544013675964
 30
0.0
 10
-13.44944288983645
 20
-6.173925295307603
 30
0.0
 10
-13.42304173007954
 20
-3.041282647739529
 30
0.0
 10
-13.39803410212041
 20
0.1030415275802234
 30
0.0
 10
-13.37290391331223
 20
3.247007451276181
 30
0.0
 10
-13.34645028557589
 20
6.378346347119281
 30
0.0
 10
-13.31931622162482
 20
9.457682186388341
 30
0.0
 10
-13.29191054460982
 20
12.42446324647615
 30
0.0
 10
-13.26481747420869
 20
15.22173544617388
 30
0.0
 10
-13.23842086633343
 20
17.79976971298066
 30
0.0
 10
-13.21342293806808
 20
20.13672883431768
 30
0.0
 10
-13.18828250899889
 20
22.22740551707494
 30
0.0
 10
-13.1618246421015
 20
24.05939300913013
 30
0.0
 10
-13.13468733216826
 20
25.60109987447251
 30
0.0
 10
-13.10728249718693
 20
26.81962566064331
 30
0.0
 10
-13.0801899787342
 20
27.68325334417122
 30
0.0
 10
-13.0541832029299
 20
28.20645372251044
 30
0.0
 10
-13.03780758502611
 20
28.26945060168581
 30
0.0
 10
-13.02986647301365
 20
28.29999999999897
 30
0.0
  0
SPLINE
  5
13E
330
1F
100
AcDbEntity
  8
0
  6
Continuous
 62
     7
370
    25
100
AcDbSpline
210
0.0
220
0.0
230
1.0
 70
     8
 71
     3
 72
    35
 73
    31
 74
     0
 42
0.000000001
 43
0.00000001
 40
0.0
 40
0.0
 40
0.0
 40
0.0
 40
0.0307945063534652
 40
0.0667340732429699
 40
0.1030148873598112
 40
0.1394070415763213
 40
0.1756763765665631
 40
0.2115934214139379
 40
0.2469424629277962
 40
0.2823272767540518
 40
0.3182693136212303
 40
0.3545513687824514
 40
0.390943487925419
 40
0.4272115130697633
 40
0.463126023047541
 40
0.4984716483142474
 40
0.5338600638383357
 40
0.5698045641787751
 40
0.6060878534962861
 40
0.6424799305510921
 40
0.6787466389774942
 40
0.7146586076118491
 40
0.750000856252075
 40
0.7853928675712747
 40
0.8213398248778205
 40
0.857624341462118
 40
0.8940163694141915
 40
0.9302817542521133
 40
0.9661911750720407
 40
1.0
 40
1.0
 40
1.0
 40
1.0
 10
-12.28815588646426
 20
-28.27655101747916
 30
0.0
 10
-12.28090843707296
 20
-28.24396990827282
 30
0.0
 10
-12.26520265458852
 20
-28.17336412868486
 30
0.0
 10
-12.23986345051811
 20
-27.63559873373703
 30
0.0
 10
-12.21274163674333
 20
-26.75072601176733
 30
0.0
 10
-12.18533412314676
 20
-25.50949025403835
 30
0.0
 10
-12.15823508098103
 20
-23.94772703228571
 30
0.0
 10
-12.13182928686679
 20
-22.09816300189351
 30
0.0
 10
-12.10681188034986
 20
-19.99109558666585
 30
0.0
 10
-12.08169194152547
 20
-17.63824221977795
 30
0.0
 10
-12.05524261207522
 20
-15.04451890533588
 30
0.0
 10
-12.02811161869673
 20
-12.23451051598445
 30
0.0
 10
-12.00070583534649
 20
-9.258544013675964
 30
0.0
 10
-11.97360955650312
 20
-6.173925295307603
 30
0.0
 10
-11.9472083967462
 20
-3.041282647739529
 30
0.0
 10
-11.92220076878707
 20
0.1030415275802234
 30
0.0
 10
-11.89707057997889
 20
3.247007451276181
 30
0.0
 10
-11.87061695224255
 20
6.378346347119281
 30
0.0
 10
-11.84348288829148
 20
9.457682186388341
 30
0.0
 10
-11.81607721127648
 20
12.42446324647615
 30
0.0
 10
-11.78898414087536
 20
15.22173544617388
 30
0.0
 10
-11.76258753300009
 20
17.79976971298066
 30
0.0
 10
-11.73758960473475
 20
20.13672883431768
 30
0.0
 10
-11.71244917566557
 20
22.22740551707494
 30
0.0
 10
-11.68599130876816
 20
24.05939300913013
 30
0.0
 10
-11.65885399883493
 20
25.60109987447251
 30
0.0
 10
-11.63144916385359
 20
26.81962566064331
 30
0.0
 10
-11.60435664540088
 20
27.68325334417122
 30
0.0
 10
-11.57834986959656
 20
28.20645372251044
 30
0.0
 10
-11.56197425169278
 20
28.26945060168581
 30
0.0
 10
-11.55403313968031
 20
28.29999999999897
 30
0.0
  0
SPLINE
  5
13F
330
1F
100
AcDbEntity
  8
0
  6
Continuous
 62
     7
370
    25
100
AcDbSpline
210
0.0
220
0.0
230
1.0
 70
     8
 71
     3
 72
    35
 73
    31
 74
     0
 42
0.000000001
 43
0.00000001
 40
0.0
 40
0.0
 40
0.0
 40
0.0
 40
0.0307945063534652
 40
0.0667340732429699
 40
0.1030148873598112
 40
0.1394070415763213
 40
0.1756763765665631
 40
0.2115934214139379
 40
0.2469424629277962
 40
0.2823272767540518
 40
0.3182693136212303
 40
0.3545513687824514
 40
0.390943487925419
 40
0.4272115130697633
 40
0.463126023047541
 40
0.4984716483142474
 40
0.5338600638383357
 40
0.5698045641787751
 40
0.6060878534962861
 40
0.6424799305510921
 40
0.6787466389774942
 40
0.7146586076118491
 40
0.750000856252075
 40
0.7853928675712747
 40
0.8213398248778205
 40
0.857624341462118
 40
0.8940163694141915
 40
0.9302817542521133
 40
0.9661911750720407
 40
1.0
 40
1.0
 40
1.0
 40
1.0
 10
-10.81232255313092
 20
-28.27655101747916
 30
0.0
 10
-10.80507510373963
 20
-28.24396990827282
 30
0.0
 10
-10.78936932125519
 20
-28.17336412868486
 30
0.0
 10
-10.76403011718478
 20
-27.63559873373703
 30
0.0
 10
-10.73690830341
 20
-26.75072601176733
 30
0.0
 10
-10.70950078981343
 20
-25.50949025403835
 30
0.0
 10
-10.6824017476477
 20
-23.94772703228571
 30
0.0
 10
-10.65599595353346
 20
-22.09816300189351
 30
0.0
 10
-10.63097854701653
 20
-19.99109558666585
 30
0.0
 10
-10.60585860819214
 20
-17.63824221977795
 30
0.0
 10
-10.5794092787419
 20
-15.04451890533588
 30
0.0
 10
-10.55227828536341
 20
-12.23451051598445
 30
0.0
 10
-10.52487250201316
 20
-9.258544013675964
 30
0.0
 10
-10.49777622316979
 20
-6.173925295307603
 30
0.0
 10
-10.47137506341286
 20
-3.041282647739529
 30
0.0
 10
-10.44636743545374
 20
0.1030415275802234
 30
0.0
 10
-10.42123724664556
 20
3.247007451276181
 30
0.0
 10
-10.39478361890922
 20
6.378346347119281
 30
0.0
 10
-10.36764955495816
 20
9.457682186388341
 30
0.0
 10
-10.34024387794315
 20
12.42446324647615
 30
0.0
 10
-10.31315080754203
 20
15.22173544617388
 30
0.0
 10
-10.28675419966677
 20
17.79976971298066
 30
0.0
 10
-10.26175627140142
 20
20.13672883431768
 30
0.0
 10
-10.23661584233224
 20
22.22740551707494
 30
0.0
 10
-10.21015797543483
 20
24.05939300913013
 30
0.0
 10
-10.1830206655016
 20
25.60109987447251
 30
0.0
 10
-10.15561583052026
 20
26.81962566064331
 30
0.0
 10
-10.12852331206754
 20
27.68325334417122
 30
0.0
 10
-10.10251653626323
 20
28.20645372251044
 30
0.0
 10
-10.08614091835944
 20
28.26945060168581
 30
0.0
 10
-10.07819980634699
 20
28.29999999999897
 30
0.0
  0
SPLINE
  5
140
330
1F
100
AcDbEntity
  8
0
  6
Continuous
 62
     7
370
    25
100
AcDbSpline
210
0.0
220
0.0
230
1.0
 70
     8
 71
     3
 72
    35
 73
    31
 74
     0
 42
0.000000001
 43
0.00000001
 40
0.0
 40
0.0
 40
0.0
 40
0.0
 40
0.0307945063534652
 40
0.0667340732429699
 40
0.1030148873598112
 40
0.1394070415763213
 40
0.1756763765665631
 40
0.2115934214139379
 40
0.2469424629277962
 40
0.2823272767540518
 40
0.3182693136212303
 40
0.3545513687824514
 40
0.390943487925419
 40
0.4272115130697633
 40
0.463126023047541
 40
0.4984716483142474
 40
0.5338600638383357
 40
0.5698045641787751
 40
0.6060878534962861
 40
0.6424799305510921
 40
0.6787466389774942
 40
0.7146586076118491
 40
0.750000856252075
 40
0.7853928675712747
 40
0.8213398248778205
 40
0.857624341462118
 40
0.8940163694141915
 40
0.9302817542521133
 40
0.9661911750720407
 40
1.0
 40
1.0
 40
1.0
 40
1.0
 10
-9.336489219797587
 20
-28.27655101747916
 30
0.0
 10
-9.329241770406297
 20
-28.24396990827282
 30
0.0
 10
-9.31353598792186
 20
-28.17336412868486
 30
0.0
 10
-9.28819678385144
 20
-27.63559873373703
 30
0.0
 10
-9.26107497007666
 20
-26.75072601176733
 30
0.0
 10
-9.233667456480097
 20
-25.50949025403835
 30
0.0
 10
-9.206568414314367
 20
-23.94772703228571
 30
0.0
 10
-9.18016262020012
 20
-22.09816300189351
 30
0.0
 10
-9.1551452136832
 20
-19.99109558666585
 30
0.0
 10
-9.130025274858802
 20
-17.63824221977795
 30
0.0
 10
-9.10357594540856
 20
-15.04451890533588
 30
0.0
 10
-9.07644495203007
 20
-12.23451051598445
 30
0.0
 10
-9.049039168679823
 20
-9.258544013675964
 30
0.0
 10
-9.021942889836453
 20
-6.173925295307603
 30
0.0
 10
-8.995541730079534
 20
-3.041282647739529
 30
0.0
 10
-8.970534102120405
 20
0.1030415275802234
 30
0.0
 10
-8.945403913312228
 20
3.247007451276181
 30
0.0
 10
-8.91895028557589
 20
6.378346347119281
 30
0.0
 10
-8.89181622162482
 20
9.457682186388341
 30
0.0
 10
-8.864410544609818
 20
12.42446324647615
 30
0.0
 10
-8.83731747420869
 20
15.22173544617388
 30
0.0
 10
-8.81092086633343
 20
17.79976971298066
 30
0.0
 10
-8.78592293806809
 20
20.13672883431768
 30
0.0
 10
-8.7607825089989
 20
22.22740551707494
 30
0.0
 10
-8.734324642101491
 20
24.05939300913013
 30
0.0
 10
-8.707187332168264
 20
25.60109987447251
 30
0.0
 10
-8.679782497186928
 20
26.81962566064331
 30
0.0
 10
-8.65268997873421
 20
27.68325334417122
 30
0.0
 10
-8.626683202929899
 20
28.20645372251044
 30
0.0
 10
-8.610307585026115
 20
28.26945060168581
 30
0.0
 10
-8.602366473013657
 20
28.29999999999897
 30
0.0
  0
SPLINE
  5
141
330
1F
100
AcDbEntity
  8
0
  6
Continuous
 62
     7
370
    25
100
AcDbSpline
210
0.0
220
0.0
230
1.0
 70
     8
 71
     3
 72
    35
 73
    31
 74
     0
 42
0.000000001
 43
0.00000001
 40
0.0
 40
0.0
 40
0.0
 40
0.0
 40
0.0307945063534652
 40
0.0667340732429699
 40
0.1030148873598112
 40
0.1394070415763213
 40
0.1756763765665631
 40
0.2115934214139379
 40
0.2469424629277962
 40
0.2823272767540518
 40
0.3182693136212303
 40
0.3545513687824514
 40
0.390943487925419
 40
0.4272115130697633
 40
0.463126023047541
 40
0.4984716483142474
 40
0.5338600638383357
 40
0.5698045641787751
 40
0.6060878534962861
 40
0.6424799305510921
 40
0.6787466389774942
 40
0.7146586076118491
 40
0.750000856252075
 40
0.7853928675712747
 40
0.8213398248778205
 40
0.857624341462118
 40
0.8940163694141915
 40
0.9302817542521133
 40
0.9661911750720407
 40
1.0
 40
1.0
 40
1.0
 40
1.0
 10
-7.860655886464257
 20
-28.27655101747916
 30
0.0
 10
-7.853408437072967
 20
-28.24396990827282
 30
0.0
 10
-7.837702654588524
 20
-28.17336412868486
 30
0.0
 10
-7.812363450518111
 20
-27.63559873373703
 30
0.0
 10
-7.78524163674333
 20
-26.75072601176733
 30
0.0
 10
-7.757834123146769
 20
-25.50949025403835
 30
0.0
 10
-7.730735080981037
 20
-23.94772703228571
 30
0.0
 10
-7.70432928686679
 20
-22.09816300189351
 30
0.0
 10
-7.679311880349863
 20
-19.99109558666585
 30
0.0
 10
-7.654191941525474
 20
-17.63824221977795
 30
0.0
 10
-7.627742612075231
 20
-15.04451890533588
 30
0.0
 10
-7.60061161869674
 20
-12.23451051598445
 30
0.0
 10
-7.573205835346493
 20
-9.258544013675964
 30
0.0
 10
-7.546109556503117
 20
-6.173925295307603
 30
0.0
 10
-7.519708396746198
 20
-3.041282647739529
 30
0.0
 10
-7.494700768787076
 20
0.1030415275802234
 30
0.0
 10
-7.4695705799789
 20
3.247007451276181
 30
0.0
 10
-7.443116952242555
 20
6.378346347119281
 30
0.0
 10
-7.415982888291491
 20
9.457682186388341
 30
0.0
 10
-7.388577211276489
 20
12.42446324647615
 30
0.0
 10
-7.361484140875361
 20
15.22173544617388
 30
0.0
 10
-7.335087533000093
 20
17.79976971298066
 30
0.0
 10
-7.310089604734754
 20
20.13672883431768
 30
0.0
 10
-7.284949175665564
 20
22.22740551707494
 30
0.0
 10
-7.258491308768162
 20
24.05939300913013
 30
0.0
 10
-7.231353998834934
 20
25.60109987447251
 30
0.0
 10
-7.203949163853599
 20
26.81962566064331
 30
0.0
 10
-7.176856645400874
 20
27.68325334417122
 30
0.0
 10
-7.150849869596569
 20
28.20645372251044
 30
0.0
 10
-7.134474251692779
 20
28.26945060168581
 30
0.0
 10
-7.126533139680314
 20
28.29999999999897
 30
0.0
  0
SPLINE
  5
142
330
1F
100
AcDbEntity
  8
0
  6
Continuous
 62
     7
370
    25
100
AcDbSpline
210
0.0
220
0.0
230
1.0
 70
     8
 71
     3
 72
    19
 73
    15
 74
     0
 42
0.000000001
 43
0.00000001
 40
0.0
 40
0.0
 40
0.0
 40
0.0
 40
0.0722434609940869
 40
0.1565571586687422
 40
0.2416714173419879
 40
0.3270468782587497
 40
0.4121342070690771
 40
0.4963950683626766
 40
0.5793234021528826
 40
0.6623356572641735
 40
0.7466551494702847
 40
0.8317723196154732
 40
0.917147698250218
 40
0.9999999999999999
 40
0.9999999999999999
 40
0.9999999999999999
 40
0.9999999999999999
 10
-6.384822553130921
 20
-28.27655101747916
 30
0.0
 10
-6.377575103730729
 20
-28.24396990989768
 30
0.0
 10
-6.361869321227003
 20
-28.17336413383089
 30
0.0
 10
-6.336530117320375
 20
-27.63559870898106
 30
0.0
 10
-6.309408302898098
 20
-26.75072610522283
 30
0.0
 10
-6.282000791726972
 20
-25.50948990468445
 30
0.0
 10
-6.254901740563152
 20
-23.94772832570066
 30
0.0
 10
-6.228495979515622
 20
-22.09815825836549
 30
0.0
 10
-6.203478451683251
 20
-19.99111299152883
 30
0.0
 10
-6.178358966951534
 20
-17.63817672157681
 30
0.0
 10
-6.151907910875554
 20
-15.04476863477721
 30
0.0
 10
-6.124783448020449
 20
-12.23356797691715
 30
0.0
 10
-6.09759275282426
 20
-9.288017309854952
 30
0.0
 10
-6.079753917774503
 20
-7.241030136734878
 30
0.0
 10
-6.070968273574756
 20
-6.232886895636747
 30
0.0
  0
SPLINE
  5
148
330
1F
100
AcDbEntity
  8
0
  6
Continuous
 62
     7
370
    25
100
AcDbSpline
210
0.0
220
0.0
230
1.0
 70
     8
 71
     3
 72
    22
 73
    18
 74
     0
 42
0.000000001
 43
0.00000001
 40
0.0
 40
0.0
 40
0.0
 40
0.0
 40
0.0625000000000001
 40
0.0625000000000001
 40
0.1250000000000001
 40
0.1250000000000001
 40
0.2500000000000002
 40
0.2500000000000002
 40
0.3750000000000003
 40
0.3750000000000003
 40
0.5000000000000004
 40
0.5000000000000004
 40
0.6250000000000006
 40
0.6250000000000006
 40
0.7500000000000007
 40
0.7500000000000007
 40
1.0
 40
1.0
 40
1.0
 40
1.0
 10
40.08613771518721
 20
46.40312489477405
 30
0.0
 10
40.48744642498643
 20
46.40312489477405
 30
0.0
 10
40.8885380828479
 20
46.38969124151036
 30
0.0
 10
41.69028578294578
 20
46.33586306411702
 30
0.0
 10
42.09198480128724
 20
46.29531787265465
 30
0.0
 10
43.28879661778551
 20
46.13363933697719
 30
0.0
 10
44.07109276806118
 20
45.97359078616523
 30
0.0
 10
45.60562590099891
 20
45.55265029376284
 30
0.0
 10
46.35786037817289
 20
45.29174994668649
 30
0.0
 10
47.83173556809948
 20
44.66731238046262
 30
0.0
 10
48.55570091180489
 20
44.30149969706039
 30
0.0
 10
49.93036053677095
 20
43.48733399595325
 30
0.0
 10
50.58646630687206
 20
43.03715287687661
 30
0.0
 10
51.83691281634498
 20
42.05153691509766
 30
0.0
 10
52.4322439480933
 20
41.51509494756231
 30
0.0
 10
54.11553018875215
 20
39.77871371798927
 30
0.0
 10
55.06069659432551
 20
38.4981825315039
 30
0.0
 10
55.83347212111539
 20
37.09792564661927
 30
0.0
  0
SPLINE
  5
149
330
1F
100
AcDbEntity
  8
0
  6
Continuous
 62
     7
370
    25
100
AcDbSpline
210
0.0
220
0.0
230
1.0
 70
     8
 71
     3
 72
    22
 73
    18
 74
     0
 42
0.000000001
 43
0.00000001
 40
0.0
 40
0.0
 40
0.0
 40
0.0
 40
0.125
 40
0.125
 40
0.25
 40
0.25
 40
0.375
 40
0.375
 40
0.5
 40
0.5
 40
0.625
 40
0.625
 40
0.75
 40
0.75
 40
0.875
 40
0.875
 40
1.0
 40
1.0
 40
1.0
 40
1.0
 10
55.83347212111538
 20
-37.09792564661929
 30
0.0
 10
55.44731382410802
 20
-37.79763829964028
 30
0.0
 10
55.00941612798638
 20
-38.4793041834093
 30
0.0
 10
54.05942437742333
 20
-39.76161779110875
 30
0.0
 10
53.54503645476067
 20
-40.36735508492962
 30
0.0
 10
52.43828107328397
 20
-41.5087140744651
 30
0.0
 10
51.84561223690182
 20
-42.04459244805809
 30
0.0
 10
50.58017498672094
 20
-43.04219908585043
 30
0.0
 10
49.92126545971374
 20
-43.49306800611068
 30
0.0
 10
48.55311140874635
 20
-44.30268310045978
 30
0.0
 10
47.84386101952795
 20
-44.66141853999556
 30
0.0
 10
46.37433890482126
 20
-45.28551053965818
 30
0.0
 10
45.60988892126939
 20
-45.55158045549957
 30
0.0
 10
44.06267621899329
 20
-45.97579971861429
 30
0.0
 10
43.27707778252741
 20
-46.13574603366302
 30
0.0
 10
41.6816456361081
 20
-46.35021978063502
 30
0.0
 10
40.88145309179066
 20
-46.40312489477405
 30
0.0
 10
40.0861377151872
 20
-46.40312489477405
 30
0.0
  0
LINE
  5
157
330
1F
100
AcDbEntity
  8
0
  6
Continuous
 62
     7
370
    25
100
AcDbLine
 10
9.4290317264
 20
-46.5
 30
0.0
 11
40.0861377152
 21
-46.5
 31
0.0
  0
LINE
  5
158
330
1F
100
AcDbEntity
  8
0
  6
Continuous
 62
     7
370
    25
100
AcDbLine
 10
40.0861377152
 20
46.5
 30
0.0
 11
9.4290317264
 21
46.5
 31
0.0
  0
LINE
  5
159
330
1F
100
AcDbEntity
  8
0
  6
Continuous
 62
     7
370
    25
100
AcDbLine
 10
7.9290317264
 20
-44.0
 30
0.0
 11
9.4290317264
 21
-44.0
 31
0.0
  0
LINE
  5
15A
330
1F
100
AcDbEntity
  8
0
  6
Continuous
 62
     7
370
    25
100
AcDbLine
 10
9.4290317264
 20
44.0
 30
0.0
 11
7.9290317264
 21
44.0
 31
0.0
  0
LINE
  5
15B
330
1F
100
AcDbEntity
  8
0
  6
Continuous
 62
     7
370
    25
100
AcDbLine
 10
55.8334721211
 20
-37.2190285645
 30
0.0
 11
58.4290317264
 21
-32.5312190484
 31
0.0
  0
LINE
  5
15C
330
1F
100
AcDbEntity
  8
0
  6
Continuous
 62
     7
370
    25
100
AcDbLine
 10
58.4290317264
 20
32.5312190484
 30
0.0
 11
55.8334721211
 21
37.2190285645
 31
0.0
  0
LINE
  5
15D
330
1F
100
AcDbEntity
  8
0
  6
Continuous
 62
     7
370
    25
100
AcDbLine
 10
60.1787355493
 20
-31.5
 30
0.0
 11
121.4290317264
 21
-31.5
 31
0.0
  0
LINE
  5
15E
330
1F
100
AcDbEntity
  8
0
  6
Continuous
 62
     7
370
    25
100
AcDbLine
 10
121.4290317264
 20
31.5
 30
0.0
 11
60.1787355493
 21
31.5
 31
0.0
  0
LINE
  5
15F
330
1F
100
AcDbEntity
  8
0
  6
Continuous
 62
     7
370
    25
100
AcDbLine
 10
-6.0709682736
 20
-31.0
 30
0.0
 11
5.9290317264
 21
-31.0
 31
0.0
  0
LINE
  5
160
330
1F
100
AcDbEntity
  8
0
  6
Continuous
 62
     7
370
    25
100
AcDbLine
 10
5.9290317264
 20
31.0
 30
0.0
 11
-6.0709682736
 21
31.0
 31
0.0
  0
LINE
  5
161
330
1F
100
AcDbEntity
  8
0
  6
Continuous
 62
     7
370
    25
100
AcDbLine
 10
-6.0709682736
 20
29.0985850684
 30
0.0
 11
-6.3247312327
 21
29.6417864091
 31
0.0
  0
LINE
  5
162
330
1F
100
AcDbEntity
  8
0
  6
Continuous
 62
     7
370
    25
100
AcDbLine
 10
-6.3867197392
 20
-28.3
 30
0.0
 11
-6.0709682736
 21
-28.3
 31
0.0
  0
LINE
  5
163
330
1F
100
AcDbEntity
  8
0
  6
Continuous
 62
     7
370
    25
100
AcDbLine
 10
-7.8625530725
 20
-28.3
 30
0.0
 11
-7.6386264001
 21
-28.3
 31
0.0
  0
LINE
  5
164
330
1F
100
AcDbEntity
  8
0
  6
Continuous
 62
     7
370
    25
100
AcDbLine
 10
-9.3383864059
 20
-28.3
 30
0.0
 11
-9.1144597334
 21
-28.3
 31
0.0
  0
LINE
  5
165
330
1F
100
AcDbEntity
  8
0
  6
Continuous
 62
     7
370
    25
100
AcDbLine
 10
-10.8142197392
 20
-28.3
 30
0.0
 11
-10.5902930667
 21
-28.3
 31
0.0
  0
LINE
  5
166
330
1F
100
AcDbEntity
  8
0
  6
Continuous
 62
     7
370
    25
100
AcDbLine
 10
-12.2900530725
 20
-28.3
 30
0.0
 11
-12.0661264001
 21
-28.3
 31
0.0
  0
LINE
  5
167
330
1F
100
AcDbEntity
  8
0
  6
Continuous
 62
     7
370
    25
100
AcDbLine
 10
-13.7658864059
 20
-28.3
 30
0.0
 11
-13.5419597334
 21
-28.3
 31
0.0
  0
LINE
  5
168
330
1F
100
AcDbEntity
  8
0
  6
Continuous
 62
     7
370
    25
100
AcDbLine
 10
-15.2417197392
 20
-28.3
 30
0.0
 11
-15.0177930667
 21
-28.3
 31
0.0
  0
LINE
  5
169
330
1F
100
AcDbEntity
  8
0
  6
Continuous
 62
     7
370
    25
100
AcDbLine
 10
-16.7175530725
 20
-28.3
 30
0.0
 11
-16.4936264001
 21
-28.3
 31
0.0
  0
LINE
  5
16A
330
1F
100
AcDbEntity
  8
0
  6
Continuous
 62
     7
370
    25
100
AcDbLine
 10
-18.1933864059
 20
-28.3
 30
0.0
 11
-17.9694597334
 21
-28.3
 31
0.0
  0
LINE
  5
16B
330
1F
100
AcDbEntity
  8
0
  6
Continuous
 62
     7
370
    25
100
AcDbLine
 10
-19.6692197392
 20
-28.3
 30
0.0
 11
-19.4452930667
 21
-28.3
 31
0.0
  0
LINE
  5
16C
330
1F
100
AcDbEntity
  8
0
  6
Continuous
 62
     7
370
    25
100
AcDbLine
 10
-21.1450530725
 20
-28.3
 30
0.0
 11
-20.9211264001
 21
-28.3
 31
0.0
  0
LINE
  5
16D
330
1F
100
AcDbEntity
  8
0
  6
Continuous
 62
     7
370
    25
100
AcDbLine
 10
-22.6208864059
 20
-28.3
 30
0.0
 11
-22.3969597334
 21
-28.3
 31
0.0
  0
LINE
  5
16E
330
1F
100
AcDbEntity
  8
0
  6
Continuous
 62
     7
370
    25
100
AcDbLine
 10
-24.0967197392
 20
-28.3
 30
0.0
 11
-23.8727930667
 21
-28.3
 31
0.0
  0
LINE
  5
16F
330
1F
100
AcDbEntity
  8
0
  6
Continuous
 62
     7
370
    25
100
AcDbLine
 10
-25.5725530725
 20
-28.3
 30
0.0
 11
-25.3486264001
 21
-28.3
 31
0.0
  0
LINE
  5
170
330
1F
100
AcDbEntity
  8
0
  6
Continuous
 62
     7
370
    25
100
AcDbLine
 10
-27.0483864059
 20
-28.3
 30
0.0
 11
-26.8244597334
 21
-28.3
 31
0.0
  0
LINE
  5
171
330
1F
100
AcDbEntity
  8
0
  6
Continuous
 62
     7
370
    25
100
AcDbLine
 10
-28.5709682736
 20
-28.3
 30
0.0
 11
-28.3002930667
 21
-28.3
 31
0.0
  0
LINE
  5
172
330
1F
100
AcDbEntity
  8
0
  6
Continuous
 62
     7
370
    25
100
AcDbLine
 10
-29.0381998063
 20
28.3
 30
0.0
 11
-27.5623849536
 21
28.3
 31
0.0
  0
LINE
  5
173
330
1F
100
AcDbEntity
  8
0
  6
Continuous
 62
     7
370
    25
100
AcDbLine
 10
-26.0865516203
 20
28.3
 30
0.0
 11
-26.3123665341
 21
28.3
 31
0.0
  0
LINE
  5
174
330
1F
100
AcDbEntity
  8
0
  6
Continuous
 62
     7
370
    25
100
AcDbLine
 10
-24.6107182869
 20
28.3
 30
0.0
 11
-24.8365332008
 21
28.3
 31
0.0
  0
LINE
  5
175
330
1F
100
AcDbEntity
  8
0
  6
Continuous
 62
     7
370
    25
100
AcDbLine
 10
-23.1348849536
 20
28.3
 30
0.0
 11
-23.3606998675
 21
28.3
 31
0.0
  0
LINE
  5
176
330
1F
100
AcDbEntity
  8
0
  6
Continuous
 62
     7
370
    25
100
AcDbLine
 10
-21.6590516203
 20
28.3
 30
0.0
 11
-21.8848665341
 21
28.3
 31
0.0
  0
LINE
  5
177
330
1F
100
AcDbEntity
  8
0
  6
Continuous
 62
     7
370
    25
100
AcDbLine
 10
-20.1832182869
 20
28.3
 30
0.0
 11
-20.4090332008
 21
28.3
 31
0.0
  0
LINE
  5
178
330
1F
100
AcDbEntity
  8
0
  6
Continuous
 62
     7
370
    25
100
AcDbLine
 10
-18.7073849536
 20
28.3
 30
0.0
 11
-18.9331998675
 21
28.3
 31
0.0
  0
LINE
  5
179
330
1F
100
AcDbEntity
  8
0
  6
Continuous
 62
     7
370
    25
100
AcDbLine
 10
-17.2315516203
 20
28.3
 30
0.0
 11
-17.4573665341
 21
28.3
 31
0.0
  0
LINE
  5
17A
330
1F
100
AcDbEntity
  8
0
  6
Continuous
 62
     7
370
    25
100
AcDbLine
 10
-15.7557182869
 20
28.3
 30
0.0
 11
-15.9815332008
 21
28.3
 31
0.0
  0
LINE
  5
17B
330
1F
100
AcDbEntity
  8
0
  6
Continuous
 62
     7
370
    25
100
AcDbLine
 10
-14.2798849536
 20
28.3
 30
0.0
 11
-14.5056998675
 21
28.3
 31
0.0
  0
LINE
  5
17C
330
1F
100
AcDbEntity
  8
0
  6
Continuous
 62
     7
370
    25
100
AcDbLine
 10
-12.8040516203
 20
28.3
 30
0.0
 11
-13.0298665341
 21
28.3
 31
0.0
  0
LINE
  5
17D
330
1F
100
AcDbEntity
  8
0
  6
Continuous
 62
     7
370
    25
100
AcDbLine
 10
-11.3282182869
 20
28.3
 30
0.0
 11
-11.5540332008
 21
28.3
 31
0.0
  0
LINE
  5
17E
330
1F
100
AcDbEntity
  8
0
  6
Continuous
 62
     7
370
    25
100
AcDbLine
 10
-9.8523849536
 20
28.3
 30
0.0
 11
-10.0781998675
 21
28.3
 31
0.0
  0
LINE
  5
17F
330
1F
100
AcDbEntity
  8
0
  6
Continuous
 62
     7
370
    25
100
AcDbLine
 10
-8.3765516203
 20
28.3
 30
0.0
 11
-8.6023665341
 21
28.3
 31
0.0
  0
LINE
  5
180
330
1F
100
AcDbEntity
  8
0
  6
Continuous
 62
     7
370
    25
100
AcDbLine
 10
-6.9007182869
 20
28.3
 30
0.0
 11
-7.1265332008
 21
28.3
 31
0.0
  0
LINE
  5
181
330
1F
100
AcDbEntity
  8
0
  6
Continuous
 62
     7
370
    25
100
AcDbLine
 10
40.0861377152
 20
25.7996386587
 30
0.0
 11
18.9290317264
 21
25.7996386587
 31
0.0
  0
LINE
  5
182
330
1F
100
AcDbEntity
  8
0
  6
Continuous
 62
     7
370
    25
100
AcDbLine
 10
40.0861377152
 20
20.603486236
 30
0.0
 11
40.0861377152
 21
25.7996386587
 31
0.0
  0
LINE
  5
183
330
1F
100
AcDbEntity
  8
0
  6
Continuous
 62
     7
370
    25
100
AcDbLine
 10
18.9290317264
 20
20.603486236
 30
0.0
 11
40.0861377152
 21
20.603486236
 31
0.0
  0
LINE
  5
184
330
1F
100
AcDbEntity
  8
0
  6
Continuous
 62
     7
370
    25
100
AcDbLine
 10
18.9290317264
 20
20.603486236
 30
0.0
 11
18.9290317264
 21
-20.603486236
 31
0.0
  0
LINE
  5
185
330
1F
100
AcDbEntity
  8
0
  6
Continuous
 62
     7
370
    25
100
AcDbLine
 10
40.0861377152
 20
-20.603486236
 30
0.0
 11
18.9290317264
 21
-20.603486236
 31
0.0
  0
LINE
  5
186
330
1F
100
AcDbEntity
  8
0
  6
Continuous
 62
     7
370
    25
100
AcDbLine
 10
40.0861377152
 20
-25.7996386587
 30
0.0
 11
40.0861377152
 21
-20.603486236
 31
0.0
  0
LINE
  5
187
330
1F
100
AcDbEntity
  8
0
  6
Continuous
 62
     7
370
    25
100
AcDbLine
 10
18.9290317264
 20
-25.7996386587
 30
0.0
 11
40.0861377152
 21
-25.7996386587
 31
0.0
  0
LINE
  5
188
330
1F
100
AcDbEntity
  8
0
  6
Continuous
 62
     7
370
    25
100
AcDbLine
 10
18.9290317264
 20
-25.7996386587
 30
0.0
 11
18.9290317264
 21
-46.4031248948
 31
0.0
  0
LINE
  5
189
330
1F
100
AcDbEntity
  8
0
  6
Continuous
 62
     7
370
    25
100
AcDbLine
 10
40.0861377152
 20
-46.4031248948
 30
0.0
 11
18.9290317264
 21
-46.4031248948
 31
0.0
  0
LINE
  5
18A
330
1F
100
AcDbEntity
  8
0
  6
Continuous
 62
     7
370
    25
100
AcDbLine
 10
18.9290317264
 20
46.4031248948
 30
0.0
 11
40.0861377152
 21
46.4031248948
 31
0.0
  0
LINE
  5
18B
330
1F
100
AcDbEntity
  8
0
  6
Continuous
 62
     7
370
    25
100
AcDbLine
 10
18.9290317264
 20
46.4031248948
 30
0.0
 11
18.9290317264
 21
25.7996386587
 31
0.0
  0
LINE
  5
18C
330
1F
100
AcDbEntity
  8
0
  6
Continuous
 62
     7
370
    25
100
AcDbLine
 10
9.4290317264
 20
-46.5
 30
0.0
 11
9.4290317264
 21
46.5
 31
0.0
  0
LINE
  5
18D
330
1F
100
AcDbEntity
  8
0
  6
Continuous
 62
     7
370
    25
100
AcDbLine
 10
5.9290317264
 20
-42.0
 30
0.0
 11
5.9290317264
 21
42.0
 31
0.0
  0
LINE
  5
18E
330
1F
100
AcDbEntity
  8
0
  6
Continuous
 62
     7
370
    25
100
AcDbLine
 10
18.9290317264
 20
-16.9262471221
 30
0.0
 11
48.8630532462
 21
-16.9262471221
 31
0.0
  0
LINE
  5
18F
330
1F
100
AcDbEntity
  8
0
  6
Continuous
 62
     7
370
    25
100
AcDbLine
 10
55.8334721211
 20
-21.1470390347
 30
0.0
 11
55.8334721211
 21
-15.950886612
 31
0.0
  0
LINE
  5
190
330
1F
100
AcDbEntity
  8
0
  6
Continuous
 62
     7
370
    25
100
AcDbLine
 10
55.8334721211
 20
15.950886612
 30
0.0
 11
57.6115723606
 21
14.3394443032
 31
0.0
  0
LINE
  5
191
330
1F
100
AcDbEntity
  8
0
  6
Continuous
 62
     7
370
    25
100
AcDbLine
 10
18.9290317264
 20
16.9262471221
 30
0.0
 11
48.8630532462
 21
16.9262471221
 31
0.0
  0
LINE
  5
192
330
1F
100
AcDbEntity
  8
0
  6
Continuous
 62
     7
370
    25
100
AcDbLine
 10
55.8334721211
 20
15.950886612
 30
0.0
 11
55.8334721211
 21
21.1470390347
 31
0.0
  0
LINE
  5
193
330
1F
100
AcDbEntity
  8
0
  6
Continuous
 62
     7
370
    25
100
AcDbLine
 10
57.6115723606
 20
14.3394443032
 30
0.0
 11
57.6115723606
 21
-14.3394443032
 31
0.0
  0
LINE
  5
194
330
1F
100
AcDbEntity
  8
0
  6
Continuous
 62
     7
370
    25
100
AcDbLine
 10
48.8630532462
 20
-16.9262471221
 30
0.0
 11
48.8630532462
 21
16.9262471221
 31
0.0
  0
LINE
  5
195
330
1F
100
AcDbEntity
  8
0
  6
Continuous
 62
     7
370
    25
100
AcDbLine
 10
57.6115723606
 20
-19.5355967259
 30
0.0
 11
57.6115723606
 21
-33.8750410291
 31
0.0
  0
LINE
  5
196
330
1F
100
AcDbEntity
  8
0
  6
Continuous
 62
     7
370
    25
100
AcDbLine
 10
57.6115723606
 20
33.8750410291
 30
0.0
 11
57.6115723606
 21
19.5355967259
 31
0.0
  0
LINE
  5
197
330
1F
100
AcDbEntity
  8
0
  6
Continuous
 62
     7
370
    25
100
AcDbLine
 10
55.8334721211
 20
37.0979256466
 30
0.0
 11
57.6115723606
 21
33.8750410291
 31
0.0
  0
LINE
  5
198
330
1F
100
AcDbEntity
  8
0
  6
Continuous
 62
     7
370
    25
100
AcDbLine
 10
55.8334721211
 20
-21.1470390347
 30
0.0
 11
57.6115723606
 21
-19.5355967259
 31
0.0
  0
LINE
  5
199
330
1F
100
AcDbEntity
  8
0
  6
Continuous
 62
     7
370
    25
100
AcDbLine
 10
18.9290317264
 20
-39.0486466668
 30
0.0
 11
48.8630532462
 21
-39.0486466668
 31
0.0
  0
LINE
  5
19A
330
1F
100
AcDbEntity
  8
0
  6
Continuous
 62
     7
370
    25
100
AcDbLine
 10
18.9290317264
 20
39.0486466668
 30
0.0
 11
48.8630532462
 21
39.0486466668
 31
0.0
  0
LINE
  5
19B
330
1F
100
AcDbEntity
  8
0
  6
Continuous
 62
     7
370
    25
100
AcDbLine
 10
121.4290317264
 20
-31.5
 30
0.0
 11
121.4290317264
 21
31.5
 31
0.0
  0
LINE
  5
19C
330
1F
100
AcDbEntity
  8
0
  6
Continuous
 62
     7
370
    25
100
AcDbLine
 10
2.9290317264
 20
-29.7874406735
 30
0.0
 11
-6.0709682736
 21
-29.7874406735
 31
0.0
  0
LINE
  5
19D
330
1F
100
AcDbEntity
  8
0
  6
Continuous
 62
     7
370
    25
100
AcDbLine
 10
2.9290317264
 20
-29.7874406735
 30
0.0
 11
2.9290317264
 21
-16.1413749427
 31
0.0
  0
LINE
  5
19E
330
1F
100
AcDbEntity
  8
0
  6
Continuous
 62
     7
370
    25
100
AcDbLine
 10
2.9290317264
 20
-16.1413749427
 30
0.0
 11
-6.0709682736
 21
-16.1413749427
 31
0.0
  0
LINE
  5
19F
330
1F
100
AcDbEntity
  8
0
  6
Continuous
 62
     7
370
    25
100
AcDbLine
 10
2.9290317264
 20
-7.4585818987
 30
0.0
 11
-6.0709682736
 21
-7.4585818987
 31
0.0
  0
LINE
  5
1A0
330
1F
100
AcDbEntity
  8
0
  6
Continuous
 62
     7
370
    25
100
AcDbLine
 10
2.9290317264
 20
-7.4585818987
 30
0.0
 11
2.9290317264
 21
14.849653085
 31
0.0
  0
LINE
  5
1A1
330
1F
100
AcDbEntity
  8
0
  6
Continuous
 62
     7
370
    25
100
AcDbLine
 10
2.9290317264
 20
14.849653085
 30
0.0
 11
-6.0709682736
 21
14.849653085
 31
0.0
  0
LINE
  5
1A2
330
1F
100
AcDbEntity
  8
0
  6
Continuous
 62
     7
370
    25
100
AcDbLine
 10
-6.0709682736
 20
25.8412682166
 30
0.0
 11
-6.0709682736
 21
-31.0
 31
0.0
  0
LINE
  5
1A3
330
1F
100
AcDbEntity
  8
0
  6
Continuous
 62
     7
370
    25
100
AcDbLine
 10
2.9290317264
 20
22.3288587748
 30
0.0
 11
-6.0709682736
 21
22.3288587748
 31
0.0
  0
LINE
  5
1A4
330
1F
100
AcDbEntity
  8
0
  6
Continuous
 62
     7
370
    25
100
AcDbLine
 10
2.9290317264
 20
22.3288587748
 30
0.0
 11
2.9290317264
 21
30.9910280277
 31
0.0
  0
LINE
  5
1A5
330
1F
100
AcDbEntity
  8
0
  6
Continuous
 62
     7
370
    25
100
AcDbLine
 10
2.9290317264
 20
30.9910280277
 30
0.0
 11
-6.0709682736
 21
30.9910280277
 31
0.0
  0
LINE
  5
1A6
330
1F
100
AcDbEntity
  8
0
  6
Continuous
 62
     7
370
    25
100
AcDbLine
 10
-6.0709682736
 20
31.0
 30
0.0
 11
-6.0709682736
 21
27.8777844845
 31
0.0
  0
LINE
  5
1A7
330
1F
100
AcDbEntity
  8
0
  6
Continuous
 62
     7
370
    25
100
AcDbLine
 10
-28.485637191
 20
29.8
 30
0.0
 11
-29.0381998063
 21
28.3
 31
0.0
  0
LINE
  5
1A8
330
1F
100
AcDbEntity
  8
0
  6
Continuous
 62
     7
370
    25
100
AcDbLine
 10
-27.7881998063
 20
28.3
 30
0.0
 11
-28.485637191
 21
29.8
 31
0.0
  0
LINE
  5
1A9
330
1F
100
AcDbEntity
  8
0
  6
Continuous
 62
     7
370
    25
100
AcDbLine
 10
-28.5709682736
 20
-28.3
 30
0.0
 11
-28.5709682736
 21
28.3
 31
0.0
  0
LINE
  5
1AA
330
1F
100
AcDbEntity
  8
0
  6
Continuous
 62
     7
370
    25
100
AcDbLine
 10
-28.485637191
 20
28.300000404
 30
0.0
 11
-28.485637191
 21
29.8
 31
0.0
  0
LINE
  5
1AB
330
1F
100
AcDbEntity
  8
0
  6
Continuous
 62
     8
370
    25
100
AcDbLine
 10
40.0861377152
 20
-46.5
 30
0.0
 11
40.0861377152
 21
-46.4031248948
 31
0.0
  0
LINE
  5
1AC
330
1F
100
AcDbEntity
  8
0
  6
Continuous
 62
     8
370
    25
100
AcDbLine
 10
40.0861377152
 20
46.4031248948
 30
0.0
 11
40.0861377152
 21
46.5
 31
0.0
  0
LINE
  5
1AD
330
1F
100
AcDbEntity
  8
0
  6
Continuous
 62
     8
370
    25
100
AcDbLine
 10
7.9290317264
 20
-44.0
 30
0.0
 11
7.9290317264
 21
44.0
 31
0.0
  0
LINE
  5
1AE
330
1F
100
AcDbEntity
  8
0
  6
Continuous
 62
     8
370
    25
100
AcDbLine
 10
58.4290317264
 20
-32.5312190484
 30
0.0
 11
58.4290317264
 21
32.5312190484
 31
0.0
  0
LINE
  5
1AF
330
1F
100
AcDbEntity
  8
0
  6
Continuous
 62
     8
370
    25
100
AcDbLine
 10
55.8334721211
 20
-37.2190285645
 30
0.0
 11
55.8334721211
 21
-37.0979256466
 31
0.0
  0
LINE
  5
1B0
330
1F
100
AcDbEntity
  8
0
  6
Continuous
 62
     8
370
    25
100
AcDbLine
 10
55.8334721211
 20
37.0979256466
 30
0.0
 11
55.8334721211
 21
37.2190285645
 31
0.0
  0
LINE
  5
1B1
330
1F
100
AcDbEntity
  8
0
  6
Continuous
 62
     8
370
    25
100
AcDbLine
 10
48.8630532462
 20
24.6542746881
 30
0.0
 11
48.8630532462
 21
39.0486466668
 31
0.0
  0
LINE
  5
1B2
330
1F
100
AcDbEntity
  8
0
  6
Continuous
 62
     8
370
    25
100
AcDbLine
 10
48.8630532462
 20
-39.0486466668
 30
0.0
 11
48.8630532462
 21
-24.6701361111
 31
0.0
  0
LINE
  5
1B3
330
1F
100
AcDbEntity
  8
0
  6
Continuous
 62
     8
370
    25
100
AcDbLine
 10
60.1787355493
 20
-31.5
 30
0.0
 11
60.1787355493
 21
31.5
 31
0.0
  0
ARC
  5
1B4
330
1F
100
AcDbEntity
  8
0
  6
Continuous
 62
     7
370
    25
100
AcDbCircle
 10
7.9290317264
 20
-42.0
 30
0.0
 40
2.000000000000001
100
AcDbArc
 50
180.0
 51
270.0
  0
ARC
  5
1B5
330
1F
100
AcDbEntity
  8
0
  6
Continuous
 62
     7
370
    25
100
AcDbCircle
 10
7.9290317264
 20
42.0
 30
0.0
 40
2.0
100
AcDbArc
 50
90.0
 51
180.0
  0
ARC
  5
1B6
330
1F
100
AcDbEntity
  8
0
  6
Continuous
 62
     7
370
    25
100
AcDbCircle
 10
60.1787355493
 20
-33.5
 30
0.0
 40
2.0
100
AcDbArc
 50
90.0
 51
151.0274542403
  0
ARC
  5
1B7
330
1F
100
AcDbEntity
  8
0
  6
Continuous
 62
     7
370
    25
100
AcDbCircle
 10
60.1787355493
 20
33.5
 30
0.0
 40
1.999999999999986
100
AcDbArc
 50
208.9725457597
 51
270.0
  0
ARC
  5
1B8
330
1F
100
AcDbEntity
  8
0
  6
Continuous
 62
     7
370
    25
100
AcDbCircle
 10
40.0861377152
 20
28.5
 30
0.0
 40
17.99999999999994
100
AcDbArc
 50
28.9725457597
 51
90.0
  0
ARC
  5
1B9
330
1F
100
AcDbEntity
  8
0
  6
Continuous
 62
     7
370
    25
100
AcDbCircle
 10
40.0861377152
 20
-28.5
 30
0.0
 40
17.99999999999999
100
AcDbArc
 50
270.0
 51
331.0274542403
  0
SPLINE
  5
1BB
330
1B
100
AcDbEntity
 67
     1
  8
0
  6
Continuous
 62
     7
370
    25
100
AcDbSpline
210
0.0
220
0.0
230
1.0
 70
     8
 71
     3
 72
    30
 73
    26
 74
     0
 42
0.000000001
 43
0.00000001
 40
0.0
 40
0.0
 40
0.0
 40
0.0
 40
0.1249999999999999
 40
0.1249999999999999
 40
0.2499999999999999
 40
0.2499999999999999
 40
0.3749999999999998
 40
0.3749999999999998
 40
0.4062499999999998
 40
0.4062499999999998
 40
0.4374999999999998
 40
0.4374999999999998
 40
0.4999999999999999
 40
0.4999999999999999
 40
0.625
 40
0.625
 40
0.7500000000000001
 40
0.7500000000000001
 40
0.7812500000000001
 40
0.7812500000000001
 40
0.8125000000000001
 40
0.8125000000000001
 40
0.8750000000000001
 40
0.8750000000000001
 40
1.0
 40
1.0
 40
1.0
 40
1.0
 10
-0.0000076224048557
 20
28.29999999999897
 30
0.0
 10
-2.284643579405375
 20
28.29999938464844
 30
0.0
 10
-4.625801389430771
 20
28.01915493449797
 30
0.0
 10
-9.20737729771734
 20
26.86438692833584
 30
0.0
 10
-11.44552081954829
 20
25.99037193351059
 30
0.0
 10
-15.60629442613298
 20
23.72641891136923
 30
0.0
 10
-17.52717985901885
 20
22.33796918265544
 30
0.0
 10
-19.63910755354112
 20
20.38446739097991
 30
0.0
 10
-20.04572214866536
 20
19.9846942708836
 30
0.0
 10
-20.83900594935448
 20
19.15606464295183
 30
0.0
 10
-21.22530920548718
 20
18.72731203337549
 30
0.0
 10
-22.34881676447853
 20
17.40012231806314
 30
0.0
 10
-23.05049947346198
 20
16.46057364019943
 30
0.0
 10
-24.98178062318289
 20
13.50350617644025
 30
0.0
 10
-26.03440703770661
 20
11.34585314005434
 30
0.0
 10
-27.56007066345594
 20
6.852827030210475
 30
0.0
 10
-28.03265298462986
 20
4.519713348217283
 30
0.0
 10
-28.2588059918916
 20
1.632589674199423
 30
0.0
 10
-28.28607440966089
 20
1.056594897032931
 30
0.0
 10
-28.30566044658306
 20
-0.0893586484447617
 30
0.0
 10
-28.29816052588248
 20
-0.6600925403327123
 30
0.0
 10
-28.22274560178087
 20
-2.38601675158101
 30
0.0
 10
-28.10142693112048
 20
-3.546045088813349
 30
0.0
 10
-27.51700229658364
 20
-7.014492851077256
 30
0.0
 10
-26.82987320369531
 20
-9.310580256055475
 30
0.0
 10
-25.86649687075678
 20
-11.48104261968962
 30
0.0
  0
SPLINE
  5
1BC
330
1B
100
AcDbEntity
 67
     1
  8
0
  6
Continuous
 62
     7
370
    25
100
AcDbSpline
210
0.0
220
0.0
230
1.0
 70
    11
 71
     3
 72
    70
 73
    66
 74
     0
 42
0.000000001
 43
0.00000001
 40
0.0
 40
0.0
 40
0.0
 40
0.0
 40
0.03125
 40
0.03125
 40
0.0625000000000001
 40
0.0625000000000001
 40
0.0937500000000001
 40
0.0937500000000001
 40
0.1250000000000001
 40
0.1250000000000001
 40
0.1562500000000001
 40
0.1562500000000001
 40
0.1875000000000001
 40
0.1875000000000001
 40
0.2187500000000002
 40
0.2187500000000002
 40
0.2500000000000002
 40
0.2500000000000002
 40
0.2812500000000002
 40
0.2812500000000002
 40
0.3125000000000003
 40
0.3125000000000003
 40
0.3437500000000003
 40
0.3437500000000003
 40
0.3750000000000003
 40
0.3750000000000003
 40
0.4062500000000003
 40
0.4062500000000003
 40
0.4375000000000004
 40
0.4375000000000004
 40
0.4687500000000004
 40
0.4687500000000004
 40
0.5000000000000004
 40
0.5000000000000004
 40
0.5312500000000004
 40
0.5312500000000004
 40
0.5625000000000004
 40
0.5625000000000004
 40
0.5937500000000006
 40
0.5937500000000006
 40
0.6250000000000006
 40
0.6250000000000006
 40
0.6562500000000006
 40
0.6562500000000006
 40
0.6875000000000007
 40
0.6875000000000007
 40
0.7187500000000007
 40
0.7187500000000007
 40
0.7500000000000007
 40
0.7500000000000007
 40
0.7812500000000006
 40
0.7812500000000006
 40
0.8125000000000004
 40
0.8125000000000004
 40
0.8437500000000004
 40
0.8437500000000004
 40
0.8750000000000003
 40
0.8750000000000003
 40
0.9062500000000002
 40
0.9062500000000002
 40
0.9375000000000001
 40
0.9375000000000001
 40
0.9687500000000001
 40
0.9687500000000001
 40
1.0
 40
1.0
 40
1.0
 40
1.0
 10
-0.0000080264192473
 20
29.79999999999892
 30
0.0
 10
-1.900669073832458
 20
29.79999948806932
 30
0.0
 10
-3.838198004802719
 20
29.61648472267708
 30
0.0
 10
-7.677481870044867
 20
28.86042625097157
 30
0.0
 10
-9.578514658060095
 20
28.28773746598674
 30
0.0
 10
-13.22943274178735
 20
26.77547652852861
 30
0.0
 10
-14.97861753484548
 20
25.83619453397609
 30
0.0
 10
-18.22801408874781
 20
23.6560231998755
 30
0.0
 10
-19.72781780151972
 20
22.41574708117479
 30
0.0
 10
-22.41575770826794
 20
19.72780572647098
 30
0.0
 10
-23.65603301904543
 20
18.22800134558007
 30
0.0
 10
-25.83620260274174
 20
14.97860361725074
 30
0.0
 10
-26.77548365503303
 20
13.22941831821495
 30
0.0
 10
-28.28774262579299
 20
9.578499419854648
 30
0.0
 10
-28.86043038671827
 20
7.677466323340349
 30
0.0
 10
-29.61648679025576
 20
3.838182050820752
 30
0.0
 10
-29.80000051192853
 20
1.900653020993964
 30
0.0
 10
-29.79999948806931
 20
-1.900669073832461
 30
0.0
 10
-29.61648472267708
 20
-3.838198004802713
 30
0.0
 10
-28.86042625097157
 20
-7.677481870044868
 30
0.0
 10
-28.28773746598675
 20
-9.578514658060092
 30
0.0
 10
-26.77547652852862
 20
-13.22943274178735
 30
0.0
 10
-25.83619453397609
 20
-14.97861753484547
 30
0.0
 10
-23.6560231998755
 20
-18.22801408874781
 30
0.0
 10
-22.41574708117478
 20
-19.72781780151972
 30
0.0
 10
-19.72780572647097
 20
-22.41575770826794
 30
0.0
 10
-18.22800134558007
 20
-23.65603301904543
 30
0.0
 10
-14.97860361725075
 20
-25.83620260274175
 30
0.0
 10
-13.22941831821496
 20
-26.77548365503303
 30
0.0
 10
-9.57849941985465
 20
-28.28774262579299
 30
0.0
 10
-7.677466323340356
 20
-28.86043038671827
 30
0.0
 10
-3.838182050820755
 20
-29.61648679025576
 30
0.0
 10
-1.900653020993966
 20
-29.80000051192853
 30
0.0
 10
1.900669073832454
 20
-29.79999948806931
 30
0.0
 10
3.838198004802716
 20
-29.61648472267708
 30
0.0
 10
7.677481870044862
 20
-28.86042625097158
 30
0.0
 10
9.578514658060094
 20
-28.28773746598674
 30
0.0
 10
13.22943274178735
 20
-26.77547652852861
 30
0.0
 10
14.97861753484546
 20
-25.8361945339761
 30
0.0
 10
18.22801408874781
 20
-23.65602319987549
 30
0.0
 10
19.72781780151972
 20
-22.41574708117479
 30
0.0
 10
22.41575770826794
 20
-19.72780572647097
 30
0.0
 10
23.65603301904543
 20
-18.22800134558007
 30
0.0
 10
25.83620260274174
 20
-14.97860361725075
 30
0.0
 10
26.77548365503302
 20
-13.22941831821496
 30
0.0
 10
28.28774262579299
 20
-9.578499419854658
 30
0.0
 10
28.86043038671827
 20
-7.677466323340358
 30
0.0
 10
29.61648679025576
 20
-3.838182050820761
 30
0.0
 10
29.80000051192853
 20
-1.900653020993971
 30
0.0
 10
29.79999948806931
 20
1.900669073832448
 30
0.0
 10
29.61648472267708
 20
3.838198004802726
 30
0.0
 10
28.86042625097157
 20
7.67748187004486
 30
0.0
 10
28.28773746598674
 20
9.578514658060104
 30
0.0
 10
26.77547652852862
 20
13.22943274178735
 30
0.0
 10
25.83619453397609
 20
14.97861753484547
 30
0.0
 10
23.65602319987549
 20
18.22801408874781
 30
0.0
 10
22.41574708117478
 20
19.72781780151973
 30
0.0
 10
19.72780572647098
 20
22.41575770826794
 30
0.0
 10
18.22800134558008
 20
23.65603301904543
 30
0.0
 10
14.97860361725076
 20
25.83620260274175
 30
0.0
 10
13.22941831821496
 20
26.77548365503304
 30
0.0
 10
9.57849941985466
 20
28.287742625793
 30
0.0
 10
7.677466323340355
 20
28.86043038671827
 30
0.0
 10
3.838182050820766
 20
29.61648679025576
 30
0.0
 10
1.900653020993957
 20
29.80000051192853
 30
0.0
 10
-0.0000080264192878
 20
29.79999999999892
 30
0.0
  0
CIRCLE
  5
1BF
330
1B
100
AcDbEntity
 67
     1
  8
0
  6
Continuous
 62
     7
370
    25
100
AcDbCircle
 10
0.0
 20
0.0
 30
0.0
 40
25.49999999999998
  0
CIRCLE
  5
1D9
330
1B
100
AcDbEntity
 67
     1
  8
0
  6
Continuous
 62
     7
370
    25
100
AcDbCircle
 10
0.0
 20
0.0
 30
0.0
 40
41.99999999999998
  0
CIRCLE
  5
1DA
330
1B
100
AcDbEntity
 67
     1
  8
0
  6
Continuous
 62
     7
370
    25
100
AcDbCircle
 10
0.0
 20
0.0
 30
0.0
 40
44.00000000000002
  0
CIRCLE
  5
1DB
330
1B
100
AcDbEntity
 67
     1
  8
0
  6
Continuous
 62
     7
370
    25
100
AcDbCircle
 10
0.0
 20
0.0
 30
0.0
 40
46.49999999999995
  0
LINE
  5
1DC
330
1B
100
AcDbEntity
 67
     1
  8
0
  6
Continuous
 62
     7
370
    25
100
AcDbLine
 10
-0.0000080264
 20
29.8
 30
0.0
 11
-0.0000076224
 21
28.3
 31
0.0
  0
LINE
  5
1DD
330
1B
100
AcDbEntity
 67
     1
  8
0
  6
Continuous
 62
     7
370
    25
100
AcDbLine
 10
1.4999923776
 20
28.300000404
 30
0.0
 11
-0.0000076224
 21
28.3
 31
0.0
  0
LINE
  5
1DE
330
1B
100
AcDbEntity
 67
     1
  8
0
  6
Continuous
 62
     7
370
    25
100
AcDbLine
 10
17.7300260524
 20
23.9036952945
 30
0.0
 11
21.5040011583
 21
22.3288587748
 31
0.0
  0
LINE
  5
1DF
330
1B
100
AcDbEntity
 67
     1
  8
0
  6
Continuous
 62
     7
370
    25
100
AcDbLine
 10
27.2119055425
 20
14.849653085
 30
0.0
 11
27.7349513508
 21
10.7945999345
 31
0.0
  0
LINE
  5
1E0
330
1B
100
AcDbEntity
 67
     1
  8
0
  6
Continuous
 62
     7
370
    25
100
AcDbLine
 10
29.5780423853
 20
-3.4944584752
 30
0.0
 11
30.0893595156
 21
-7.4585818987
 31
0.0
  0
LINE
  5
1E1
330
1B
100
AcDbEntity
 67
     1
  8
0
  6
Continuous
 62
     7
370
    25
100
AcDbLine
 10
26.4661295803
 20
-16.1413749427
 30
0.0
 11
23.337375494
 21
-18.5291457712
 31
0.0
  0
LINE
  5
1E2
330
1B
100
AcDbEntity
 67
     1
  8
0
  6
Continuous
 62
     7
370
    25
100
AcDbLine
 10
11.8576200743
 20
-27.2901491461
 30
0.0
 11
8.5853583574
 21
-29.7874406735
 31
0.0
  0
LINE
  5
1E3
330
1B
100
AcDbEntity
 67
     1
  8
0
  6
Continuous
 62
     7
370
    25
100
AcDbLine
 10
-0.7457759623
 20
-30.9910280277
 30
0.0
 11
-4.5449633213
 21
-29.4056707239
 31
0.0
  0
LINE
  5
1E4
330
1B
100
AcDbEntity
 67
     1
  8
0
  6
Continuous
 62
     7
370
    25
100
AcDbLine
 10
-17.7232332993
 20
-23.9065298325
 30
0.0
 11
-21.5040011583
 21
-22.3288587748
 31
0.0
  0
LINE
  5
1E5
330
1B
100
AcDbEntity
 67
     1
  8
0
  6
Continuous
 62
     7
370
    25
100
AcDbLine
 10
-27.2119055425
 20
-14.849653085
 30
0.0
 11
-27.7358268806
 21
-10.787812155
 31
0.0
  0
LINE
  5
1E6
330
1B
100
AcDbEntity
 67
     1
  8
0
  6
Continuous
 62
     7
370
    25
100
AcDbLine
 10
0.7457759623
 20
30.9910280277
 30
0.0
 11
4.5476577069
 21
29.4045463877
 31
0.0
  0
LINE
  5
1E7
330
1B
100
AcDbEntity
 67
     1
  8
0
  6
Continuous
 62
     7
370
    25
100
AcDbLine
 10
-11.8540306392
 20
27.2928884948
 30
0.0
 11
-8.5853583574
 21
29.7874406735
 31
0.0
  0
LINE
  5
1E8
330
1B
100
AcDbEntity
 67
     1
  8
0
  6
Continuous
 62
     7
370
    25
100
AcDbLine
 10
-26.4661295803
 20
16.1413749427
 30
0.0
 11
-23.3268288469
 21
18.5371946544
 31
0.0
  0
LINE
  5
1E9
330
1B
100
AcDbEntity
 67
     1
  8
0
  6
Continuous
 62
     7
370
    25
100
AcDbLine
 10
-29.5795341567
 20
3.5060238335
 30
0.0
 11
-30.0893595156
 21
7.4585818987
 31
0.0
  0
ARC
  5
1EA
330
1B
100
AcDbEntity
 67
     1
  8
0
  6
Continuous
 62
     7
370
    25
100
AcDbCircle
 10
-0.0000076224
 20
28.3
 30
0.0
 40
1.499999999999994
100
AcDbArc
 50
0.0000154322
 51
90.0000154322
  0
ARC
  5
1EB
330
1B
100
AcDbEntity
 67
     1
  8
0
  6
Continuous
 62
     7
370
    25
100
AcDbCircle
 10
0.0
 20
0.0
 30
0.0
 40
28.30000000000003
100
AcDbArc
 50
203.9344079167
 51
90.0000154322
  0
ARC
  5
1EC
330
1B
100
AcDbEntity
 67
     1
  8
0
  6
Continuous
 62
     7
370
    25
100
AcDbCircle
 10
0.0
 20
0.0
 30
0.0
 40
31.00000000000012
100
AcDbArc
 50
148.621485876
 51
106.0780789255
  0
VIEWPORT
  5
1ED
330
1B
100
AcDbEntity
 67
     1
  8
0
100
AcDbViewport
 10
0.0
 20
0.0
 30
0.0
 40
205.6
 41
156.0
 68
     1
 69
     1
 12
46.19541596
 22
0.0
 13
0.0
 23
0.0
 14
10.0
 24
10.0
 15
10.0
 25
10.0
 16
0.0
 26
0.0
 36
1.0
 17
0.0
 27
0.0
 37
0.0
 42
50.0
 43
0.0
 44
0.0
 45
116.4510986454
 50
0.0
 51
0.0
 72
   100
 90
   557152
  1

281
     0
 71
     1
 74
     0
110
0.0
120
0.0
130
0.0
111
1.0
121
0.0
131
0.0
112
0.0
122
1.0
132
0.0
 79
     0
146
0.0
  0
ENDSEC
  0
SECTION
  2
OBJECTS
  0
DICTIONARY
  5
C
330
0
100
AcDbDictionary
281
     1
  3
ACAD_GROUP
350
D
  3
ACAD_LAYOUT
350
1A
  3
ACAD_MLINESTYLE
350
17
  3
ACAD_PLOTSETTINGS
350
19
  3
ACAD_PLOTSTYLENAME
350
E
  3
ACAD_SCALELIST
350
47
  0
DICTIONARY
  5
D
102
{ACAD_REACTORS
330
C
102
}
330
C
100
AcDbDictionary
281
     1
  0
DICTIONARY
  5
1A
102
{ACAD_REACTORS
330
C
102
}
330
C
100
AcDbDictionary
281
     1
  3
_Left
350
1E
  3
Layout2
350
26
  3
Model
350
22
  0
DICTIONARY
  5
17
102
{ACAD_REACTORS
330
C
102
}
330
C
100
AcDbDictionary
281
     1
  3
Standard
350
18
  0
DICTIONARY
  5
19
102
{ACAD_REACTORS
330
C
102
}
330
C
100
AcDbDictionary
281
     1
  0
ACDBDICTIONARYWDFLT
  5
E
102
{ACAD_REACTORS
330
C
102
}
330
C
100
AcDbDictionary
281
     1
  3
Normal
350
F
100
AcDbDictionaryWithDefault
340
F
  0
DICTIONARY
  5
47
102
{ACAD_REACTORS
330
C
102
}
330
C
100
AcDbDictionary
281
     1
  3
A0
350
48
  3
A1
350
49
  3
A2
350
4A
  3
A3
350
4B
  3
A4
350
4C
  3
A5
350
4D
  3
A6
350
4E
  3
A7
350
4F
  3
A8
350
50
  3
A9
350
51
  3
B0
350
52
  3
B1
350
53
  3
B2
350
54
  3
B3
350
55
  3
B4
350
56
  3
B5
350
57
  3
B6
350
58
  3
B7
350
59
  3
B8
350
5A
  3
B9
350
5B
  3
C0
350
5C
  3
C1
350
5D
  3
C2
350
5E
  3
C3
350
5F
  3
C4
350
60
  3
C5
350
61
  3
C6
350
62
  3
C7
350
63
  3
C8
350
64
  3
C9
350
65
  3
D0
350
66
  3
D1
350
67
  3
D2
350
68
  0
LAYOUT
  5
1E
102
{ACAD_REACTORS
330
1A
102
}
330
1A
100
AcDbPlotSettings
  1

  2
none_device
  4
ISO_A4_(210.00_x_297.00_MM)
  6

 40
7.5
 41
20.0
 42
7.5
 43
20.0
 44
210.0
 45
297.0
 46
0.0
 47
0.0
 48
0.0
 49
0.0
140
0.0
141
0.0
142
1.0
143
0.4769230769
 70
   688
 72
     1
 73
     1
 74
     1
  7

 75
     0
147
2.0967741935
148
46.5
149
46.5
100
AcDbLayout
  1
_Left
 70
     1
 71
     1
 10
-56.0384615385
 20
-50.0769230769
 11
85.6076923077
 21
50.0769230769
 12
0.0
 22
0.0
 32
0.0
 14
-46.5
 24
-46.5
 34
0.0
 15
46.5
 25
46.5
 35
0.0
146
0.0
 13
0.0
 23
0.0
 33
0.0
 16
1.0
 26
0.0
 36
0.0
 17
0.0
 27
1.0
 37
0.0
 76
     0
330
1B
331
1ED
  0
LAYOUT
  5
26
102
{ACAD_REACTORS
330
1A
102
}
330
1A
100
AcDbPlotSettings
  1

  2
none_device
  4

  6

 40
0.0
 41
0.0
 42
0.0
 43
0.0
 44
0.0
 45
0.0
 46
0.0
 47
0.0
 48
0.0
 49
0.0
140
0.0
141
0.0
142
1.0
143
1.0
 70
   688
 72
     1
 73
     0
 74
     5
  7

 75
    16
147
1.0
148
0.0
149
0.0
100
AcDbLayout
  1
Layout2
 70
     1
 71
     2
 10
0.0
 20
0.0
 11
0.0
 21
0.0
 12
0.0
 22
0.0
 32
0.0
 14
0.0
 24
0.0
 34
0.0
 15
0.0
 25
0.0
 35
0.0
146
0.0
 13
0.0
 23
0.0
 33
0.0
 16
1.0
 26
0.0
 36
0.0
 17
0.0
 27
1.0
 37
0.0
 76
     0
330
23
  0
LAYOUT
  5
22
102
{ACAD_REACTORS
330
1A
102
}
330
1A
100
AcDbPlotSettings
  1

  2
none_device
  4
ANSI_A_(11.00_x_8.50_Inches)
  6

 40
6.35
 41
19.05
 42
6.35000508
 43
19.05000254
 44
279.4
 45
215.9
 46
48.4283231733
 47
88.89999873
 48
0.0
 49
0.0
140
0.0
141
0.0
142
0.0723745621
143
1.0
 70
  1696
 72
     0
 73
     0
 74
     0
  7

 75
     0
147
0.0179189148
148
-1300.4909072572
149
0.0
100
AcDbLayout
  1
Model
 70
     1
 71
     0
 10
0.0
 20
0.0
 11
420.0
 21
297.0
 12
0.0
 22
0.0
 32
0.0
 14
-29.0381998063
 24
-46.5
 34
0.0
 15
121.4290317264
 25
46.5
 35
0.0
146
0.0
 13
0.0
 23
0.0
 33
0.0
 16
1.0
 26
0.0
 36
0.0
 17
0.0
 27
1.0
 37
0.0
 76
     0
330
1F
331
29
  0
MLINESTYLE
  5
18
102
{ACAD_REACTORS
330
17
102
}
330
17
100
AcDbMlineStyle
  2
Standard
 70
     0
  3

 62
   256
 51
90.0
 52
90.0
 71
     2
 49
0.5
 62
   256
  6
BYLAYER
 49
-0.5
 62
   256
  6
BYLAYER
  0
ACDBPLACEHOLDER
  5
F
102
{ACAD_REACTORS
330
E
102
}
330
E
  0
SCALE
  5
48
102
{ACAD_REACTORS
330
47
102
}
330
47
100
AcDbScale
 70
     0
300
1:1
140
1.0
141
1.0
290
     1
  0
SCALE
  5
49
102
{ACAD_REACTORS
330
47
102
}
330
47
100
AcDbScale
 70
     0
300
1:2
140
1.0
141
2.0
290
     0
  0
SCALE
  5
4A
102
{ACAD_REACTORS
330
47
102
}
330
47
100
AcDbScale
 70
     0
300
1:4
140
1.0
141
4.0
290
     0
  0
SCALE
  5
4B
102
{ACAD_REACTORS
330
47
102
}
330
47
100
AcDbScale
 70
     0
300
1:5
140
1.0
141
5.0
290
     0
  0
SCALE
  5
4C
102
{ACAD_REACTORS
330
47
102
}
330
47
100
AcDbScale
 70
     0
300
1:8
140
1.0
141
8.0
290
     0
  0
SCALE
  5
4D
102
{ACAD_REACTORS
330
47
102
}
330
47
100
AcDbScale
 70
     0
300
1:10
140
1.0
141
10.0
290
     0
  0
SCALE
  5
4E
102
{ACAD_REACTORS
330
47
102
}
330
47
100
AcDbScale
 70
     0
300
1:16
140
1.0
141
16.0
290
     0
  0
SCALE
  5
4F
102
{ACAD_REACTORS
330
47
102
}
330
47
100
AcDbScale
 70
     0
300
1:20
140
1.0
141
20.0
290
     0
  0
SCALE
  5
50
102
{ACAD_REACTORS
330
47
102
}
330
47
100
AcDbScale
 70
     0
300
1:30
140
1.0
141
30.0
290
     0
  0
SCALE
  5
51
102
{ACAD_REACTORS
330
47
102
}
330
47
100
AcDbScale
 70
     0
300
1:40
140
1.0
141
40.0
290
     0
  0
SCALE
  5
52
102
{ACAD_REACTORS
330
47
102
}
330
47
100
AcDbScale
 70
     0
300
1:50
140
1.0
141
50.0
290
     0
  0
SCALE
  5
53
102
{ACAD_REACTORS
330
47
102
}
330
47
100
AcDbScale
 70
     0
300
1:100
140
1.0
141
100.0
290
     0
  0
SCALE
  5
54
102
{ACAD_REACTORS
330
47
102
}
330
47
100
AcDbScale
 70
     0
300
2:1
140
2.0
141
1.0
290
     0
  0
SCALE
  5
55
102
{ACAD_REACTORS
330
47
102
}
330
47
100
AcDbScale
 70
     0
300
4:1
140
4.0
141
1.0
290
     0
  0
SCALE
  5
56
102
{ACAD_REACTORS
330
47
102
}
330
47
100
AcDbScale
 70
     0
300
8:1
140
8.0
141
1.0
290
     0
  0
SCALE
  5
57
102
{ACAD_REACTORS
330
47
102
}
330
47
100
AcDbScale
 70
     0
300
10:1
140
10.0
141
1.0
290
     0
  0
SCALE
  5
58
102
{ACAD_REACTORS
330
47
102
}
330
47
100
AcDbScale
 70
     0
300
100:1
140
100.0
141
1.0
290
     0
  0
SCALE
  5
59
102
{ACAD_REACTORS
330
47
102
}
330
47
100
AcDbScale
 70
     0
300
1/128" = 1'-0"
140
0.0078125
141
12.0
290
     0
  0
SCALE
  5
5A
102
{ACAD_REACTORS
330
47
102
}
330
47
100
AcDbScale
 70
     0
300
1/64" = 1'-0"
140
0.015625
141
12.0
290
     0
  0
SCALE
  5
5B
102
{ACAD_REACTORS
330
47
102
}
330
47
100
AcDbScale
 70
     0
300
1/32" = 1'-0"
140
0.03125
141
12.0
290
     0
  0
SCALE
  5
5C
102
{ACAD_REACTORS
330
47
102
}
330
47
100
AcDbScale
 70
     0
300
1/16" = 1'-0"
140
0.0625
141
12.0
290
     0
  0
SCALE
  5
5D
102
{ACAD_REACTORS
330
47
102
}
330
47
100
AcDbScale
 70
     0
300
3/32" = 1'-0"
140
0.09375
141
12.0
290
     0
  0
SCALE
  5
5E
102
{ACAD_REACTORS
330
47
102
}
330
47
100
AcDbScale
 70
     0
300
1/8" = 1'-0"
140
0.125
141
12.0
290
     0
  0
SCALE
  5
5F
102
{ACAD_REACTORS
330
47
102
}
330
47
100
AcDbScale
 70
     0
300
3/16" = 1'-0"
140
0.1875
141
12.0
290
     0
  0
SCALE
  5
60
102
{ACAD_REACTORS
330
47
102
}
330
47
100
AcDbScale
 70
     0
300
1/4" = 1'-0"
140
0.25
141
12.0
290
     0
  0
SCALE
  5
61
102
{ACAD_REACTORS
330
47
102
}
330
47
100
AcDbScale
 70
     0
300
3/8" = 1'-0"
140
0.375
141
12.0
290
     0
  0
SCALE
  5
62
102
{ACAD_REACTORS
330
47
102
}
330
47
100
AcDbScale
 70
     0
300
1/2" = 1'-0"
140
0.5
141
12.0
290
     0
  0
SCALE
  5
63
102
{ACAD_REACTORS
330
47
102
}
330
47
100
AcDbScale
 70
     0
300
3/4" = 1'-0"
140
0.75
141
12.0
290
     0
  0
SCALE
  5
64
102
{ACAD_REACTORS
330
47
102
}
330
47
100
AcDbScale
 70
     0
300
1" = 1'-0"
140
1.0
141
12.0
290
     0
  0
SCALE
  5
65
102
{ACAD_REACTORS
330
47
102
}
330
47
100
AcDbScale
 70
     0
300
1-1/2" = 1'-0"
140
1.5
141
12.0
290
     0
  0
SCALE
  5
66
102
{ACAD_REACTORS
330
47
102
}
330
47
100
AcDbScale
 70
     0
300
3" = 1'-0"
140
3.0
141
12.0
290
     0
  0
SCALE
  5
67
102
{ACAD_REACTORS
330
47
102
}
330
47
100
AcDbScale
 70
     0
300
6" = 1'-0"
140
6.0
141
12.0
290
     0
  0
SCALE
  5
68
102
{ACAD_REACTORS
330
47
102
}
330
47
100
AcDbScale
 70
     0
300
1'-0" = 1'-0"
140
12.0
141
12.0
290
     0
  0
ENDSEC
  0
EOF
