  0
SECTION
  2
HEADER
  9
$ACADVER
  1
AC1015
  9
$ACADMAINTVER
 70
     6
  9
$DWGCODEPAGE
  3
ANSI_1252
  9
$INSBASE
 10
0.0
 20
0.0
 30
0.0
  9
$EXTMIN
 10
-106.5
 20
-145.0
 30
0.0
  9
$EXTMAX
 10
176.5947147813
 20
176.5947147813
 30
0.0
  9
$LIMMIN
 10
0.0
 20
0.0
  9
$LIMMAX
 10
420.0
 20
297.0
  9
$ORTHOMODE
 70
     0
  9
$REGENMODE
 70
     1
  9
$FILLMODE
 70
     1
  9
$QTEXTMODE
 70
     0
  9
$MIRRTEXT
 70
     1
  9
$LTSCALE
 40
1.0
  9
$ATTMODE
 70
     1
  9
$TEXTSIZE
 40
6.35
  9
$TRACEWID
 40
1.0
  9
$TEXTSTYLE
  7
Standard
  9
$CLAYER
  8
0
  9
$CELTYPE
  6
ByLayer
  9
$CECOLOR
 62
   256
  9
$CELTSCALE
 40
1.0
  9
$DISPSILH
 70
     0
  9
$DIMSCALE
 40
1.0
  9
$DIMASZ
 40
5.9944
  9
$DIMEXO
 40
0.9906
  9
$DIMDLI
 40
3.75
  9
$DIMRND
 40
0.0
  9
$DIMDLE
 40
0.0
  9
$DIMEXE
 40
0.9906
  9
$DIMTP
 40
0.0
  9
$DIMTM
 40
0.0
  9
$DIMTXT
 40
6.35
  9
$DIMCEN
 40
2.5
  9
$DIMTSZ
 40
0.0
  9
$DIMTOL
 70
     0
  9
$DIMLIM
 70
     0
  9
$DIMTIH
 70
     1
  9
$DIMTOH
 70
     1
  9
$DIMSE1
 70
     0
  9
$DIMSE2
 70
     0
  9
$DIMTAD
 70
     1
  9
$DIMZIN
 70
     0
  9
$DIMBLK
  1

  9
$DIMASO
 70
     1
  9
$DIMSHO
 70
     1
  9
$DIMPOST
  1

  9
$DIMAPOST
  1

  9
$DIMALT
 70
     0
  9
$DIMALTD
 70
     3
  9
$DIMALTF
 40
0.0393700787
  9
$DIMLFAC
 40
1.0
  9
$DIMTOFL
 70
     1
  9
$DIMTVP
 40
0.0
  9
$DIMTIX
 70
     0
  9
$DIMSOXD
 70
     0
  9
$DIMSAH
 70
     0
  9
$DIMBLK1
  1

  9
$DIMBLK2
  1

  9
$DIMSTYLE
  2
ISO-25
  9
$DIMCLRD
 70
     0
  9
$DIMCLRE
 70
     0
  9
$DIMCLRT
 70
     0
  9
$DIMTFAC
 40
1.0
  9
$DIMGAP
 40
1.524
  9
$DIMJUST
 70
     0
  9
$DIMSD1
 70
     0
  9
$DIMSD2
 70
     0
  9
$DIMTOLJ
 70
     0
  9
$DIMTZIN
 70
     0
  9
$DIMALTZ
 70
     0
  9
$DIMALTTZ
 70
     0
  9
$DIMUPT
 70
     0
  9
$DIMDEC
 70
     2
  9
$DIMTDEC
 70
     2
  9
$DIMALTU
 70
     2
  9
$DIMALTTD
 70
     3
  9
$DIMTXSTY
  7
Standard
  9
$DIMAUNIT
 70
     0
  9
$DIMADEC
 70
     2
  9
$DIMALTRND
 40
0.0
  9
$DIMAZIN
 70
     0
  9
$DIMDSEP
 70
    44
  9
$DIMATFIT
 70
     3
  9
$DIMFRAC
 70
     0
  9
$DIMLDRBLK
  1

  9
$DIMLUNIT
 70
     2
  9
$DIMLWD
 70
    -2
  9
$DIMLWE
 70
    -2
  9
$DIMTMOVE
 70
     0
  9
$LUNITS
 70
     2
  9
$LUPREC
 70
     2
  9
$SKETCHINC
 40
1.0
  9
$FILLETRAD
 40
10.0
  9
$AUNITS
 70
     0
  9
$AUPREC
 70
     2
  9
$MENU
  1
.
  9
$ELEVATION
 40
0.0
  9
$PELEVATION
 40
0.0
  9
$THICKNESS
 40
0.0
  9
$LIMCHECK
 70
     0
  9
$CHAMFERA
 40
0.0
  9
$CHAMFERB
 40
0.0
  9
$CHAMFERC
 40
0.0
  9
$CHAMFERD
 40
0.0
  9
$SKPOLY
 70
     0
  9
$TDCREATE
 40
2458382.574121111
  9
$TDUCREATE
 40
2458382.532454445
  9
$TDUPDATE
 40
2458382.574152349
  9
$TDUUPDATE
 40
2458382.532485683
  9
$TDINDWG
 40
0.0000000116
  9
$TDUSRTIMER
 40
0.0000000116
  9
$USRTIMER
 70
     1
  9
$ANGBASE
 50
0.0
  9
$ANGDIR
 70
     0
  9
$PDMODE
 70
     0
  9
$PDSIZE
 40
-1.0
  9
$PLINEWID
 40
0.0
  9
$SPLFRAME
 70
     0
  9
$SPLINETYPE
 70
     6
  9
$SPLINESEGS
 70
     8
  9
$HANDSEED
  5
124
  9
$SURFTAB1
 70
     6
  9
$SURFTAB2
 70
     6
  9
$SURFTYPE
 70
     6
  9
$SURFU
 70
     6
  9
$SURFV
 70
     6
  9
$UCSBASE
  2

  9
$UCSNAME
  2

  9
$UCSORG
 10
0.0
 20
0.0
 30
0.0
  9
$UCSXDIR
 10
1.0
 20
0.0
 30
0.0
  9
$UCSYDIR
 10
0.0
 20
1.0
 30
0.0
  9
$UCSORTHOREF
  2

  9
$UCSORTHOVIEW
 70
     0
  9
$UCSORGTOP
 10
0.0
 20
0.0
 30
0.0
  9
$UCSORGBOTTOM
 10
0.0
 20
0.0
 30
0.0
  9
$UCSORGLEFT
 10
0.0
 20
0.0
 30
0.0
  9
$UCSORGRIGHT
 10
0.0
 20
0.0
 30
0.0
  9
$UCSORGFRONT
 10
0.0
 20
0.0
 30
0.0
  9
$UCSORGBACK
 10
0.0
 20
0.0
 30
0.0
  9
$PUCSBASE
  2

  9
$PUCSNAME
  2

  9
$PUCSORG
 10
0.0
 20
0.0
 30
0.0
  9
$PUCSXDIR
 10
1.0
 20
0.0
 30
0.0
  9
$PUCSYDIR
 10
0.0
 20
1.0
 30
0.0
  9
$PUCSORTHOREF
  2

  9
$PUCSORTHOVIEW
 70
     0
  9
$PUCSORGTOP
 10
0.0
 20
0.0
 30
0.0
  9
$PUCSORGBOTTOM
 10
0.0
 20
0.0
 30
0.0
  9
$PUCSORGLEFT
 10
0.0
 20
0.0
 30
0.0
  9
$PUCSORGRIGHT
 10
0.0
 20
0.0
 30
0.0
  9
$PUCSORGFRONT
 10
0.0
 20
0.0
 30
0.0
  9
$PUCSORGBACK
 10
0.0
 20
0.0
 30
0.0
  9
$USERI1
 70
     0
  9
$USERI2
 70
     0
  9
$USERI3
 70
     0
  9
$USERI4
 70
     0
  9
$USERI5
 70
     0
  9
$USERR1
 40
0.0
  9
$USERR2
 40
0.0
  9
$USERR3
 40
0.0
  9
$USERR4
 40
0.0
  9
$USERR5
 40
0.0
  9
$WORLDVIEW
 70
     1
  9
$SHADEDGE
 70
     3
  9
$SHADEDIF
 70
    70
  9
$TILEMODE
 70
     1
  9
$MAXACTVP
 70
    64
  9
$PINSBASE
 10
0.0
 20
0.0
 30
0.0
  9
$PLIMCHECK
 70
     0
  9
$PEXTMIN
 10
-106.5
 20
-125.0
 30
0.0
  9
$PEXTMAX
 10
176.5938872142
 20
106.5
 30
0.0
  9
$PLIMMIN
 10
-130.2435897436
 20
-133.9038461538
  9
$PLIMMAX
 10
222.3487179487
 20
115.4038461538
  9
$UNITMODE
 70
     0
  9
$VISRETAIN
 70
     1
  9
$PLINEGEN
 70
     0
  9
$PSLTSCALE
 70
     1
  9
$TREEDEPTH
 70
  3020
  9
$CMLSTYLE
  2
Standard
  9
$CMLJUST
 70
     0
  9
$CMLSCALE
 40
20.0
  9
$PROXYGRAPHICS
 70
     1
  9
$MEASUREMENT
 70
     1
  9
$CELWEIGHT
370
    -1
  9
$ENDCAPS
280
     0
  9
$JOINSTYLE
280
     0
  9
$LWDISPLAY
290
     1
  9
$INSUNITS
 70
     4
  9
$HYPERLINKBASE
  1

  9
$STYLESHEET
  1

  9
$XEDIT
290
     1
  9
$CEPSNTYPE
380
     0
  9
$PSTYLEMODE
290
     1
  9
$FINGERPRINTGUID
  2
{6247317E-42BA-47EA-8CD9-F31D6B56E191}
  9
$VERSIONGUID
  2
{FAEB1C32-E019-11D5-929B-00C0DF256EC4}
  9
$EXTNAMES
290
     1
  9
$PSVPSCALE
 40
0.0
  9
$OLESTARTUP
290
     0
  0
ENDSEC
  0
SECTION
  2
CLASSES
  0
CLASS
  1
ACDBDICTIONARYWDFLT
  2
AcDbDictionaryWithDefault
  3
ObjectDBX Classes
 90
        0
280
     0
281
     0
  0
CLASS
  1
VISUALSTYLE
  2
AcDbVisualStyle
  3
ObjectDBX Classes
 90
     4095
280
     0
281
     0
  0
CLASS
  1
MATERIAL
  2
AcDbMaterial
  3
ObjectDBX Classes
 90
     1153
280
     0
281
     0
  0
CLASS
  1
SCALE
  2
AcDbScale
  3
ObjectDBX Classes
 90
     1153
280
     0
281
     0
  0
CLASS
  1
TABLESTYLE
  2
AcDbTableStyle
  3
ObjectDBX Classes
 90
     4095
280
     0
281
     0
  0
CLASS
  1
MLEADERSTYLE
  2
AcDbMLeaderStyle
  3
ACDB_MLEADERSTYLE_CLASS
 90
     4095
280
     0
281
     0
  0
CLASS
  1
SUN
  2
AcDbSun
  3
SCENEOE
 90
     1153
280
     0
281
     0
  0
CLASS
  1
ACDBPLACEHOLDER
  2
AcDbPlaceHolder
  3
ObjectDBX Classes
 90
        0
280
     0
281
     0
  0
CLASS
  1
LAYOUT
  2
AcDbLayout
  3
ObjectDBX Classes
 90
        0
280
     0
281
     0
  0
ENDSEC
  0
SECTION
  2
TABLES
  0
TABLE
  2
VPORT
  5
8
330
0
100
AcDbSymbolTable
 70
     1
  0
VPORT
  5
29
330
8
100
AcDbSymbolTableRecord
100
AcDbViewportTableRecord
  2
*Active
 70
     0
 10
0.0
 20
0.0
 11
1.0
 21
1.0
 12
35.0473573906
 22
15.7973573906
 13
0.0
 23
0.0
 14
10.0
 24
10.0
 15
10.0
 25
10.0
 16
0.0
 26
0.0
 36
1.0
 17
0.0
 27
0.0
 37
0.0
 40
328.0266090769
 41
0.8802841022
 42
50.0
 43
0.0
 44
0.0
 50
0.0
 51
0.0
 71
     0
 72
   100
 73
     1
 74
     3
 75
     0
 76
     0
 77
     0
 78
     0
281
     0
 65
     1
110
0.0
120
0.0
130
0.0
111
1.0
121
0.0
131
0.0
112
0.0
122
1.0
132
0.0
 79
     0
146
0.0
  0
ENDTAB
  0
TABLE
  2
LTYPE
  5
5
330
0
100
AcDbSymbolTable
 70
     6
  0
LTYPE
  5
14
330
5
100
AcDbSymbolTableRecord
100
AcDbLinetypeTableRecord
  2
ByBlock
 70
     0
  3

 72
    65
 73
     0
 40
0.0
  0
LTYPE
  5
15
330
5
100
AcDbSymbolTableRecord
100
AcDbLinetypeTableRecord
  2
ByLayer
 70
     0
  3

 72
    65
 73
     0
 40
0.0
  0
LTYPE
  5
16
330
5
100
AcDbSymbolTableRecord
100
AcDbLinetypeTableRecord
  2
Continuous
 70
     0
  3
Solid line
 72
    65
 73
     0
 40
0.0
  0
LTYPE
  5
6E
330
5
100
AcDbSymbolTableRecord
100
AcDbLinetypeTableRecord
  2
HIDDEN
 70
     0
  3
Hidden __ __ __ __ __ __ __ __ __ __ __ __ __ __
 72
    65
 73
     2
 40
1.905
 49
1.27
 74
     0
 49
-0.635
 74
     0
  0
LTYPE
  5
6F
330
5
100
AcDbSymbolTableRecord
100
AcDbLinetypeTableRecord
  2
PHANTOM
 70
     0
  3
Phantom ______  __  __  ______  __  __  ______
 72
    65
 73
     6
 40
12.7
 49
6.35
 74
     0
 49
-1.27
 74
     0
 49
1.27
 74
     0
 49
-1.27
 74
     0
 49
1.27
 74
     0
 49
-1.27
 74
     0
  0
LTYPE
  5
70
330
5
100
AcDbSymbolTableRecord
100
AcDbLinetypeTableRecord
  2
CENTER
 70
     0
  3
Center ____ _ ____ _ ____ _ ____ _ ____ _ ____
 72
    65
 73
     4
 40
10.16
 49
6.35
 74
     0
 49
-1.27
 74
     0
 49
1.27
 74
     0
 49
-1.27
 74
     0
  0
LTYPE
  5
71
330
5
100
AcDbSymbolTableRecord
100
AcDbLinetypeTableRecord
  2
CENTERX2
 70
     0
  3
Center (2x) ________  __  ________  __  _____
 72
    65
 73
     4
 40
20.32
 49
12.7
 74
     0
 49
-2.54
 74
     0
 49
2.54
 74
     0
 49
-2.54
 74
     0
  0
LTYPE
  5
72
330
5
100
AcDbSymbolTableRecord
100
AcDbLinetypeTableRecord
  2
DOT2
 70
     0
  3
Dot (.5x) ........................................
 72
    65
 73
     2
 40
0.635
 49
0.0
 74
     0
 49
-0.635
 74
     0
  0
ENDTAB
  0
TABLE
  2
LAYER
  5
2
330
0
100
AcDbSymbolTable
 70
     1
  0
LAYER
  5
10
330
2
100
AcDbSymbolTableRecord
100
AcDbLayerTableRecord
  2
0
 70
     0
 62
     7
  6
Continuous
370
    -3
390
F
  0
ENDTAB
  0
TABLE
  2
STYLE
  5
3
330
0
100
AcDbSymbolTable
 70
     1
  0
STYLE
  5
11
330
3
100
AcDbSymbolTableRecord
100
AcDbTextStyleTableRecord
  2
Standard
 70
     0
 40
0.0
 41
1.0
 50
0.0
 71
     0
 42
6.35
  3
txt
  4

  0
ENDTAB
  0
TABLE
  2
VIEW
  5
6
330
0
100
AcDbSymbolTable
 70
     0
  0
ENDTAB
  0
TABLE
  2
UCS
  5
7
330
0
100
AcDbSymbolTable
 70
     0
  0
ENDTAB
  0
TABLE
  2
APPID
  5
9
330
0
100
AcDbSymbolTable
 70
     1
  0
APPID
  5
12
330
9
100
AcDbSymbolTableRecord
100
AcDbRegAppTableRecord
  2
ACAD
 70
     0
  0
ENDTAB
  0
TABLE
  2
DIMSTYLE
  5
A
330
0
100
AcDbSymbolTable
 70
     1
100
AcDbDimStyleTable
  0
DIMSTYLE
105
27
330
A
100
AcDbSymbolTableRecord
100
AcDbDimStyleTableRecord
  2
ISO-25
 70
     0
 41
2.5
 42
0.625
 43
3.75
 44
1.25
 73
     0
 74
     0
 77
     1
 78
     8
140
2.5
141
2.5
143
0.0393700787
147
0.625
171
     3
172
     1
178
     0
271
     2
272
     2
274
     3
278
    44
283
     0
284
     8
340
11
  0
ENDTAB
  0
TABLE
  2
BLOCK_RECORD
  5
1
330
0
100
AcDbSymbolTable
 70
     1
  0
BLOCK_RECORD
  5
1F
330
1
100
AcDbSymbolTableRecord
100
AcDbBlockTableRecord
  2
*Model_Space
340
22
  0
BLOCK_RECORD
  5
1B
330
1
100
AcDbSymbolTableRecord
100
AcDbBlockTableRecord
  2
*Paper_Space
340
1E
  0
BLOCK_RECORD
  5
23
330
1
100
AcDbSymbolTableRecord
100
AcDbBlockTableRecord
  2
*Paper_Space0
340
26
  0
ENDTAB
  0
ENDSEC
  0
SECTION
  2
BLOCKS
  0
BLOCK
  5
20
330
1F
100
AcDbEntity
  8
0
100
AcDbBlockBegin
  2
*Model_Space
 70
     0
 10
0.0
 20
0.0
 30
0.0
  3
*Model_Space
  1

  0
ENDBLK
  5
21
330
1F
100
AcDbEntity
  8
0
100
AcDbBlockEnd
  0
BLOCK
  5
1C
330
1B
100
AcDbEntity
 67
     1
  8
0
100
AcDbBlockBegin
  2
*Paper_Space
 70
     0
 10
0.0
 20
0.0
 30
0.0
  3
*Paper_Space
  1

  0
ENDBLK
  5
1D
330
1B
100
AcDbEntity
 67
     1
  8
0
100
AcDbBlockEnd
  0
BLOCK
  5
24
330
23
100
AcDbEntity
  8
0
100
AcDbBlockBegin
  2
*Paper_Space0
 70
     0
 10
0.0
 20
0.0
 30
0.0
  3
*Paper_Space0
  1

  0
SPLINE
  5
EF
330
23
100
AcDbEntity
  8
0
  6
Continuous
 62
     7
370
    25
100
AcDbSpline
210
0.0
220
0.0
230
1.0
 70
     8
 71
     3
 72
    13
 73
     9
 74
     0
 42
0.000000001
 43
0.00000001
 40
0.0
 40
0.0
 40
0.0
 40
0.0
 40
0.1322400053833229
 40
0.3904384695145853
 40
0.5956382791002399
 40
0.7680008527707883
 40
0.9128813142516995
 40
0.9999999999999999
 40
0.9999999999999999
 40
0.9999999999999999
 40
0.9999999999999999
 10
108.4834459167053
 20
-124.2181651370665
 30
0.0
 10
108.3615694362618
 20
-124.2234533732046
 30
0.0
 10
108.0017292626604
 20
-124.2390668845487
 30
0.0
 10
107.4822710127288
 20
-124.0061496380988
 30
0.0
 10
107.0261439161307
 20
-123.6387625700567
 30
0.0
 10
106.7472501396033
 20
-123.2439025965745
 30
0.0
 10
106.5947851603424
 20
-122.9024071829938
 30
0.0
 10
106.5536628768507
 20
-122.6934992450956
 30
0.0
 10
106.5382209265868
 20
-122.6150516076389
 30
0.0
  0
SPLINE
  5
F2
330
23
100
AcDbEntity
  8
0
  6
Continuous
 62
     7
370
    25
100
AcDbSpline
210
0.0
220
0.0
230
1.0
 70
     8
 71
     3
 72
    13
 73
     9
 74
     0
 42
0.000000001
 43
0.00000001
 40
0.0
 40
0.0
 40
0.0
 40
0.0
 40
0.2330821830533265
 40
0.2896110694468447
 40
0.334023847674413
 40
0.4140806169984277
 40
0.9830454211914645
 40
1.0
 40
1.0
 40
1.0
 40
1.0
 10
104.4273430789634
 20
-144.8535224215061
 30
0.0
 10
104.4219959721459
 20
-144.8552511796304
 30
0.0
 10
104.415352043796
 20
-144.8573992094911
 30
0.0
 10
104.4549275884552
 20
-144.8443937025565
 30
0.0
 10
104.4966099832183
 20
-144.8313517242268
 30
0.0
 10
104.7082891530407
 20
-144.7729520049382
 30
0.0
 10
104.9284098889629
 20
-144.7236328194543
 30
0.0
 10
105.1148593127922
 20
-144.7517635722475
 30
0.0
 10
105.1202545455526
 20
-144.752577583661
 30
0.0
  0
SPLINE
  5
F3
330
23
100
AcDbEntity
  8
0
  6
Continuous
 62
     7
370
    25
100
AcDbSpline
210
0.0
220
0.0
230
1.0
 70
     8
 71
     3
 72
    36
 73
    32
 74
     0
 42
0.000000001
 43
0.00000001
 40
0.0
 40
0.0
 40
0.0
 40
0.0
 40
0.0060572314550026
 40
0.0417341548529783
 40
0.0774344698977849
 40
0.113170260039802
 40
0.1489508260139955
 40
0.184782247845836
 40
0.2206673225249141
 40
0.2566058331642422
 40
0.2925950610372994
 40
0.3286304315933415
 40
0.36470618931034
 40
0.4008160178949826
 40
0.4369535526820518
 40
0.473112762331314
 40
0.509288201073592
 40
0.5454751483320821
 40
0.5816696599070676
 40
0.6178685560283427
 40
0.6540692129701076
 40
0.6902694681808684
 40
0.7264682110570451
 40
0.7626647708816578
 40
0.7988588396336566
 40
0.835050403186395
 40
0.871239681444151
 40
0.907427077021147
 40
0.9436131314903266
 40
0.979798487920791
 40
1.0
 40
1.0
 40
1.0
 40
1.0
 10
105.984057189062
 20
107.7603509108193
 30
0.0
 10
105.9599265434349
 20
107.9891081236203
 30
0.0
 10
105.7936670717957
 20
109.565238904439
 30
0.0
 10
105.1966388155147
 20
112.4681101825641
 30
0.0
 10
104.177844903519
 20
116.4533656076859
 30
0.0
 10
102.8378504967332
 20
120.3914502047348
 30
0.0
 10
101.2149994429534
 20
124.2740220982953
 30
0.0
 10
99.30401685754896
 20
128.0897179946467
 30
0.0
 10
97.1123567953747
 20
131.8279813395579
 30
0.0
 10
94.64514881806284
 20
135.4780919061775
 30
0.0
 10
91.90928291298167
 20
139.0295123649155
 30
0.0
 10
88.91232190910773
 20
142.4718969732158
 30
0.0
 10
85.66276978780577
 20
145.7951932635823
 30
0.0
 10
82.16994881666157
 20
148.9897100814056
 30
0.0
 10
78.44396331008596
 20
152.046179052139
 30
0.0
 10
74.49563063085526
 20
154.9557994597611
 30
0.0
 10
70.33641890778435
 20
157.7102698600042
 30
0.0
 10
65.978386009549
 20
160.3018083209862
 30
0.0
 10
61.43412403171794
 20
162.7231644669531
 30
0.0
 10
56.71671579411479
 20
164.9676230061933
 30
0.0
 10
51.83969860318807
 20
167.0290053855085
 30
0.0
 10
46.81700175557976
 20
168.9016846764258
 30
0.0
 10
41.66289936678471
 20
170.5805856256235
 30
0.0
 10
36.39196327101868
 20
172.0611941839385
 30
0.0
 10
31.0190515858456
 20
173.3395192277004
 30
0.0
 10
25.55926992528265
 20
174.4122147392483
 30
0.0
 10
20.02794488838475
 20
175.2761422129027
 30
0.0
 10
14.44054896612862
 20
175.9300222860607
 30
0.0
 10
8.812803273671648
 20
176.3682887375747
 30
0.0
 10
3.992413001962507
 20
176.5693277959289
 30
0.0
 10
1.05306808766817
 20
176.5880185241415
 30
0.0
 10
0.0
 20
176.5947147812974
 30
0.0
  0
SPLINE
  5
F5
330
23
100
AcDbEntity
  8
0
  6
Continuous
 62
     7
370
    25
100
AcDbSpline
210
0.0
220
0.0
230
1.0
 70
     8
 71
     3
 72
    36
 73
    32
 74
     0
 42
0.000000001
 43
0.00000001
 40
0.0
 40
0.0
 40
0.0
 40
0.0
 40
0.0192166871197209
 40
0.0555550490945778
 40
0.0918978427901171
 40
0.1282427445730483
 40
0.1645904775164637
 40
0.2009416998628224
 40
0.2372969706291573
 40
0.2736567106519075
 40
0.3100211568238431
 40
0.3463903081172781
 40
0.3827638622660445
 40
0.4191411425259977
 40
0.4555210148919485
 40
0.4919012867653249
 40
0.5282792344435613
 40
0.5646515505219147
 40
0.6010141065370378
 40
0.6373619277735542
 40
0.6736892314345235
 40
0.7099895553416669
 40
0.74625600409684
 40
0.7824816328145637
 40
0.8186599727840066
 40
0.854785677921995
 40
0.8908552379768354
 40
0.9268676706347416
 40
0.9628250800283925
 40
0.9987329644759227
 40
1.0
 40
1.0
 40
1.0
 40
1.0
 10
0.0
 20
176.5947147812974
 30
0.0
 10
-0.9974485978952053
 20
176.5886858976632
 30
0.0
 10
-3.88105207648433
 20
176.5712565184888
 30
0.0
 10
-8.64627695318839
 20
176.3781101573469
 30
0.0
 10
-14.27506120721292
 20
175.9460561383122
 30
0.0
 10
-19.86424166621942
 20
175.2983972895587
 30
0.0
 10
-25.39794951394041
 20
174.4405519547882
 30
0.0
 10
-30.8607375782646
 20
173.3737922102032
 30
0.0
 10
-36.23730876862268
 20
172.1011987164933
 30
0.0
 10
-41.51259325544847
 20
170.6260605212569
 30
0.0
 10
-46.6717733859472
 20
168.9522955461737
 30
0.0
 10
-51.70032101761322
 20
167.0843293622569
 30
0.0
 10
-56.58402994183764
 20
165.0271194762697
 30
0.0
 10
-61.30904823843568
 20
162.7861415502317
 30
0.0
 10
-65.86188840783657
 20
160.3673986742403
 30
0.0
 10
-70.22946803297843
 20
157.7774200620296
 30
0.0
 10
-74.39915263526856
 20
155.0232597972062
 30
0.0
 10
-78.35881061095884
 20
152.1124850764026
 30
0.0
 10
-82.09684629018813
 20
149.0531795295741
 30
0.0
 10
-85.60223983061668
 20
145.8539480807814
 30
0.0
 10
-88.8645984247117
 20
142.5239140599684
 30
0.0
 10
-91.87422390169147
 20
139.0727100032906
 30
0.0
 10
-94.62215263972182
 20
135.5104550512494
 30
0.0
 10
-97.10032557153305
 20
131.8477256881161
 30
0.0
 10
-99.30128426687492
 20
128.0954754521946
 30
0.0
 10
-101.219616215026
 20
124.2650550412048
 30
0.0
 10
-102.8468339946613
 20
120.3677664113319
 30
0.0
 10
-104.1906119812097
 20
116.4160743504346
 30
0.0
 10
-105.2032022295129
 20
112.4186026866691
 30
0.0
 10
-105.7766144177893
 20
109.6894787277516
 30
0.0
 10
-105.9275657647161
 20
108.2918090764272
 30
0.0
 10
-105.9327106505454
 20
108.2441721991857
 30
0.0
  0
SPLINE
  5
F6
330
23
100
AcDbEntity
  8
0
  6
Continuous
 62
     7
370
    25
100
AcDbSpline
210
0.0
220
0.0
230
1.0
 70
     8
 71
     3
 72
    11
 73
     7
 74
     0
 42
0.000000001
 43
0.00000001
 40
0.0
 40
0.0
 40
0.0
 40
0.0
 40
0.2038087986063886
 40
0.4913895763877607
 40
0.8061762587919473
 40
1.0
 40
1.0
 40
1.0
 40
1.0
 10
106.5
 20
83.92369599008055
 30
0.0
 10
106.5492896766805
 20
84.00545588714239
 30
0.0
 10
106.6681286743583
 20
84.20258163174933
 30
0.0
 10
107.0908394840205
 20
84.58073048453969
 30
0.0
 10
107.6337404091663
 20
84.83835014911922
 30
0.0
 10
108.0143234326532
 20
84.82751566561984
 30
0.0
 10
108.1593578677099
 20
84.82338680779779
 30
0.0
  0
SPLINE
  5
F9
330
23
100
AcDbEntity
  8
0
  6
Continuous
 62
     7
370
    25
100
AcDbSpline
210
0.0
220
0.0
230
1.0
 70
     8
 71
     3
 72
    12
 73
     8
 74
     0
 42
0.000000001
 43
0.00000001
 40
0.0
 40
0.0
 40
0.0
 40
0.0
 40
0.1845156152127944
 40
0.4300217652821988
 40
0.6909204331148254
 40
0.9573640472933647
 40
1.0
 40
1.0
 40
1.0
 40
1.0
 10
107.9530555736892
 20
105.3659346316215
 30
0.0
 10
107.8017049653244
 20
105.3773065990661
 30
0.0
 10
107.4489757087221
 20
105.4038094698913
 30
0.0
 10
106.8550864827143
 20
105.6952299839105
 30
0.0
 10
106.3649032993013
 20
106.2214691242476
 30
0.0
 10
106.1194409228571
 20
106.7278877829533
 30
0.0
 10
106.1121144104927
 20
107.0055612443621
 30
0.0
 10
106.1111037554118
 20
107.0438648847089
 30
0.0
  0
SPLINE
  5
FA
330
23
100
AcDbEntity
  8
0
  6
Continuous
 62
     7
370
    25
100
AcDbSpline
210
0.0
220
0.0
230
1.0
 70
     8
 71
     3
 72
    21
 73
    17
 74
     0
 42
0.000000001
 43
0.00000001
 40
0.0
 40
0.0
 40
0.0
 40
0.0
 40
0.0746616064147561
 40
0.151440121357615
 40
0.2263927721472882
 40
0.3034612819131488
 40
0.3781090485147472
 40
0.4548452721702906
 40
0.5292088434544057
 40
0.6056592664090173
 40
0.679970481500632
 40
0.7564291356490874
 40
0.8304773140485441
 40
0.906744967019628
 40
0.9802604374021698
 40
0.9999999999999999
 40
0.9999999999999999
 40
0.9999999999999999
 40
0.9999999999999999
 10
106.0748044991646
 20
-142.0
 30
0.0
 10
106.0391693714871
 20
-141.4435140271267
 30
0.0
 10
105.9668887399921
 20
-140.314763825884
 30
0.0
 10
105.8830457934541
 20
-138.411951203564
 30
0.0
 10
105.8290045452283
 20
-136.3963301894545
 30
0.0
 10
105.8126691125631
 20
-134.3425857157275
 30
0.0
 10
105.8352315683617
 20
-132.2791198916772
 30
0.0
 10
105.8936569009421
 20
-130.2993894296742
 30
0.0
 10
105.982322512672
 20
-128.4201545150844
 30
0.0
 10
106.0899736387226
 20
-126.7258484567857
 30
0.0
 10
106.2066413889097
 20
-125.231164474496
 30
0.0
 10
106.3170489283659
 20
-124.0101234205391
 30
0.0
 10
106.4115619331164
 20
-123.0673401960237
 30
0.0
 10
106.4738286981666
 20
-122.485899090486
 30
0.0
 10
106.5027155858025
 20
-122.2254060832889
 30
0.0
 10
106.4973323889037
 20
-122.2741420202251
 30
0.0
 10
106.4961929120437
 20
-122.2844580969791
 30
0.0
  0
LWPOLYLINE
  5
FD
330
23
100
AcDbEntity
  8
0
  6
Continuous
 62
     7
370
    25
100
AcDbPolyline
 90
       57
 70
   128
 43
0.0
 10
-106.5
 20
0.0
 10
-106.3324557994
 20
4.2224900041
 10
-105.8303503536
 20
8.4316944924
 10
-104.9952634722
 20
12.6143697505
 10
-103.8298226474
 20
16.7573555345
 10
-102.3376947872
 20
20.8476164783
 10
-100.5235746778
 20
24.8722831078
 10
-98.3931702125
 20
28.8186923328
 10
-95.9531844316
 20
32.6744272898
 10
-93.2112944333
 20
36.4273564102
 10
-90.1761272178
 20
40.0656715905
 10
-86.8572325442
 20
43.5779253451
 10
-83.2650528828
 20
46.9530668243
 10
-79.4108905601
 20
50.1804765843
 10
-75.3068721964
 20
53.25
 10
-70.9659105519
 20
56.1519792151
 10
-66.401663898
 20
58.8772835293
 10
-61.6284930431
 20
61.4173381271
 10
-56.6614161489
 20
63.7641510569
 10
-51.5160614767
 20
65.9103383769
 10
-46.208618216
 20
67.849147388
 10
-40.7557855469
 20
69.5744778797
 10
-35.1747200982
 20
71.0809013238
 10
-29.4829819667
 20
72.363677955
 10
-23.6984794663
 20
73.4187716833
 10
-17.839412782
 20
74.2428627937
 10
-11.924216705
 20
74.8333583904
 10
-5.9715026308
 20
75.188400556
 10
0.0
 20
75.3068721964
 10
5.9715026308
 20
75.188400556
 10
11.924216705
 20
74.8333583904
 10
17.839412782
 20
74.2428627937
 10
23.6984794663
 20
73.4187716833
 10
29.4829819667
 20
72.363677955
 10
35.1747200982
 20
71.0809013238
 10
40.7557855469
 20
69.5744778797
 10
46.208618216
 20
67.849147388
 10
51.5160614767
 20
65.9103383769
 10
56.6614161489
 20
63.7641510569
 10
61.6284930431
 20
61.4173381271
 10
66.401663898
 20
58.8772835293
 10
70.9659105519
 20
56.1519792151
 10
75.3068721964
 20
53.25
 10
79.4108905601
 20
50.1804765843
 10
83.2650528828
 20
46.9530668243
 10
86.8572325442
 20
43.5779253451
 10
90.1761272178
 20
40.0656715905
 10
93.2112944333
 20
36.4273564102
 10
95.9531844316
 20
32.6744272898
 10
98.3931702125
 20
28.8186923328
 10
100.5235746778
 20
24.8722831078
 10
102.3376947872
 20
20.8476164783
 10
103.8298226474
 20
16.7573555345
 10
104.9952634722
 20
12.6143697505
 10
105.8303503536
 20
8.4316944924
 10
106.3324557994
 20
4.2224900041
 10
106.5
 20
0.0
  0
SPLINE
  5
FE
330
23
100
AcDbEntity
  8
0
  6
Continuous
 62
     7
370
    25
100
AcDbSpline
210
0.0
220
0.0
230
1.0
 70
     8
 71
     3
 72
    22
 73
    18
 74
     0
 42
0.000000001
 43
0.00000001
 40
0.0
 40
0.0
 40
0.0
 40
0.0
 40
0.0596758901169072
 40
0.1276863334201698
 40
0.1932425625106362
 40
0.2607882728019046
 40
0.3261747479138157
 40
0.3935112873812882
 40
0.4594050035364988
 40
0.527216026378146
 40
0.5938893350386186
 40
0.6624753518658809
 40
0.7294643090844438
 40
0.7983578839188622
 40
0.8650612339862609
 40
0.9336372967075627
 40
0.9999999999999999
 40
0.9999999999999999
 40
0.9999999999999999
 40
0.9999999999999999
 10
106.3240307741954
 20
83.34080862025336
 30
0.0
 10
106.3527354263302
 20
83.50742005825771
 30
0.0
 10
106.4141537273563
 20
83.86391249738111
 30
0.0
 10
106.4754895300923
 20
84.80194651778187
 30
0.0
 10
106.505291797926
 20
86.0436471901594
 30
0.0
 10
106.4957378964075
 20
87.53334584033492
 30
0.0
 10
106.4485455951628
 20
89.24633778047
 30
0.0
 10
106.3697358924706
 20
91.10640706174588
 30
0.0
 10
106.2667533317087
 20
93.09530904429732
 30
0.0
 10
106.1523469919745
 20
95.1282612996686
 30
0.0
 10
106.0376115473188
 20
97.18069479371911
 30
0.0
 10
105.937166233857
 20
99.16177403300209
 30
0.0
 10
105.861161992162
 20
101.0438586253058
 30
0.0
 10
105.8193209499426
 20
102.7410270279001
 30
0.0
 10
105.8162060446492
 20
104.2270992326323
 30
0.0
 10
105.8495457668657
 20
105.4629046400449
 30
0.0
 10
105.8995935634907
 20
106.0411946285716
 30
0.0
 10
105.9242070024304
 20
106.3255968656699
 30
0.0
  0
SPLINE
  5
106
330
23
100
AcDbEntity
  8
0
  6
Continuous
 62
     8
370
    25
100
AcDbSpline
210
0.0
220
0.0
230
1.0
 70
     8
 71
     3
 72
    12
 73
     8
 74
     0
 42
0.000000001
 43
0.00000001
 40
0.0
 40
0.0
 40
0.0
 40
0.0
 40
0.0456519028720613
 40
0.2306843080502113
 40
0.6161299361043394
 40
0.8608294155012864
 40
1.0
 40
1.0
 40
1.0
 40
1.0
 10
104.4686128254914
 20
-144.8384354661511
 30
0.0
 10
104.4601142214963
 20
-144.8415553914942
 30
0.0
 10
104.4171697994971
 20
-144.8573207325569
 30
0.0
 10
104.9110387142639
 20
-144.6800286133642
 30
0.0
 10
105.6224817476524
 20
-144.1085227906371
 30
0.0
 10
106.1038261497559
 20
-143.0473214197731
 30
0.0
 10
106.0825265760019
 20
-142.2786711407522
 30
0.0
 10
106.0748044991646
 20
-142.0
 30
0.0
  0
SPLINE
  5
107
330
23
100
AcDbEntity
  8
0
  6
Continuous
 62
     8
370
    25
100
AcDbSpline
210
0.0
220
0.0
230
1.0
 70
     8
 71
     3
 72
    10
 73
     6
 74
     0
 42
0.000000001
 43
0.00000001
 40
0.0
 40
0.0
 40
0.0
 40
0.0
 40
0.5
 40
0.5
 40
1.0
 40
1.0
 40
1.0
 40
1.0
 10
105.9242070024304
 20
106.3255968656699
 30
0.0
 10
105.9450077780024
 20
106.5210744880589
 30
0.0
 10
105.9683391276695
 20
106.6867772064071
 30
0.0
 10
106.0190564108399
 20
106.9569939480739
 30
0.0
 10
106.0464642906447
 20
107.0611494766531
 30
0.0
 10
106.0748044991646
 20
107.1317312793515
 30
0.0
  0
LWPOLYLINE
  5
108
330
23
100
AcDbEntity
  8
0
  6
Continuous
 62
     8
370
    25
100
AcDbPolyline
 90
       54
 70
   128
 43
0.0
 10
106.0748044992
 20
107.1317312794
 10
105.3763426956
 20
111.3196257991
 10
104.3474627314
 20
115.4733094611
 10
102.9913907637
 20
119.5797579709
 10
101.312378893
 20
123.6260951446
 10
99.3156918304
 20
127.5996332835
 10
97.0075903899
 20
131.4879129576
 10
94.3953118565
 20
135.2787420735
 10
91.4870472934
 20
138.9602341039
 10
88.2919158575
 20
142.5208453587
 10
84.8199362062
 20
145.949411182
 10
81.081995082
 20
149.2351809594
 10
77.0898131769
 20
152.3678518282
 10
72.85590838
 20
155.3376009826
 10
68.3935565274
 20
158.1351164742
 10
63.7167497738
 20
160.7516264109
 10
58.8401527189
 20
163.1789264616
 10
53.779056425
 20
165.409405582
 10
48.5493304706
 20
167.4360698796
 10
43.1673731893
 20
169.2525645438
 10
37.6500602515
 20
170.8531937723
 10
32.0146917488
 20
172.2329386306
 10
26.2789379483
 20
173.3874727894
 10
20.4607838848
 20
174.3131760902
 10
14.5784729679
 20
175.0071458969
 10
8.6504497773
 20
175.4672061972
 10
2.6953022281
 20
175.6919144254
 10
-3.2682967133
 20
175.6805659863
 10
-9.2216475805
 20
175.4331964641
 10
-15.1460830407
 20
174.9505815108
 10
-21.0230264285
 20
174.2342344144
 10
-26.8340499946
 20
173.2864013534
 10
-32.5609326879
 20
172.1100543542
 10
-38.1857172897
 20
170.7088819716
 10
-43.69076672
 20
169.0872777229
 10
-49.0588193405
 20
167.250326312
 10
-54.2730430803
 20
165.2037876855
 10
-59.3170882145
 20
162.9540789719
 10
-64.1751386304
 20
160.5082543599
 10
-68.8319614205
 20
157.8739829796
 10
-73.2729546467
 20
155.0595248548
 10
-77.4841931265
 20
152.073705003
 10
-81.4524720965
 20
148.9258857639
 10
-85.1653486174
 20
145.6259374424
 10
-88.61118059
 20
142.1842073596
 10
-91.7791632603
 20
138.6114874077
 10
-94.6593630988
 20
134.9189802108
 10
-97.2427489482
 20
131.118263998
 10
-99.5212203414
 20
127.2212562985
 10
-101.4876329011
 20
123.2401765735
 10
-103.1358207425
 20
119.1875079004
 10
-104.460615806
 20
115.0759578309
 10
-105.4578640631
 20
110.9184185454
 10
-105.9529419976
 20
108.0322883391
  0
SPLINE
  5
109
330
23
100
AcDbEntity
  8
0
  6
Continuous
 62
     8
370
    25
100
AcDbSpline
210
0.0
220
0.0
230
1.0
 70
     8
 71
     3
 72
    14
 73
    10
 74
     0
 42
0.000000001
 43
0.00000001
 40
0.0
 40
0.0
 40
0.0
 40
0.0
 40
0.0946409056940804
 40
0.2462017626667398
 40
0.3974568629139171
 40
0.5478455155385363
 40
0.6981530862127003
 40
0.8490593521074696
 40
1.0
 40
1.0
 40
1.0
 40
1.0
 10
108.4818640936206
 20
-124.3855248743844
 30
0.0
 10
108.4830730485705
 20
-124.3758048625737
 30
0.0
 10
108.4862180611574
 20
-124.3505189249195
 30
0.0
 10
108.3204479941681
 20
-125.6154165876996
 30
0.0
 10
108.0809879777401
 20
-127.8751177715958
 30
0.0
 10
107.8670907414177
 20
-130.9207325447296
 30
0.0
 10
107.7796762007303
 20
-134.3433450576715
 30
0.0
 10
107.852540155956
 20
-137.8427785914707
 30
0.0
 10
107.9953876997025
 20
-139.7978587684721
 30
0.0
 10
108.0668196071302
 20
-140.7755102040815
 30
0.0
  0
SPLINE
  5
10A
330
23
100
AcDbEntity
  8
0
  6
Continuous
 62
     8
370
    25
100
AcDbSpline
210
0.0
220
0.0
230
1.0
 70
     8
 71
     3
 72
    13
 73
     9
 74
     0
 42
0.000000001
 43
0.00000001
 40
0.0
 40
0.0
 40
0.0
 40
0.0
 40
0.1556646719702439
 40
0.415964420497916
 40
0.6092269931522294
 40
0.8073512859242343
 40
0.9794291265773124
 40
1.0
 40
1.0
 40
1.0
 40
1.0
 10
108.0668196071302
 20
-140.7755102040816
 30
0.0
 10
108.0594454541392
 20
-141.1618763580743
 30
0.0
 10
108.0397403711764
 20
-142.1943172536958
 30
0.0
 10
107.3804836145982
 20
-143.3188317827037
 30
0.0
 10
106.4616002119033
 20
-144.1411452679191
 30
0.0
 10
105.6597916119387
 20
-144.5697973889089
 30
0.0
 10
105.0504048604405
 20
-144.7535008132061
 30
0.0
 10
105.0925125976985
 20
-144.740930313161
 30
0.0
 10
105.0970088277273
 20
-144.7395880453628
 30
0.0
  0
SPLINE
  5
10B
330
23
100
AcDbEntity
  8
0
  6
Continuous
 62
     8
370
    25
100
AcDbSpline
210
0.0
220
0.0
230
1.0
 70
     8
 71
     3
 72
    17
 73
    13
 74
     0
 42
0.000000001
 43
0.00000001
 40
0.0
 40
0.0
 40
0.0
 40
0.0
 40
0.0285289102363477
 40
0.1396013918343316
 40
0.250900893837682
 40
0.3628436747962905
 40
0.4748393914038945
 40
0.5862251029560511
 40
0.697284116756489
 40
0.8088029225423333
 40
0.9208610833114653
 40
1.0
 40
1.0
 40
1.0
 40
1.0
 10
108.0668196071301
 20
105.273957980138
 30
0.0
 10
108.0479018699464
 20
105.2293336738027
 30
0.0
 10
107.9553311261173
 20
105.0109721863699
 30
0.0
 10
107.8209508065291
 20
104.0186818835733
 30
0.0
 10
107.7860899103524
 20
101.731207590563
 30
0.0
 10
107.9126909461003
 20
98.68214494946001
 30
0.0
 10
108.144392899397
 20
95.23689878375966
 30
0.0
 10
108.3787561715436
 20
91.78955551554604
 30
0.0
 10
108.5152946467753
 20
88.70064670242043
 30
0.0
 10
108.4944290100123
 20
86.36212456808894
 30
0.0
 10
108.3416248315227
 20
85.00120338211768
 30
0.0
 10
108.2068888508476
 20
84.9832941409104
 30
0.0
 10
108.1511199045259
 20
84.97588127682955
 30
0.0
  0
LINE
  5
10D
330
23
100
AcDbEntity
  8
0
  6
Continuous
 62
     7
370
    25
100
AcDbLine
 10
-106.5
 20
100.4091629285
 30
0.0
 11
-106.5
 21
-142.0
 31
0.0
  0
LINE
  5
10E
330
23
100
AcDbEntity
  8
0
  6
Continuous
 62
     7
370
    25
100
AcDbLine
 10
106.5
 20
-122.284458097
 30
0.0
 11
106.5
 21
86.4681695541
 31
0.0
  0
LINE
  5
10F
330
23
100
AcDbEntity
  8
0
  6
Continuous
 62
     7
370
    25
100
AcDbLine
 10
125.0
 20
-124.25
 30
0.0
 11
108.4818174142
 21
-124.25
 31
0.0
  0
LINE
  5
110
330
23
100
AcDbEntity
  8
0
  6
Continuous
 62
     7
370
    25
100
AcDbLine
 10
105.1063260589
 20
-144.75
 30
0.0
 11
125.0
 21
-144.75
 31
0.0
  0
LINE
  5
111
330
23
100
AcDbEntity
  8
0
  6
Continuous
 62
     7
370
    25
100
AcDbLine
 10
106.0642646063
 20
107.033166933
 30
0.0
 11
105.9840571891
 21
107.7603509108
 31
0.0
  0
LINE
  5
112
330
23
100
AcDbEntity
  8
0
  6
Continuous
 62
     7
370
    25
100
AcDbLine
 10
125.0
 20
105.3558620696
 30
0.0
 11
107.9413190777
 21
105.3558620696
 31
0.0
  0
LINE
  5
113
330
23
100
AcDbEntity
  8
0
  6
Continuous
 62
     7
370
    25
100
AcDbLine
 10
108.1519667878
 20
84.8558620696
 30
0.0
 11
125.0
 21
84.8558620696
 31
0.0
  0
LINE
  5
114
330
23
100
AcDbEntity
  8
0
  6
Continuous
 62
     7
370
    25
100
AcDbLine
 10
-106.5
 20
0.0
 30
0.0
 11
106.5
 21
0.0
 31
0.0
  0
LINE
  5
115
330
23
100
AcDbEntity
  8
0
  6
Continuous
 62
     7
370
    25
100
AcDbLine
 10
103.5
 20
-145.0
 30
0.0
 11
-103.5
 21
-145.0
 31
0.0
  0
LINE
  5
116
330
23
100
AcDbEntity
  8
0
  6
Continuous
 62
     7
370
    25
100
AcDbLine
 10
125.0
 20
-124.25
 30
0.0
 11
125.0
 21
-144.75
 31
0.0
  0
LINE
  5
117
330
23
100
AcDbEntity
  8
0
  6
Continuous
 62
     7
370
    25
100
AcDbLine
 10
105.0970088277
 20
-144.7395880454
 30
0.0
 11
105.1063260589
 21
-144.7368162943
 31
0.0
  0
LINE
  5
118
330
23
100
AcDbEntity
  8
0
  6
Continuous
 62
     7
370
    25
100
AcDbLine
 10
125.0
 20
105.3558620696
 30
0.0
 11
125.0
 21
84.8558620696
 31
0.0
  0
LINE
  5
119
330
23
100
AcDbEntity
  8
0
  6
Continuous
 62
     8
370
    25
100
AcDbLine
 10
-106.5
 20
-142.0
 30
0.0
 11
106.0748044992
 21
-142.0
 31
0.0
  0
LINE
  5
11A
330
23
100
AcDbEntity
  8
0
  6
Continuous
 62
     8
370
    25
100
AcDbLine
 10
107.9413190777
 20
105.3038799308
 30
0.0
 11
108.0668196071
 21
105.2739579801
 31
0.0
  0
ARC
  5
11B
330
23
100
AcDbEntity
  8
0
  6
Continuous
 62
     7
370
    25
100
AcDbCircle
 10
-103.5
 20
-142.0
 30
0.0
 40
3.000000000000057
100
AcDbArc
 50
180.0
 51
270.0
  0
ARC
  5
11C
330
23
100
AcDbEntity
  8
0
  6
Continuous
 62
     7
370
    25
100
AcDbCircle
 10
103.5
 20
-142.0
 30
0.0
 40
2.999999999999981
100
AcDbArc
 50
270.0
 51
288.8691600304
  0
ARC
  5
11D
330
23
100
AcDbEntity
  8
0
  6
Continuous
 62
     7
370
    25
100
AcDbCircle
 10
-52.9858042971
 20
100.4000180889
 30
0.0
 40
53.51419648424441
100
AcDbArc
 50
171.8004354289
 51
179.9902089399
  0
ARC
  5
11E
330
23
100
AcDbEntity
  8
0
  6
Continuous
 62
     7
370
    25
100
AcDbCircle
 10
107.8770223086
 20
-142.6993078928
 30
0.0
 40
1.933137491618528
100
AcDbArc
 50
84.365568219
 51
158.7924376055
  0
ARC
  5
11F
330
23
100
AcDbEntity
  8
0
  6
Continuous
 62
     7
370
    25
100
AcDbCircle
 10
108.0773672349
 20
107.2821330068
 30
0.0
 40
2.008202726403312
100
AcDbArc
 50
184.2951144414
 51
269.6990655735
  0
VIEWPORT
  5
122
330
23
100
AcDbEntity
  8
0
100
AcDbViewport
 10
0.0
 20
0.0
 30
0.0
 40
205.6
 41
156.0
 68
     1
 69
     1
 12
35.0473573906
 22
15.7973573906
 13
0.0
 23
0.0
 14
10.0
 24
10.0
 15
10.0
 25
10.0
 16
0.0
 26
0.0
 36
1.0
 17
0.0
 27
0.0
 37
0.0
 42
50.0
 43
0.0
 44
0.0
 45
328.0266090769
 50
0.0
 51
0.0
 72
   100
 90
   557152
  1

281
     0
 71
     1
 74
     0
110
0.0
120
0.0
130
0.0
111
1.0
121
0.0
131
0.0
112
0.0
122
1.0
132
0.0
 79
     0
146
0.0
  0
ENDBLK
  5
25
330
23
100
AcDbEntity
  8
0
100
AcDbBlockEnd
  0
ENDSEC
  0
SECTION
  2
ENTITIES
  0
CIRCLE
  5
7D
330
1F
100
AcDbEntity
  8
0
  6
Continuous
 62
     7
370
    25
100
AcDbCircle
 10
95.1058620696
 20
95.1058620696
 30
0.0
 40
10.25000000000013
  0
CIRCLE
  5
7E
330
1F
100
AcDbEntity
  8
0
  6
Continuous
 62
     7
370
    25
100
AcDbCircle
 10
95.1058620696
 20
95.1058620696
 30
0.0
 40
6.249999999999716
  0
CIRCLE
  5
7F
330
1F
100
AcDbEntity
  8
0
  6
Continuous
 62
     7
370
    25
100
AcDbCircle
 10
0.0
 20
-134.5
 30
0.0
 40
6.249999999999735
  0
CIRCLE
  5
80
330
1F
100
AcDbEntity
  8
0
  6
Continuous
 62
     7
370
    25
100
AcDbCircle
 10
0.0
 20
-134.5
 30
0.0
 40
10.24999999999953
  0
CIRCLE
  5
81
330
1F
100
AcDbEntity
  8
0
  6
Continuous
 62
     7
370
    25
100
AcDbCircle
 10
0.0
 20
-134.5
 30
0.0
 40
1.916987298107737
  0
CIRCLE
  5
82
330
1F
100
AcDbEntity
  8
0
  6
Continuous
 62
     7
370
    25
100
AcDbCircle
 10
0.0
 20
-134.5
 30
0.0
 40
2.349999999999943
  0
CIRCLE
  5
83
330
1F
100
AcDbEntity
  8
0
  6
Continuous
 62
     7
370
    25
100
AcDbCircle
 10
95.1058620696
 20
95.1058620696
 30
0.0
 40
2.349999999999923
  0
CIRCLE
  5
84
330
1F
100
AcDbEntity
  8
0
  6
Continuous
 62
     7
370
    25
100
AcDbCircle
 10
95.1058620696
 20
95.1058620696
 30
0.0
 40
1.916987298107742
  0
SPLINE
  5
85
330
1F
100
AcDbEntity
  8
0
  6
Continuous
 62
     7
370
    25
100
AcDbSpline
210
0.0
220
0.0
230
1.0
 70
     8
 71
     3
 72
    74
 73
    70
 74
     0
 42
0.000000001
 43
0.00000001
 40
0.0
 40
0.0
 40
0.0
 40
0.0
 40
0.0624999999999982
 40
0.0624999999999982
 40
0.0937499999999976
 40
0.0937499999999976
 40
0.124999999999997
 40
0.124999999999997
 40
0.1406249999999964
 40
0.1406249999999964
 40
0.1562499999999959
 40
0.1562499999999959
 40
0.1874999999999954
 40
0.1874999999999954
 40
0.2187499999999948
 40
0.2187499999999948
 40
0.2343749999999949
 40
0.2343749999999949
 40
0.2499999999999949
 40
0.2499999999999949
 40
0.2812499999999947
 40
0.2812499999999947
 40
0.2968749999999943
 40
0.2968749999999943
 40
0.3124999999999938
 40
0.3124999999999938
 40
0.374999999999992
 40
0.374999999999992
 40
0.4062499999999911
 40
0.4062499999999911
 40
0.4374999999999902
 40
0.4374999999999902
 40
0.4687499999999892
 40
0.4687499999999892
 40
0.4999999999999883
 40
0.4999999999999883
 40
0.5312499999999875
 40
0.5312499999999875
 40
0.5624999999999865
 40
0.5624999999999865
 40
0.5937499999999856
 40
0.5937499999999856
 40
0.609374999999985
 40
0.609374999999985
 40
0.6249999999999845
 40
0.6249999999999845
 40
0.6562499999999841
 40
0.6562499999999841
 40
0.6718749999999843
 40
0.6718749999999843
 40
0.6874999999999845
 40
0.6874999999999845
 40
0.7499999999999869
 40
0.7499999999999869
 40
0.7812499999999886
 40
0.7812499999999886
 40
0.8124999999999901
 40
0.8124999999999901
 40
0.8437499999999918
 40
0.8437499999999918
 40
0.8749999999999934
 40
0.8749999999999934
 40
0.9062499999999951
 40
0.9062499999999951
 40
0.9374999999999967
 40
0.9374999999999967
 40
0.9687499999999983
 40
0.9687499999999983
 40
1.0
 40
1.0
 40
1.0
 40
1.0
 10
107.1317312793516
 20
93.68659457762787
 30
0.0
 10
106.9778099878265
 20
92.55749054312814
 30
0.0
 10
106.672602899238
 20
91.47530128552923
 30
0.0
 10
105.9956309376059
 20
89.91953436315193
 30
0.0
 10
105.7312909047626
 20
89.41084161453031
 30
0.0
 10
105.143424610738
 20
88.44667147579185
 30
0.0
 10
104.8185264184827
 20
87.98728569886555
 30
0.0
 10
104.2851691037217
 20
87.33192572581397
 30
0.0
 10
104.0996877903883
 20
87.11911220040784
 30
0.0
 10
103.7130735668991
 20
86.70495500766009
 30
0.0
 10
103.5111393923254
 20
86.50288689703919
 30
0.0
 10
102.8877182192037
 20
85.92045948971678
 30
0.0
 10
102.4498826151092
 20
85.56436674756385
 30
0.0
 10
101.5311137713448
 20
84.914603831379
 30
0.0
 10
101.0501798243443
 20
84.62093474421353
 30
0.0
 10
100.2955666873757
 20
84.2285134579654
 30
0.0
 10
100.0375537044302
 20
84.10539608348154
 30
0.0
 10
99.51726151015605
 20
83.87879016122633
 30
0.0
 10
99.25447338218416
 20
83.77495862881233
 30
0.0
 10
98.45831856319562
 20
83.4913474681983
 30
0.0
 10
97.91719898459971
 20
83.339318664597
 30
0.0
 10
97.08984377677595
 20
83.1671774416172
 30
0.0
 10
96.81143676217285
 20
83.11914693831008
 30
0.0
 10
96.24923480015954
 20
83.04226050136916
 30
0.0
 10
95.9651160108965
 20
83.01347171491682
 30
0.0
 10
94.55289105641148
 20
82.92002342915467
 30
0.0
 10
93.4324027033511
 20
83.00101460943023
 30
0.0
 10
91.76540427679622
 20
83.36288495499359
 30
0.0
 10
91.22046178490699
 20
83.52271989044499
 30
0.0
 10
90.16603906149841
 20
83.91452281659915
 30
0.0
 10
89.6541497737162
 20
84.14700110519784
 30
0.0
 10
88.66153300909257
 20
84.68646656190224
 30
0.0
 10
88.17801573624
 20
84.99612121880317
 30
0.0
 10
87.27246716906626
 20
85.67276889578831
 30
0.0
 10
86.84710738331981
 20
86.04098512823391
 30
0.0
 10
86.05059903045554
 20
86.83653056415673
 30
0.0
 10
85.67798551866788
 20
87.2658291867234
 30
0.0
 10
84.99599250261451
 20
88.17784719350917
 30
0.0
 10
84.69172323193968
 20
88.65311446782357
 30
0.0
 10
84.15367759640593
 20
89.64063881855053
 30
0.0
 10
83.91990886092623
 20
90.15289979824894
 30
0.0
 10
83.62312527704925
 20
90.94958977470462
 30
0.0
 10
83.53295588770195
 20
91.22091631113793
 30
0.0
 10
83.37335885707745
 20
91.76539471236052
 30
0.0
 10
83.3036421699555
 20
92.0390973271995
 30
0.0
 10
83.12396047991581
 20
92.86449858151481
 30
0.0
 10
83.04332336318882
 20
93.42046982694471
 30
0.0
 10
82.98067260981455
 20
94.26299044398034
 30
0.0
 10
82.96954190730708
 20
94.54526316692026
 30
0.0
 10
82.96715336482123
 20
95.11273997099651
 30
0.0
 10
82.97600381633956
 20
95.39813406377505
 30
0.0
 10
83.06919212241503
 20
96.81018221310632
 30
0.0
 10
83.29695855895417
 20
97.91060842508693
 30
0.0
 10
83.86846181665194
 20
99.51795655867909
 30
0.0
 10
84.09549876329494
 20
100.0388131775564
 30
0.0
 10
84.61411282569712
 20
101.0380154167645
 30
0.0
 10
84.90649802656975
 20
101.5186503380999
 30
0.0
 10
85.55791233023189
 20
102.4417356746879
 30
0.0
 10
85.91985048922115
 20
102.8867921969827
 30
0.0
 10
86.6920231421193
 20
103.7138600377889
 30
0.0
 10
87.10336753118654
 20
104.0983414199316
 30
0.0
 10
87.97585695932692
 20
104.8100235073506
 30
0.0
 10
88.43753609962305
 20
105.1375613799275
 30
0.0
 10
89.4106903687964
 20
105.7314891838609
 30
0.0
 10
89.91202009770373
 20
105.9917872613681
 30
0.0
 10
90.94319439526977
 20
106.4416257858329
 30
0.0
 10
91.47304049351351
 20
106.6311620395523
 30
0.0
 10
92.56195722832153
 20
106.937869105015
 30
0.0
 10
93.1220584584314
 20
107.0547728008373
 30
0.0
 10
93.68659457762807
 20
107.1317312793515
 30
0.0
  0
SPLINE
  5
88
330
1F
100
AcDbEntity
  8
0
  6
Continuous
 62
     7
370
    25
100
AcDbSpline
210
0.0
220
0.0
230
1.0
 70
     8
 71
     3
 72
    74
 73
    70
 74
     0
 42
0.000000001
 43
0.00000001
 40
0.0
 40
0.0
 40
0.0
 40
0.0
 40
0.0624999999999988
 40
0.0624999999999988
 40
0.0937499999999982
 40
0.0937499999999982
 40
0.1249999999999976
 40
0.1249999999999976
 40
0.1406249999999965
 40
0.1406249999999965
 40
0.1562499999999955
 40
0.1562499999999955
 40
0.1874999999999933
 40
0.1874999999999933
 40
0.2187499999999912
 40
0.2187499999999912
 40
0.2343749999999908
 40
0.2343749999999908
 40
0.2499999999999905
 40
0.2499999999999905
 40
0.2812499999999912
 40
0.2812499999999912
 40
0.2968749999999916
 40
0.2968749999999916
 40
0.312499999999992
 40
0.312499999999992
 40
0.3749999999999921
 40
0.3749999999999921
 40
0.4062499999999923
 40
0.4062499999999923
 40
0.4374999999999926
 40
0.4374999999999926
 40
0.4687499999999928
 40
0.4687499999999928
 40
0.499999999999993
 40
0.499999999999993
 40
0.5312499999999933
 40
0.5312499999999933
 40
0.5624999999999936
 40
0.5624999999999936
 40
0.5937499999999939
 40
0.5937499999999939
 40
0.6093749999999941
 40
0.6093749999999941
 40
0.6249999999999944
 40
0.6249999999999944
 40
0.6562499999999953
 40
0.6562499999999953
 40
0.6718749999999957
 40
0.6718749999999957
 40
0.6874999999999959
 40
0.6874999999999959
 40
0.7499999999999967
 40
0.7499999999999967
 40
0.7812499999999971
 40
0.7812499999999971
 40
0.8124999999999976
 40
0.8124999999999976
 40
0.843749999999998
 40
0.843749999999998
 40
0.8749999999999983
 40
0.8749999999999983
 40
0.9062499999999988
 40
0.9062499999999988
 40
0.9374999999999992
 40
0.9374999999999992
 40
0.9687499999999996
 40
0.9687499999999996
 40
1.0
 40
1.0
 40
1.0
 40
1.0
 10
-9.507147335768309
 20
-142.0
 30
0.0
 10
-10.19670566622173
 20
-141.0927640915338
 30
0.0
 10
-10.74611502678999
 20
-140.1117267269512
 30
0.0
 10
-11.36751690280549
 20
-138.5329419214493
 30
0.0
 10
-11.54030036513364
 20
-137.986325199596
 30
0.0
 10
-11.80638736551741
 20
-136.8888697133408
 30
0.0
 10
-11.90148444862361
 20
-136.3342972003566
 30
0.0
 10
-11.98775335562372
 20
-135.4937471452306
 30
0.0
 10
-12.00708014812518
 20
-135.2121101638464
 30
0.0
 10
-12.02655596846187
 20
-134.6458792652449
 30
0.0
 10
-12.02665067554915
 20
-134.360206509769
 30
0.0
 10
-11.99766370576605
 20
-133.5075428014528
 30
0.0
 10
-11.93986277377366
 20
-132.9461506840451
 30
0.0
 10
-11.74964685820271
 20
-131.8370312400785
 30
0.0
 10
-11.61723060593545
 20
-131.2893041818921
 30
0.0
 10
-11.36112229220051
 20
-130.4782283629812
 30
0.0
 10
-11.26573669270503
 20
-130.2087285027269
 30
0.0
 10
-11.05806913821906
 20
-129.6805917796735
 30
0.0
 10
-10.94566985158574
 20
-129.4213525316983
 30
0.0
 10
-10.58324675509496
 20
-128.6578426854268
 30
0.0
 10
-10.30811802959918
 20
-128.1677127640068
 30
0.0
 10
-9.844811777787745
 20
-127.4609620600138
 30
0.0
 10
-9.681910984424281
 20
-127.2301358774658
 30
0.0
 10
-9.338741085630515
 20
-126.7782321367876
 30
0.0
 10
-9.158195509202688
 20
-126.5569730681146
 30
0.0
 10
-8.22567958387818
 20
-125.4923013096848
 30
0.0
 10
-7.376105258399574
 20
-124.7572658097844
 30
0.0
 10
-5.941478391497168
 20
-123.8344008933984
 30
0.0
 10
-5.44312549339742
 20
-123.5620887287551
 30
0.0
 10
-4.420489529465741
 20
-123.0935457767681
 30
0.0
 10
-3.894142168511465
 20
-122.8959723645073
 30
0.0
 10
-2.81079644047507
 20
-122.575546001774
 30
0.0
 10
-2.249939190299623
 20
-122.4526065670398
 30
0.0
 10
-1.131157496886984
 20
-122.2907491953678
 30
0.0
 10
-0.5700145130364334
 20
-122.2503426013277
 30
0.0
 10
0.5557375170286011
 20
-122.2496617162287
 30
0.0
 10
1.122775025146287
 20
-122.2897441424528
 30
0.0
 10
2.249911028681932
 20
-122.4523963732421
 30
0.0
 10
2.801126605826515
 20
-122.573310221185
 30
0.0
 10
3.87986748828607
 20
-122.8911396686971
 30
0.0
 10
4.407390158855138
 20
-123.0880634230921
 30
0.0
 10
5.180592728414555
 20
-123.4415506232429
 30
0.0
 10
5.436208948905286
 20
-123.5696480704077
 30
0.0
 10
5.934065461231177
 20
-123.84180029751
 30
0.0
 10
6.176899578438113
 20
-123.9860401302654
 30
0.0
 10
6.887600544046454
 20
-124.4426328129095
 30
0.0
 10
7.33775063388762
 20
-124.7787447986447
 30
0.0
 10
7.977803448040318
 20
-125.3301960676827
 30
0.0
 10
8.18527099979752
 20
-125.5219224289951
 30
0.0
 10
8.588226650714798
 20
-125.9215001707345
 30
0.0
 10
8.783772534743894
 20
-126.129562483334
 30
0.0
 10
9.716347273344635
 20
-127.1939253882413
 30
0.0
 10
10.33341091822798
 20
-128.1330994167316
 30
0.0
 10
11.0658638542302
 20
-129.6737800107105
 30
0.0
 10
11.27362573691305
 20
-130.2026206224957
 30
0.0
 10
11.61345289569062
 20
-131.2758788219597
 30
0.0
 10
11.74656554958629
 20
-131.8224865923666
 30
0.0
 10
11.93866597922007
 20
-132.9358259649632
 30
0.0
 10
11.99743953755458
 20
-133.5064573764807
 30
0.0
 10
12.03625629717883
 20
-134.6372911743271
 30
0.0
 10
12.01726128281941
 20
-135.2000249737925
 30
0.0
 10
11.90355332173074
 20
-136.3202033950071
 30
0.0
 10
11.8087011216895
 20
-136.8782640966374
 30
0.0
 10
11.54054751651294
 20
-137.986358457207
 30
0.0
 10
11.37011240132736
 20
-138.5249106438629
 30
0.0
 10
10.95904593402115
 20
-139.5721448533452
 30
0.0
 10
10.71841053525339
 20
-140.0808249926841
 30
0.0
 10
10.1653047737497
 20
-141.0676800458408
 30
0.0
 10
9.851916791849792
 20
-141.5463948198642
 30
0.0
 10
9.50714733576829
 20
-142.0
 30
0.0
  0
SPLINE
  5
8B
330
1F
100
AcDbEntity
  8
0
  6
Continuous
 62
     7
370
    25
100
AcDbSpline
210
0.0
220
0.0
230
1.0
 70
     8
 71
     3
 72
    30
 73
    26
 74
     0
 42
0.000000001
 43
0.00000001
 40
0.0
 40
0.0
 40
0.0
 40
0.0
 40
0.0625000000000009
 40
0.0625000000000009
 40
0.1250000000000018
 40
0.1250000000000018
 40
0.250000000000003
 40
0.250000000000003
 40
0.3750000000000042
 40
0.3750000000000042
 40
0.4375000000000041
 40
0.4375000000000041
 40
0.5000000000000041
 40
0.5000000000000041
 40
0.562500000000004
 40
0.562500000000004
 40
0.625000000000004
 40
0.625000000000004
 40
0.7500000000000032
 40
0.7500000000000032
 40
0.8750000000000023
 40
0.8750000000000023
 40
0.9375000000000012
 40
0.9375000000000012
 40
1.0
 40
1.0
 40
1.0
 40
1.0
 10
93.68659457762804
 20
107.1317312793514
 30
0.0
 10
94.11353186671624
 20
107.0814853380827
 30
0.0
 10
94.53326643178501
 20
107.0036632764723
 30
0.0
 10
95.36119811774822
 20
106.8018487046703
 30
0.0
 10
95.77124748500883
 20
106.6769959777682
 30
0.0
 10
96.96519892058991
 20
106.249355496888
 30
0.0
 10
97.7195376425521
 20
105.8938243715948
 30
0.0
 10
99.16924988890425
 20
105.0729022862507
 30
0.0
 10
99.85300958993494
 20
104.6139317048261
 30
0.0
 10
100.8389855456536
 20
103.8550277720177
 30
0.0
 10
101.1610091779862
 20
103.5900909502836
 30
0.0
 10
101.7971065340633
 20
103.0313611346519
 30
0.0
 10
102.1103823816752
 20
102.7379843151659
 30
0.0
 10
102.7168037097746
 20
102.1324821993449
 30
0.0
 10
103.0114897269535
 20
101.8187369937875
 30
0.0
 10
103.5708265048796
 20
101.1838665651317
 30
0.0
 10
103.8381643260612
 20
100.8600030854273
 30
0.0
 10
104.6038114972798
 20
99.8678665894992
 30
0.0
 10
105.064126231865
 20
99.18284171217803
 30
0.0
 10
105.8846018296626
 20
97.73768913366257
 30
0.0
 10
106.2456830759644
 20
96.97376487829612
 30
0.0
 10
106.6744089003188
 20
95.77930110802262
 30
0.0
 10
106.7992375471217
 20
95.37086897040045
 30
0.0
 10
107.0032068595176
 20
94.53616454915725
 30
0.0
 10
107.0814126684681
 20
94.11414933685535
 30
0.0
 10
107.1317312793516
 20
93.68659457762789
 30
0.0
  0
SPLINE
  5
8C
330
1F
100
AcDbEntity
  8
0
  6
Continuous
 62
     7
370
    25
100
AcDbSpline
210
0.0
220
0.0
230
1.0
 70
     8
 71
     3
 72
    30
 73
    26
 74
     0
 42
0.000000001
 43
0.00000001
 40
0.0
 40
0.0
 40
0.0
 40
0.0
 40
0.0625
 40
0.0625
 40
0.125
 40
0.125
 40
0.2500000000000001
 40
0.2500000000000001
 40
0.3750000000000001
 40
0.3750000000000001
 40
0.4375000000000001
 40
0.4375000000000001
 40
0.5000000000000001
 40
0.5000000000000001
 40
0.5625000000000001
 40
0.5625000000000001
 40
0.6250000000000001
 40
0.6250000000000001
 40
0.7500000000000007
 40
0.7500000000000007
 40
0.8750000000000011
 40
0.8750000000000011
 40
0.9375000000000006
 40
0.9375000000000006
 40
1.0
 40
1.0
 40
1.0
 40
1.0
 10
9.50714733576829
 20
-142.0
 30
0.0
 10
9.169727837714408
 20
-142.2663610064575
 30
0.0
 10
8.817902172965338
 20
-142.5081296562253
 30
0.0
 10
8.089761611198092
 20
-142.9508613134656
 30
0.0
 10
7.711528713144753
 20
-143.1525257918346
 30
0.0
 10
6.564890072697841
 20
-143.6943894644012
 30
0.0
 10
5.780093577469107
 20
-143.9763890203945
 30
0.0
 10
4.174512643931757
 20
-144.4210108071866
 30
0.0
 10
3.366480312140437
 20
-144.579960717997
 30
0.0
 10
2.132663910606972
 20
-144.7405248852146
 30
0.0
 10
1.717620193248101
 20
-144.7808913561051
 30
0.0
 10
0.8727497977869397
 20
-144.8355984685978
 30
0.0
 10
0.4437815830570999
 20
-144.8496692063247
 30
0.0
 10
-0.4131777024179578
 20
-144.85031918756
 30
0.0
 10
-0.8434035459003661
 20
-144.8368423062137
 30
0.0
 10
-1.687835559816185
 20
-144.7834319495749
 30
0.0
 10
-2.105878008718913
 20
-144.7434622731224
 30
0.0
 10
-3.348818759617296
 20
-144.5833101357541
 30
0.0
 10
-4.158696165957785
 20
-144.4244160700241
 30
0.0
 10
-5.760737213075975
 20
-143.9827027409073
 30
0.0
 10
-6.5562362321777
 20
-143.6978497174441
 30
0.0
 10
-7.704004601690455
 20
-143.156391223273
 30
0.0
 10
-8.081076918498194
 20
-142.9558532717465
 30
0.0
 10
-8.81553015899475
 20
-142.5098561991481
 30
0.0
 10
-9.169239835214366
 20
-142.2667462386027
 30
0.0
 10
-9.507147335768309
 20
-142.0
 30
0.0
  0
LINE
  5
98
330
1F
100
AcDbEntity
  8
0
  6
Continuous
 62
     7
370
    25
100
AcDbLine
 10
25.1022907321
 20
175.7160351249
 30
0.0
 11
-75.3068721964
 21
75.3068721964
 31
0.0
  0
LINE
  5
99
330
1F
100
AcDbEntity
  8
0
  6
Continuous
 62
     7
370
    25
100
AcDbLine
 10
109.4289321881
 20
-41.1848122046
 30
0.0
 11
175.7160351249
 21
25.1022907321
 31
0.0
  0
LINE
  5
9A
330
1F
100
AcDbEntity
  8
0
  6
Continuous
 62
     7
370
    25
100
AcDbLine
 10
-106.5
 20
0.0
 30
0.0
 11
-106.5
 21
-142.0
 31
0.0
  0
LINE
  5
9B
330
1F
100
AcDbEntity
  8
0
  6
Continuous
 62
     7
370
    25
100
AcDbLine
 10
106.5
 20
-142.0
 30
0.0
 11
106.5
 21
-48.2558800165
 31
0.0
  0
LINE
  5
9C
330
1F
100
AcDbEntity
  8
0
  6
Continuous
 62
     7
370
    25
100
AcDbLine
 10
29.3449314192
 20
175.7160351249
 30
0.0
 11
175.7160351249
 21
29.3449314192
 31
0.0
  0
LINE
  5
9D
330
1F
100
AcDbEntity
  8
0
  6
Continuous
 62
     7
370
    25
100
AcDbLine
 10
103.5
 20
-145.0
 30
0.0
 11
-103.5
 21
-145.0
 31
0.0
  0
LINE
  5
9E
330
1F
100
AcDbEntity
  8
0
  6
Continuous
 62
     8
370
    25
100
AcDbLine
 10
93.6865945776
 20
107.1317312794
 30
0.0
 11
25.1022907321
 21
175.7160351249
 31
0.0
  0
LINE
  5
9F
330
1F
100
AcDbEntity
  8
0
  6
Continuous
 62
     8
370
    25
100
AcDbLine
 10
175.7160351249
 20
25.1022907321
 30
0.0
 11
107.1317312794
 21
93.6865945776
 31
0.0
  0
LINE
  5
A0
330
1F
100
AcDbEntity
  8
0
  6
Continuous
 62
     8
370
    25
100
AcDbLine
 10
0.0
 20
0.0
 30
0.0
 11
109.4289321881
 21
-41.1848122046
 31
0.0
  0
LINE
  5
A1
330
1F
100
AcDbEntity
  8
0
  6
Continuous
 62
     8
370
    25
100
AcDbLine
 10
-75.3068721964
 20
75.3068721964
 30
0.0
 11
0.0
 21
0.0
 31
0.0
  0
LINE
  5
A2
330
1F
100
AcDbEntity
  8
0
  6
Continuous
 62
     8
370
    25
100
AcDbLine
 10
9.5071473358
 20
-142.0
 30
0.0
 11
106.5
 21
-142.0
 31
0.0
  0
LINE
  5
A3
330
1F
100
AcDbEntity
  8
0
  6
Continuous
 62
     8
370
    25
100
AcDbLine
 10
-106.5
 20
-142.0
 30
0.0
 11
-9.5071473358
 21
-142.0
 31
0.0
  0
LINE
  5
A4
330
1F
100
AcDbEntity
  8
0
  6
Continuous
 62
     8
370
    25
100
AcDbLine
 10
106.5
 20
-48.2558800165
 30
0.0
 11
0.0
 21
0.0
 31
0.0
  0
LINE
  5
A5
330
1F
100
AcDbEntity
  8
0
  6
Continuous
 62
     8
370
    25
100
AcDbLine
 10
-106.5
 20
0.0
 30
0.0
 11
0.0
 21
0.0
 31
0.0
  0
ARC
  5
A6
330
1F
100
AcDbEntity
  8
0
  6
Continuous
 62
     7
370
    25
100
AcDbCircle
 10
27.2236110757
 20
173.5947147813
 30
0.0
 40
3.000000000000042
100
AcDbArc
 50
45.0
 51
135.0
  0
ARC
  5
A7
330
1F
100
AcDbEntity
  8
0
  6
Continuous
 62
     7
370
    25
100
AcDbCircle
 10
173.5947147813
 20
27.2236110757
 30
0.0
 40
3.000000000000019
100
AcDbArc
 50
315.0
 51
45.0
  0
ARC
  5
A8
330
1F
100
AcDbEntity
  8
0
  6
Continuous
 62
     7
370
    25
100
AcDbCircle
 10
-103.5
 20
-142.0
 30
0.0
 40
3.000000000000057
100
AcDbArc
 50
180.0
 51
270.0
  0
ARC
  5
A9
330
1F
100
AcDbEntity
  8
0
  6
Continuous
 62
     7
370
    25
100
AcDbCircle
 10
103.5
 20
-142.0
 30
0.0
 40
3.000000000000057
100
AcDbArc
 50
270.0
 51
0.0
  0
ARC
  5
AA
330
1F
100
AcDbEntity
  8
0
  6
Continuous
 62
     7
370
    25
100
AcDbCircle
 10
116.5
 20
-48.2558800165
 30
0.0
 40
10.00000000000002
100
AcDbArc
 50
135.2216684997
 51
179.6399943165
  0
ARC
  5
AB
330
1F
100
AcDbEntity
  8
0
  6
Continuous
 62
     7
370
    25
100
AcDbCircle
 10
0.0
 20
0.0
 30
0.0
 40
106.4999999999996
100
AcDbArc
 50
135.0
 51
180.0
  0
ARC
  5
AC
330
1F
100
AcDbEntity
  8
0
  6
Continuous
 62
     7
370
    25
100
AcDbCircle
 10
85.4592020848
 20
105.6401900523
 30
0.0
 40
8.361500012703107
100
AcDbArc
 50
357.4896529274
 51
10.2755309661
  0
ARC
  5
AD
330
1F
100
AcDbEntity
  8
0
  6
Continuous
 62
     7
370
    25
100
AcDbCircle
 10
105.6401900523
 20
85.4592020848
 30
0.0
 40
8.361500012700779
100
AcDbArc
 50
79.7244690339
 51
92.5103470726
  0
ARC
  5
AE
330
1F
100
AcDbEntity
  8
0
  6
Continuous
 62
     7
370
    25
100
AcDbCircle
 10
14.2701134429
 20
-135.1276760608
 30
0.0
 40
8.361500012702255
100
AcDbArc
 50
222.4896529274
 51
235.2755309661
  0
ARC
  5
AF
330
1F
100
AcDbEntity
  8
0
  6
Continuous
 62
     7
370
    25
100
AcDbCircle
 10
-14.2701134429
 20
-135.1276760608
 30
0.0
 40
8.361500012702644
100
AcDbArc
 50
304.7244690339
 51
317.5103470726
  0
SPLINE
  5
B0
330
1B
100
AcDbEntity
 67
     1
  8
0
  6
Continuous
 62
     7
370
    25
100
AcDbSpline
210
0.0
220
0.0
230
1.0
 70
     8
 71
     3
 72
    63
 73
    59
 74
     0
 42
0.000000001
 43
0.00000001
 40
0.0
 40
0.0
 40
0.0
 40
0.0
 40
0.0034275727965705
 40
0.0213372711081794
 40
0.0392589994375956
 40
0.0571987699276096
 40
0.0751611843627325
 40
0.0931492225566932
 40
0.111164218955305
 40
0.1292060040913934
 40
0.1472731657049546
 40
0.1653633747068202
 40
0.1834737235228937
 40
0.2016010355137841
 40
0.2197421194790326
 40
0.2378939583549637
 40
0.256053833166604
 40
0.2742193909211065
 40
0.2923886686656378
 40
0.3105600863842294
 40
0.3287323291480387
 40
0.3469043408772559
 40
0.3650755745112926
 40
0.3832457020469308
 40
0.4014145759572409
 40
0.4195821948474303
 40
0.4377486735973259
 40
0.4559142177757087
 40
0.4740791018290612
 40
0.4922436503971408
 40
0.5104082220388086
 40
0.5285731946273655
 40
0.5467388262075709
 40
0.5649054949097003
 40
0.5830735635939628
 40
0.6012433630351354
 40
0.6194151751913366
 40
0.6375892138635199
 40
0.6557656019842217
 40
0.6739443448291753
 40
0.6921252985797613
 40
0.7103081339306949
 40
0.7284922949056709
 40
0.7466767155268691
 40
0.7648600373942123
 40
0.7830406245262241
 40
0.8012164316172815
 40
0.8193849903510534
 40
0.8375434268300432
 40
0.8556885236489861
 40
0.873816840137939
 40
0.8919249010606497
 40
0.9100094563916072
 40
0.9280678022519985
 40
0.946098136747914
 40
0.9640999074801799
 40
0.9820740948572607
 40
1.0
 40
1.0
 40
1.0
 40
1.0
 10
107.848265389317
 20
-105.9700421881028
 30
0.0
 10
108.1060917076195
 20
-105.9421401335912
 30
0.0
 10
109.7111079622561
 20
-105.7684447121007
 30
0.0
 10
112.642013792233
 20
-105.1581949589135
 30
0.0
 10
116.625502100992
 20
-104.12578915568
 30
0.0
 10
120.5613812681119
 20
-102.7733213334855
 30
0.0
 10
124.4412748701845
 20
-101.1378893125723
 30
0.0
 10
128.2538280039943
 20
-99.21459512091539
 30
0.0
 10
131.9884827269565
 20
-97.01083782883865
 30
0.0
 10
135.6345232710439
 20
-94.53181046213396
 30
0.0
 10
139.1814193910283
 20
-91.78443579696726
 30
0.0
 10
142.6188362873501
 20
-88.77631731610349
 30
0.0
 10
145.9367357876189
 20
-85.51599583991094
 30
0.0
 10
149.1254439550131
 20
-82.01282880741097
 30
0.0
 10
152.1757119021742
 20
-78.27695286822747
 30
0.0
 10
155.078760041703
 20
-74.31921496827718
 30
0.0
 10
157.826309151259
 20
-70.15111008869437
 30
0.0
 10
160.4106001906568
 20
-65.78472042595487
 30
0.0
 10
162.8244060682523
 20
-61.23266010912869
 30
0.0
 10
165.0610344461108
 20
-56.50803302567025
 30
0.0
 10
167.1143308144203
 20
-51.6243943704002
 30
0.0
 10
168.9786918204682
 20
-46.59568955809554
 30
0.0
 10
170.6490679053982
 20
-41.43620588701609
 30
0.0
 10
172.120963466258
 20
-36.16052847167972
 30
0.0
 10
173.3904309945398
 20
-30.78352657689114
 30
0.0
 10
174.4540749377323
 20
-25.32031752327399
 30
0.0
 10
175.3090556764472
 20
-19.78623003291391
 30
0.0
 10
175.9530933147145
 20
-14.19676684599282
 30
0.0
 10
176.3844709929117
 20
-8.567566571234227
 30
0.0
 10
176.6020374665922
 20
-2.914364836993288
 30
0.0
 10
176.6052087436831
 20
2.747045112261936
 30
0.0
 10
176.3939691133183
 20
8.40083917526762
 30
0.0
 10
175.968872214147
 20
14.03121579384559
 30
0.0
 10
175.3310390009345
 20
19.6224369588967
 30
0.0
 10
174.4821516697723
 20
25.15888102794386
 30
0.0
 10
173.4244496099908
 20
30.62506875384818
 30
0.0
 10
172.1607239648206
 20
36.00570108778324
 30
0.0
 10
170.6943114270985
 20
41.28569614467474
 30
0.0
 10
169.0290875773825
 20
46.45022497330638
 30
0.0
 10
167.1694601295842
 20
51.48474605120499
 30
0.0
 10
165.1203625131517
 20
56.37503853516079
 30
0.0
 10
162.8872482681055
 20
61.10723444685536
 30
0.0
 10
160.4760972568853
 20
65.66783027208214
 30
0.0
 10
157.8934159574541
 20
70.04372494004751
 30
0.0
 10
155.1462355906346
 20
74.22226376064754
 30
0.0
 10
152.2421013536378
 20
78.1912920449745
 30
0.0
 10
149.1890742401682
 20
81.9391903560166
 30
0.0
 10
145.9957365083157
 20
85.45491227864305
 30
0.0
 10
142.6711892415905
 20
88.72803843071071
 30
0.0
 10
139.2250426647323
 20
91.74883212931164
 30
0.0
 10
135.6673973508163
 20
94.50832241700769
 30
0.0
 10
132.0088036437656
 20
96.99831248957994
 30
0.0
 10
128.2602271727438
 20
99.21167775810285
 30
0.0
 10
124.4329024057477
 20
101.1415703761087
 30
0.0
 10
120.5385108115595
 20
102.7846458395453
 30
0.0
 10
116.5880715631621
 20
104.1292230209908
 30
0.0
 10
112.5973107873785
 20
105.1989548533976
 30
0.0
 10
109.9096934851227
 20
105.6599548296061
 30
0.0
 10
108.5676921297328
 20
105.8901448169928
 30
0.0
  0
SPLINE
  5
B4
330
1B
100
AcDbEntity
 67
     1
  8
0
  6
Continuous
 62
     7
370
    25
100
AcDbSpline
210
0.0
220
0.0
230
1.0
 70
     8
 71
     3
 72
    14
 73
    10
 74
     0
 42
0.000000001
 43
0.00000001
 40
0.0
 40
0.0
 40
0.0
 40
0.0
 40
0.0704065864238932
 40
0.2554177771600027
 40
0.409203302577712
 40
0.5662669329120423
 40
0.7522751613112683
 40
0.9525118495450217
 40
1.0
 40
1.0
 40
1.0
 40
1.0
 10
83.62745559757786
 20
-106.3583467981345
 30
0.0
 10
83.6218621289613
 20
-106.3571453520055
 30
0.0
 10
83.60157040068378
 20
-106.3527868009774
 30
0.0
 10
83.7014871024582
 20
-106.3796321970401
 30
0.0
 10
83.95272085354844
 20
-106.4977506886204
 30
0.0
 10
84.33697754007224
 20
-106.7855212726776
 30
0.0
 10
84.68859623163604
 20
-107.2920219476854
 30
0.0
 10
84.87773210635034
 20
-107.8016785108467
 30
0.0
 10
84.83891848435059
 20
-108.0945529134002
 30
0.0
 10
84.83147802286526
 20
-108.1506961074638
 30
0.0
  0
SPLINE
  5
B5
330
1B
100
AcDbEntity
 67
     1
  8
0
  6
Continuous
 62
     7
370
    25
100
AcDbSpline
210
0.0
220
0.0
230
1.0
 70
     8
 71
     3
 72
    12
 73
     8
 74
     0
 42
0.000000001
 43
0.00000001
 40
0.0
 40
0.0
 40
0.0
 40
0.0
 40
0.1986202289855551
 40
0.4393519845346099
 40
0.694899606549958
 40
0.9549276880208495
 40
1.0
 40
1.0
 40
1.0
 40
1.0
 10
105.3611227646492
 20
-107.9992201586958
 30
0.0
 10
105.3728380644855
 20
-107.832087020995
 30
0.0
 10
105.3987525458996
 20
-107.4623851225259
 30
0.0
 10
105.696858467887
 20
-106.8528739964801
 30
0.0
 10
106.2244481597515
 20
-106.3631723136591
 30
0.0
 10
106.733267231733
 20
-106.1184121655745
 30
0.0
 10
107.0130634759426
 20
-106.1115679388124
 30
0.0
 10
107.0543976199829
 20
-106.1105568449872
 30
0.0
  0
SPLINE
  5
B8
330
1B
100
AcDbEntity
 67
     1
  8
0
  6
Continuous
 62
     7
370
    25
100
AcDbSpline
210
0.0
220
0.0
230
1.0
 70
     8
 71
     3
 72
    10
 73
     6
 74
     0
 42
0.000000001
 43
0.00000001
 40
0.0
 40
0.0
 40
0.0
 40
0.0
 40
0.4545491944792939
 40
0.84165668085285
 40
0.9999999999999999
 40
0.9999999999999999
 40
0.9999999999999999
 40
0.9999999999999999
 10
10.25754019846345
 20
-107.8396613364332
 30
0.0
 10
10.27323358132602
 20
-107.6173984517231
 30
0.0
 10
10.30229191140753
 20
-107.2058499458764
 30
0.0
 10
10.5191464121366
 20
-106.7510250425302
 30
0.0
 10
10.70082401004387
 20
-106.5564769398194
 30
0.0
 10
10.75356466708599
 20
-106.5000000000015
 30
0.0
  0
SPLINE
  5
B9
330
1B
100
AcDbEntity
 67
     1
  8
0
  6
Continuous
 62
     7
370
    25
100
AcDbSpline
210
0.0
220
0.0
230
1.0
 70
     8
 71
     3
 72
    17
 73
    13
 74
     0
 42
0.000000001
 43
0.00000001
 40
0.0
 40
0.0
 40
0.0
 40
0.0
 40
0.0087884467501731
 40
0.0141304842915484
 40
0.0203966114167567
 40
0.037243031848701
 40
0.0928230424273798
 40
0.2488820409604016
 40
0.4022480709821867
 40
0.6202590184076435
 40
0.8446444933591082
 40
1.0
 40
1.0
 40
1.0
 40
1.0
 10
-12.00626241843027
 20
-105.8211634094519
 30
0.0
 10
-12.00448533789784
 20
-105.8213804233281
 30
0.0
 10
-12.00162806297063
 20
-105.8217293485996
 30
0.0
 10
-11.99042690003382
 20
-105.8231569373476
 30
0.0
 10
-11.96647358645282
 20
-105.8263622704673
 30
0.0
 10
-11.88967248461825
 20
-105.8379012303015
 30
0.0
 10
-11.67303993917803
 20
-105.8824419666457
 30
0.0
 10
-11.33598779500269
 20
-106.0080706031061
 30
0.0
 10
-10.90326852387981
 20
-106.2930644527645
 30
0.0
 10
-10.52259647748088
 20
-106.7389809774236
 30
0.0
 10
-10.27210013091329
 20
-107.2862721556112
 30
0.0
 10
-10.2779928586992
 20
-107.6590603729351
 30
0.0
 10
-10.28040362749966
 20
-107.8115714401611
 30
0.0
  0
LWPOLYLINE
  5
BD
330
1B
100
AcDbEntity
 67
     1
  8
0
  6
Continuous
 62
     7
370
    25
100
AcDbPolyline
 90
      111
 70
   128
 43
0.0
 10
29.3449314192
 20
0.0
 10
29.4642894484
 20
-5.9086919243
 10
29.8219742149
 20
-11.7981109237
 10
30.4168190253
 20
-17.6490469375
 10
31.2468836194
 20
-23.4424154286
 10
32.3094604992
 20
-29.1593196331
 10
33.6010837596
 20
-34.7811121978
 10
35.1175403942
 20
-40.2894560039
 10
36.8538840364
 20
-45.6663839787
 10
38.8044510944
 20
-50.8943577008
 10
40.9628792237
 20
-55.9563246067
 10
43.3221280804
 20
-60.8357736123
 10
45.8745022852
 20
-65.5167889692
 10
48.6116765239
 20
-69.9841021784
 10
51.5247227031
 20
-74.2231417926
 10
54.6041390715
 20
-78.2200809457
 10
57.8398812132
 20
-81.961882453
 10
61.2213948097
 20
-85.4363413356
 10
64.7376500666
 20
-88.632124631
 10
68.3771776901
 20
-91.5388083583
 10
72.1281062976
 20
-94.1469115192
 10
75.9782011395
 20
-96.4479270234
 10
79.9149040068
 20
-98.4343494365
 10
83.925374193
 20
-100.0996994617
 10
87.9965303779
 20
-101.4385450731
 10
92.1150932962
 20
-102.4465192347
 10
96.2676290517
 20
-103.1203341443
 10
100.440592936
 20
-103.4577919577
 10
104.6203736081
 20
-103.4577919577
 10
108.7933374924
 20
-103.1203341443
 10
112.9458732479
 20
-102.4465192347
 10
117.0644361662
 20
-101.4385450731
 10
121.1355923511
 20
-100.0996994617
 10
125.1460625373
 20
-98.4343494365
 10
129.0827654046
 20
-96.4479270234
 10
132.9328602465
 20
-94.1469115192
 10
136.683788854
 20
-91.5388083583
 10
140.3233164775
 20
-88.632124631
 10
143.8395717344
 20
-85.4363413356
 10
147.2210853309
 20
-81.961882453
 10
150.4568274726
 20
-78.2200809457
 10
153.536243841
 20
-74.2231417926
 10
156.4492900202
 20
-69.9841021784
 10
159.1864642589
 20
-65.5167889692
 10
161.7388384637
 20
-60.8357736123
 10
164.0980873204
 20
-55.9563246067
 10
166.2565154497
 20
-50.8943577008
 10
168.2070825077
 20
-45.6663839787
 10
169.9434261499
 20
-40.2894560038
 10
171.4598827845
 20
-34.7811121978
 10
172.7515060449
 20
-29.1593196331
 10
173.8140829247
 20
-23.4424154286
 10
174.6441475188
 20
-17.6490469375
 10
175.2389923292
 20
-11.7981109237
 10
175.5966770957
 20
-5.9086919243
 10
175.7160351249
 20
0.0
 10
175.5966770957
 20
5.9086919243
 10
175.2389923292
 20
11.7981109237
 10
174.6441475188
 20
17.6490469375
 10
173.8140829247
 20
23.4424154286
 10
172.7515060449
 20
29.1593196331
 10
171.4598827845
 20
34.7811121978
 10
169.9434261499
 20
40.2894560039
 10
168.2070825077
 20
45.6663839787
 10
166.2565154497
 20
50.8943577008
 10
164.0980873204
 20
55.9563246067
 10
161.7388384637
 20
60.8357736123
 10
159.1864642589
 20
65.5167889692
 10
156.4492900202
 20
69.9841021784
 10
153.536243841
 20
74.2231417926
 10
150.4568274726
 20
78.2200809457
 10
147.2210853309
 20
81.961882453
 10
143.8395717344
 20
85.4363413356
 10
140.3233164775
 20
88.632124631
 10
136.683788854
 20
91.5388083583
 10
132.9328602465
 20
94.1469115192
 10
129.0827654046
 20
96.4479270234
 10
125.1460625373
 20
98.4343494365
 10
121.1355923511
 20
100.0996994617
 10
117.0644361662
 20
101.4385450731
 10
112.9458732479
 20
102.4465192347
 10
108.7933374924
 20
103.1203341443
 10
104.6203736081
 20
103.4577919577
 10
100.440592936
 20
103.4577919577
 10
96.2676290517
 20
103.1203341443
 10
92.1150932962
 20
102.4465192347
 10
87.9965303779
 20
101.4385450731
 10
83.925374193
 20
100.0996994617
 10
79.9149040068
 20
98.4343494365
 10
75.9782011395
 20
96.4479270234
 10
72.1281062976
 20
94.1469115192
 10
68.3771776901
 20
91.5388083583
 10
64.7376500666
 20
88.632124631
 10
61.2213948097
 20
85.4363413356
 10
57.8398812132
 20
81.961882453
 10
54.6041390715
 20
78.2200809457
 10
51.5247227031
 20
74.2231417926
 10
48.6116765239
 20
69.9841021784
 10
45.8745022852
 20
65.5167889692
 10
43.3221280804
 20
60.8357736123
 10
40.9628792237
 20
55.9563246067
 10
38.8044510944
 20
50.8943577008
 10
36.8538840364
 20
45.6663839787
 10
35.1175403942
 20
40.2894560038
 10
33.6010837596
 20
34.7811121978
 10
32.3094604992
 20
29.1593196331
 10
31.2468836194
 20
23.4424154286
 10
30.4168190253
 20
17.6490469375
 10
29.8219742149
 20
11.7981109237
 10
29.4642894484
 20
5.9086919243
 10
29.3449314192
 20
0.0
  0
SPLINE
  5
BE
330
1B
100
AcDbEntity
 67
     1
  8
0
  6
Continuous
 62
     7
370
    25
100
AcDbSpline
210
0.0
220
0.0
230
1.0
 70
     8
 71
     3
 72
     9
 73
     5
 74
     0
 42
0.000000001
 43
0.00000001
 40
0.0
 40
0.0
 40
0.0
 40
0.0
 40
0.1212576396702984
 40
0.9999999999999999
 40
0.9999999999999999
 40
0.9999999999999999
 40
0.9999999999999999
 10
83.62026535808917
 20
-106.3708215607677
 30
0.0
 10
83.6008126767644
 20
-106.3689921582935
 30
0.0
 10
83.44038829956519
 20
-106.3539052534264
 30
0.0
 10
83.37658193817111
 20
-106.332074301471
 30
0.0
 10
83.32051258555565
 20
-106.3128905192215
 30
0.0
  0
LWPOLYLINE
  5
BF
330
1B
100
AcDbEntity
 67
     1
  8
0
  6
Continuous
 62
     7
370
    25
100
AcDbPolyline
 90
       57
 70
   128
 43
0.0
 10
0.0
 20
106.5
 10
-4.2224900041
 20
106.3324557994
 10
-8.4316944924
 20
105.8303503536
 10
-12.6143697505
 20
104.9952634722
 10
-16.7573555345
 20
103.8298226474
 10
-20.8476164783
 20
102.3376947872
 10
-24.8722831078
 20
100.5235746778
 10
-28.8186923328
 20
98.3931702125
 10
-32.6744272898
 20
95.9531844316
 10
-36.4273564102
 20
93.2112944333
 10
-40.0656715905
 20
90.1761272178
 10
-43.5779253451
 20
86.8572325442
 10
-46.9530668243
 20
83.2650528828
 10
-50.1804765843
 20
79.4108905601
 10
-53.25
 20
75.3068721964
 10
-56.1519792151
 20
70.9659105519
 10
-58.8772835293
 20
66.401663898
 10
-61.4173381271
 20
61.6284930431
 10
-63.7641510569
 20
56.6614161489
 10
-65.910338377
 20
51.5160614767
 10
-67.849147388
 20
46.208618216
 10
-69.5744778797
 20
40.7557855469
 10
-71.0809013238
 20
35.1747200982
 10
-72.363677955
 20
29.4829819667
 10
-73.4187716833
 20
23.6984794663
 10
-74.2428627937
 20
17.839412782
 10
-74.8333583904
 20
11.924216705
 10
-75.188400556
 20
5.9715026308
 10
-75.3068721964
 20
0.0
 10
-75.188400556
 20
-5.9715026308
 10
-74.8333583904
 20
-11.924216705
 10
-74.2428627937
 20
-17.839412782
 10
-73.4187716833
 20
-23.6984794663
 10
-72.363677955
 20
-29.4829819667
 10
-71.0809013238
 20
-35.1747200982
 10
-69.5744778797
 20
-40.7557855469
 10
-67.849147388
 20
-46.208618216
 10
-65.9103383769
 20
-51.5160614767
 10
-63.7641510569
 20
-56.6614161489
 10
-61.4173381271
 20
-61.6284930431
 10
-58.8772835293
 20
-66.401663898
 10
-56.1519792151
 20
-70.9659105519
 10
-53.25
 20
-75.3068721964
 10
-50.1804765843
 20
-79.4108905601
 10
-46.9530668243
 20
-83.2650528828
 10
-43.5779253451
 20
-86.8572325442
 10
-40.0656715905
 20
-90.1761272178
 10
-36.4273564102
 20
-93.2112944333
 10
-32.6744272898
 20
-95.9531844316
 10
-28.8186923328
 20
-98.3931702125
 10
-24.8722831078
 20
-100.5235746778
 10
-20.8476164783
 20
-102.3376947872
 10
-16.7573555345
 20
-103.8298226474
 10
-12.6143697505
 20
-104.9952634722
 10
-8.4316944924
 20
-105.8303503536
 10
-4.2224900041
 20
-106.3324557994
 10
0.0
 20
-106.5
  0
LWPOLYLINE
  5
C0
330
1B
100
AcDbEntity
 67
     1
  8
0
  6
Continuous
 62
     7
370
    25
100
AcDbPolyline
 90
       98
 70
   128
 43
0.0
 10
45.6083873865
 20
0.0
 10
45.7277629125
 20
-5.2107503791
 10
46.085388788
 20
-10.3996450603
 10
46.6797650059
 20
-15.544920016
 10
47.5083985456
 20
-20.6249941749
 10
48.5678138302
 20
-25.6185599405
 10
49.8535673038
 20
-30.5046725627
 10
51.3602660695
 20
-35.262837987
 10
53.0815905091
 20
-39.873098814
 10
55.0103207896
 20
-44.3161180078
 10
57.138367146
 20
-48.5732600017
 10
59.4568038123
 20
-52.6266688628
 10
61.9559064594
 20
-56.4593431856
 10
64.6251929823
 20
-60.055207402
 10
67.4534674657
 20
-63.399179208
 10
70.4288671436
 20
-66.4772328236
 10
73.5389121555
 20
-69.2764578222
 10
76.7705578921
 20
-71.7851132815
 10
80.1102497078
 20
-73.9926770286
 10
83.5439797748
 20
-75.8898897739
 10
87.0573458356
 20
-77.4687939479
 10
90.6356116122
 20
-78.7227670778
 10
94.2637686143
 20
-79.6465495645
 10
97.9265990905
 20
-80.2362667432
 10
101.608739857
 20
-80.4894451351
 10
105.2947467357
 20
-80.405022822
 10
108.9691593327
 20
-79.9833539005
 10
112.6165658848
 20
-79.2262069965
 10
116.2216679012
 20
-78.1367578474
 10
119.7693443312
 20
-76.7195759814
 10
123.2447149871
 20
-74.9806055518
 10
126.6332029564
 20
-72.9271404049
 10
129.9205957431
 20
-70.5677934871
 10
133.0931048794
 20
-67.9124607195
 10
136.1374237593
 20
-64.9722794903
 10
139.0407834517
 20
-61.7595819415
 10
141.7910062568
 20
-58.2878432431
 10
144.3765567845
 20
-54.5716250736
 10
146.7865903374
 20
-50.6265145436
 10
149.0109983972
 20
-46.4690588176
 10
151.0404510234
 20
-42.1166957099
 10
152.8664359865
 20
-37.5876805437
 10
154.4812944709
 20
-32.9010095827
 10
155.878253199
 20
-28.0763403536
 10
157.0514528403
 20
-23.1339091958
 10
157.9959725879
 20
-18.0944463832
 10
158.7078507976
 20
-12.9790891743
 10
159.184101605
 20
-7.8092931548
 10
159.4227274485
 20
-2.6067422459
 10
159.4227274485
 20
2.6067422459
 10
159.184101605
 20
7.8092931548
 10
158.7078507976
 20
12.9790891743
 10
157.9959725879
 20
18.0944463832
 10
157.0514528403
 20
23.1339091958
 10
155.878253199
 20
28.0763403536
 10
154.4812944709
 20
32.9010095827
 10
152.8664359865
 20
37.5876805437
 10
151.0404510234
 20
42.1166957099
 10
149.0109983972
 20
46.4690588176
 10
146.7865903374
 20
50.6265145436
 10
144.3765567845
 20
54.5716250736
 10
141.7910062568
 20
58.2878432431
 10
139.0407834517
 20
61.7595819415
 10
136.1374237593
 20
64.9722794903
 10
133.0931048794
 20
67.9124607195
 10
129.9205957431
 20
70.5677934871
 10
126.6332029564
 20
72.9271404049
 10
123.2447149871
 20
74.9806055518
 10
119.7693443312
 20
76.7195759814
 10
116.2216679012
 20
78.1367578474
 10
112.6165658848
 20
79.2262069965
 10
108.9691593327
 20
79.9833539005
 10
105.2947467357
 20
80.405022822
 10
101.608739857
 20
80.4894451351
 10
97.9265990905
 20
80.2362667432
 10
94.2637686143
 20
79.6465495645
 10
90.6356116122
 20
78.7227670778
 10
87.0573458356
 20
77.4687939479
 10
83.5439797748
 20
75.8898897739
 10
80.1102497078
 20
73.9926770286
 10
76.7705578921
 20
71.7851132815
 10
73.5389121555
 20
69.2764578222
 10
70.4288671436
 20
66.4772328236
 10
67.4534674657
 20
63.399179208
 10
64.6251929823
 20
60.055207402
 10
61.9559064594
 20
56.4593431856
 10
59.4568038123
 20
52.6266688628
 10
57.138367146
 20
48.5732600017
 10
55.0103207896
 20
44.3161180078
 10
53.0815905091
 20
39.873098814
 10
51.3602660695
 20
35.262837987
 10
49.8535673038
 20
30.5046725627
 10
48.5678138302
 20
25.6185599405
 10
47.5083985456
 20
20.6249941749
 10
46.6797650059
 20
15.544920016
 10
46.085388788
 20
10.3996450603
 10
45.7277629125
 20
5.2107503791
 10
45.6083873865
 20
0.0
  0
LWPOLYLINE
  5
C1
330
1B
100
AcDbEntity
 67
     1
  8
0
  6
Continuous
 62
     7
370
    25
100
AcDbPolyline
 90
       98
 70
   128
 43
0.0
 10
45.6083873865
 20
0.0
 10
45.7270214496
 20
-5.17838547
 10
46.0824260464
 20
-10.3350509916
 10
46.6731104865
 20
-15.4483677178
 10
47.4965972341
 20
-20.496888621
 10
48.5494322995
 20
-25.4594384502
 10
49.8271997267
 20
-30.3152025467
 10
51.324540115
 20
-35.0438141485
 10
53.0351730984
 20
-39.6254398152
 10
54.9519236877
 20
-44.0408626165
 10
57.0667523649
 20
-48.2715627346
 10
59.3707888034
 20
-52.2997951431
 10
61.8543690738
 20
-56.1086640354
 10
64.5070761774
 20
-59.6821936915
 10
67.3177837385
 20
-63.0053954862
 10
70.274702673
 20
-66.0643307563
 10
73.3654306352
 20
-68.8461692643
 10
76.577004038
 20
-71.3392430127
 10
79.8959524263
 20
-73.5330951837
 10
83.3083549773
 20
-75.4185239989
 10
86.7998988888
 20
-76.9876213147
 10
90.3559394121
 20
-78.2338057916
 10
93.9615612775
 20
-79.1518504989
 10
97.6016412539
 20
-79.737904838
 10
101.2609115808
 20
-79.9895106933
 10
104.9240240068
 20
-79.9056127424
 10
108.5756141653
 20
-79.4865628825
 10
112.2003660183
 20
-78.7341187543
 10
115.7830760968
 20
-77.6514363701
 10
119.3087172695
 20
-76.2430568759
 10
122.7625017722
 20
-74.5148875049
 10
126.1299432324
 20
-72.4741767999
 10
129.3969174303
 20
-70.1294842108
 10
132.5497215409
 20
-67.4906441933
 10
135.5751316079
 20
-64.5687249593
 10
138.4604580103
 20
-61.3759820537
 10
141.1935986862
 20
-57.9258069496
 10
143.7630898939
 20
-54.2326708806
 10
146.1581542943
 20
-50.3120641427
 10
148.3687461549
 20
-46.1804311231
 10
150.3855934853
 20
-41.8551013266
 10
152.2002369269
 20
-37.3542166894
 10
153.8050652344
 20
-32.6966554859
 10
155.1933472001
 20
-27.9019531464
 10
156.3592598872
 20
-22.9902203188
 10
157.2979130524
 20
-17.9820585175
 10
158.0053696584
 20
-12.8984737136
 10
158.4786623862
 20
-7.7607882284
 10
158.7158060816
 20
-2.5905513003
 10
158.7158060816
 20
2.5905513003
 10
158.4786623862
 20
7.7607882284
 10
158.0053696584
 20
12.8984737136
 10
157.2979130524
 20
17.9820585175
 10
156.3592598872
 20
22.9902203188
 10
155.1933472001
 20
27.9019531464
 10
153.8050652344
 20
32.6966554859
 10
152.2002369269
 20
37.3542166894
 10
150.3855934853
 20
41.8551013266
 10
148.3687461549
 20
46.1804311231
 10
146.1581542943
 20
50.3120641427
 10
143.7630898939
 20
54.2326708806
 10
141.1935986862
 20
57.9258069496
 10
138.4604580103
 20
61.3759820537
 10
135.5751316079
 20
64.5687249593
 10
132.5497215409
 20
67.4906441933
 10
129.3969174303
 20
70.1294842108
 10
126.1299432324
 20
72.4741767999
 10
122.7625017722
 20
74.5148875049
 10
119.3087172695
 20
76.2430568759
 10
115.7830760967
 20
77.6514363701
 10
112.2003660183
 20
78.7341187543
 10
108.5756141653
 20
79.4865628825
 10
104.9240240068
 20
79.9056127424
 10
101.2609115808
 20
79.9895106933
 10
97.6016412539
 20
79.737904838
 10
93.9615612775
 20
79.1518504989
 10
90.3559394121
 20
78.2338057916
 10
86.7998988888
 20
76.9876213147
 10
83.3083549773
 20
75.4185239989
 10
79.8959524263
 20
73.5330951837
 10
76.577004038
 20
71.3392430127
 10
73.3654306352
 20
68.8461692643
 10
70.274702673
 20
66.0643307563
 10
67.3177837385
 20
63.0053954862
 10
64.5070761774
 20
59.6821936915
 10
61.8543690738
 20
56.1086640354
 10
59.3707888034
 20
52.2997951431
 10
57.0667523649
 20
48.2715627346
 10
54.9519236877
 20
44.0408626165
 10
53.0351730984
 20
39.6254398152
 10
51.324540115
 20
35.0438141485
 10
49.8271997267
 20
30.3152025467
 10
48.5494322995
 20
25.4594384502
 10
47.4965972341
 20
20.496888621
 10
46.6731104865
 20
15.4483677178
 10
46.0824260464
 20
10.3350509916
 10
45.7270214496
 20
5.17838547
 10
45.6083873865
 20
0.0
  0
LWPOLYLINE
  5
C2
330
1B
100
AcDbEntity
 67
     1
  8
0
  6
Continuous
 62
     7
370
    25
100
AcDbPolyline
 90
       50
 70
   128
 43
0.0
 10
95.7062560917
 20
-79.4749064889
 10
95.9072685352
 20
-79.4615947916
 10
99.5385676088
 20
-79.0448734998
 10
103.1431775114
 20
-78.2966105385
 10
106.7059792563
 20
-77.2199443826
 10
110.2120292149
 20
-75.8193909442
 10
113.6466217952
 20
-74.100824631
 10
116.9953511224
 20
-72.0714537075
 10
120.2441714618
 20
-69.7397900605
 10
123.379456132
 20
-67.1156134977
 10
126.3880546594
 20
-64.2099307275
 10
129.2573479362
 20
-61.0349291934
 10
131.9753011493
 20
-57.6039259551
 10
134.5305142584
 20
-53.9313118326
 10
136.9122698116
 20
-50.0324910457
 10
139.1105778985
 20
-45.923816604
 10
141.116218051
 20
-41.6225217157
 10
142.9207779173
 20
-37.1466475065
 10
144.5166885461
 20
-32.5149673483
 10
145.8972561337
 20
-27.7469081172
 10
147.0566900998
 20
-22.8624687108
 10
147.9901273755
 20
-17.8821361654
 10
148.6936528004
 20
-12.8267997264
 10
149.1643155444
 20
-7.7176632317
 10
149.4001414844
 20
-2.5761561753
 10
149.4001414844
 20
2.5761561753
 10
149.1643155444
 20
7.7176632317
 10
148.6936528004
 20
12.8267997264
 10
147.9901273755
 20
17.8821361654
 10
147.0566900998
 20
22.8624687108
 10
145.8972561337
 20
27.7469081172
 10
144.5166885461
 20
32.5149673483
 10
142.9207779173
 20
37.1466475065
 10
141.116218051
 20
41.6225217157
 10
139.1105778985
 20
45.923816604
 10
136.9122698116
 20
50.0324910457
 10
134.5305142584
 20
53.9313118326
 10
131.9753011493
 20
57.6039259551
 10
129.2573479362
 20
61.0349291934
 10
126.3880546594
 20
64.2099307275
 10
123.379456132
 20
67.1156134977
 10
120.2441714618
 20
69.7397900605
 10
116.9953511224
 20
72.0714537075
 10
113.6466217952
 20
74.100824631
 10
110.2120292149
 20
75.8193909442
 10
106.7059792563
 20
77.2199443826
 10
103.1431775114
 20
78.2966105385
 10
99.5385676088
 20
79.0448734998
 10
95.9072685352
 20
79.4615947916
 10
95.7062560917
 20
79.4749064889
  0
LWPOLYLINE
  5
C3
330
1B
100
AcDbEntity
 67
     1
  8
0
  6
Continuous
 62
     7
370
    25
100
AcDbPolyline
 90
       44
 70
   128
 43
0.0
 10
101.2493634683
 20
-78.731787279
 10
104.8229209884
 20
-77.6514363701
 10
108.3485621611
 20
-76.2430568759
 10
111.8023466638
 20
-74.5148875049
 10
115.169788124
 20
-72.4741767999
 10
118.436762322
 20
-70.1294842108
 10
121.5895664325
 20
-67.4906441933
 10
124.6149764996
 20
-64.5687249593
 10
127.5003029019
 20
-61.3759820537
 10
130.2334435778
 20
-57.9258069496
 10
132.8029347855
 20
-54.2326708806
 10
135.1979991859
 20
-50.3120641427
 10
137.4085910465
 20
-46.1804311231
 10
139.4254383769
 20
-41.8551013266
 10
141.2400818185
 20
-37.3542166894
 10
142.844910126
 20
-32.6966554859
 10
144.2331920917
 20
-27.9019531464
 10
145.3991047788
 20
-22.9902203188
 10
146.3377579441
 20
-17.9820585175
 10
147.04521455
 20
-12.8984737136
 10
147.5185072778
 20
-7.7607882284
 10
147.7556509733
 20
-2.5905513003
 10
147.7556509733
 20
2.5905513003
 10
147.5185072778
 20
7.7607882284
 10
147.04521455
 20
12.8984737136
 10
146.3377579441
 20
17.9820585175
 10
145.3991047788
 20
22.9902203188
 10
144.2331920917
 20
27.9019531464
 10
142.844910126
 20
32.6966554859
 10
141.2400818185
 20
37.3542166894
 10
139.4254383769
 20
41.8551013266
 10
137.4085910465
 20
46.1804311231
 10
135.1979991859
 20
50.3120641427
 10
132.8029347855
 20
54.2326708806
 10
130.2334435778
 20
57.9258069496
 10
127.5003029019
 20
61.3759820537
 10
124.6149764996
 20
64.5687249593
 10
121.5895664325
 20
67.4906441933
 10
118.436762322
 20
70.1294842108
 10
115.169788124
 20
72.4741767999
 10
111.8023466638
 20
74.5148875049
 10
108.3485621611
 20
76.2430568759
 10
104.8229209884
 20
77.6514363701
 10
101.2493634683
 20
78.731787279
  0
LWPOLYLINE
  5
C6
330
1B
100
AcDbEntity
 67
     1
  8
0
  6
Continuous
 62
     7
370
    25
100
AcDbPolyline
 90
       29
 70
   128
 43
0.0
 10
64.1614821776
 20
-59.242311499
 10
64.6500472138
 20
-58.6435049834
 10
67.2842712475
 20
-55.1543289326
 10
69.7514912937
 20
-51.4289735778
 10
72.0411423376
 20
-47.4833914627
 10
74.1434197418
 20
-43.3344781755
 10
76.0493212317
 20
-39.0
 10
77.7506854446
 20
-34.4985178371
 10
79.2402268776
 20
-29.8493077245
 10
80.5115670858
 20
-25.0722782936
 10
81.5592619951
 20
-20.187885518
 10
82.378825215
 20
-15.2170451173
 10
82.9667472502
 20
-10.1810429932
 10
83.320510528
 20
-5.10144408
 10
83.43860018
 20
0.0
 10
83.320510528
 20
5.10144408
 10
82.9667472502
 20
10.1810429932
 10
82.378825215
 20
15.2170451173
 10
81.5592619951
 20
20.187885518
 10
80.5115670858
 20
25.0722782936
 10
79.2402268776
 20
29.8493077245
 10
77.7506854446
 20
34.4985178371
 10
76.0493212317
 20
39.0
 10
74.1434197418
 20
43.3344781755
 10
72.0411423376
 20
47.4833914627
 10
69.7514912937
 20
51.4289735778
 10
67.2842712475
 20
55.1543289326
 10
64.6500472138
 20
58.6435049834
 10
64.1614821776
 20
59.242311499
  0
SPLINE
  5
CF
330
1B
100
AcDbEntity
 67
     1
  8
0
  6
Continuous
 62
     8
370
    25
100
AcDbSpline
210
0.0
220
0.0
230
1.0
 70
     8
 71
     3
 72
    16
 73
    12
 74
     0
 42
0.000000001
 43
0.00000001
 40
0.0
 40
0.0
 40
0.0
 40
0.0
 40
0.1011452175385638
 40
0.2523330053996226
 40
0.356334455302904
 40
0.4616819221590115
 40
0.5347137285805778
 40
0.6293383511569934
 40
0.8264532675589884
 40
0.9515913257294888
 40
1.0
 40
1.0
 40
1.0
 40
1.0
 10
93.68659457762803
 20
-106.0748044991646
 30
0.0
 10
94.35500071983209
 20
-106.0718774867762
 30
0.0
 10
96.02251337929727
 20
-106.0645752944354
 30
0.0
 10
98.16413752124056
 20
-105.5209261585367
 30
0.0
 10
100.1240938963098
 20
-104.9225099158739
 30
0.0
 10
101.5541890553182
 20
-104.4747997954912
 30
0.0
 10
102.871132544526
 20
-104.3943923176877
 30
0.0
 10
104.4501607979147
 20
-104.8750375352989
 30
0.0
 10
105.8852241452653
 20
-105.6236863489273
 30
0.0
 10
106.8001952736521
 20
-106.086810996055
 30
0.0
 10
106.9932852195426
 20
-106.0746216994555
 30
0.0
 10
107.0471452269541
 20
-106.0712216487581
 30
0.0
  0
LWPOLYLINE
  5
D0
330
1B
100
AcDbEntity
 67
     1
  8
0
  6
Continuous
 62
     8
370
    25
100
AcDbPolyline
 90
       54
 70
   128
 43
0.0
 10
93.6865945776
 20
-106.0748044992
 10
89.4987000579
 20
-105.3763426956
 10
85.3450163959
 20
-104.3474627314
 10
81.2385678861
 20
-102.9913907637
 10
77.1922307124
 20
-101.312378893
 10
73.2186925735
 20
-99.3156918304
 10
69.3304128994
 20
-97.0075903899
 10
65.5395837834
 20
-94.3953118565
 10
61.8580917531
 20
-91.4870472934
 10
58.2974804983
 20
-88.2919158575
 10
54.868914675
 20
-84.8199362062
 10
51.5831448975
 20
-81.081995082
 10
48.4504740288
 20
-77.0898131769
 10
45.4807248744
 20
-72.85590838
 10
42.6832093827
 20
-68.3935565274
 10
40.066699446
 20
-63.7167497738
 10
37.6393993953
 20
-58.8401527189
 10
35.408920275
 20
-53.779056425
 10
33.3822559774
 20
-48.5493304706
 10
31.5657613132
 20
-43.1673731893
 10
29.9651320846
 20
-37.6500602515
 10
28.5853872263
 20
-32.0146917488
 10
27.4308530676
 20
-26.2789379483
 10
26.5051497668
 20
-20.4607838848
 10
25.81117996
 20
-14.5784729679
 10
25.3511196598
 20
-8.6504497773
 10
25.1264114316
 20
-2.6953022281
 10
25.1377598706
 20
3.2682967133
 10
25.3851293929
 20
9.2216475805
 10
25.8677443462
 20
15.1460830407
 10
26.5840914426
 20
21.0230264285
 10
27.5319245036
 20
26.8340499946
 10
28.7082715027
 20
32.5609326879
 10
30.1094438854
 20
38.1857172897
 10
31.7310481341
 20
43.69076672
 10
33.567999545
 20
49.0588193405
 10
35.6145381715
 20
54.2730430803
 10
37.8642468851
 20
59.3170882145
 10
40.3100714971
 20
64.1751386304
 10
42.9443428774
 20
68.8319614205
 10
45.7588010022
 20
73.2729546467
 10
48.744620854
 20
77.4841931265
 10
51.8924400931
 20
81.4524720965
 10
55.1923884146
 20
85.1653486174
 10
58.6341184974
 20
88.61118059
 10
62.2068384492
 20
91.7791632603
 10
65.8993456461
 20
94.6593630988
 10
69.700061859
 20
97.2427489482
 10
73.5970695585
 20
99.5212203414
 10
77.5781492834
 20
101.4876329011
 10
81.6308179565
 20
103.1358207425
 10
85.742368026
 20
104.460615806
 10
89.8999073116
 20
105.4578640631
 10
92.7656941255
 20
105.9500107094
  0
SPLINE
  5
D1
330
1B
100
AcDbEntity
 67
     1
  8
0
  6
Continuous
 62
     8
370
    25
100
AcDbSpline
210
0.0
220
0.0
230
1.0
 70
     8
 71
     3
 72
    18
 73
    14
 74
     0
 42
0.000000001
 43
0.00000001
 40
0.0
 40
0.0
 40
0.0
 40
0.0
 40
0.0462620723002824
 40
0.146821898849865
 40
0.2456945610428636
 40
0.3474036588687757
 40
0.4467444096249908
 40
0.5489095981948188
 40
0.64782681005752
 40
0.7495211465197642
 40
0.8479331989088384
 40
0.9490961400715924
 40
1.0
 40
1.0
 40
1.0
 40
1.0
 10
83.32051258555565
 20
-106.3128905192215
 30
0.0
 10
83.24057502070224
 20
-106.2975038423644
 30
0.0
 10
82.98687724026072
 20
-106.24867115933
 30
0.0
 10
82.92473290115898
 20
-106.1517587965696
 30
0.0
 10
83.12583011908653
 20
-106.0377716530106
 30
0.0
 10
83.68292613182092
 20
-105.9371297161071
 30
0.0
 10
84.56586974846137
 20
-105.8611510404725
 30
0.0
 10
85.73950324614367
 20
-105.8194039709407
 30
0.0
 10
87.18689721341359
 20
-105.8158935883597
 30
0.0
 10
88.83912058782053
 20
-105.850736105968
 30
0.0
 10
90.68140558392878
 20
-105.92056433863
 30
0.0
 10
92.31906508070408
 20
-106.0007131761932
 30
0.0
 10
93.343626142635
 20
-106.0562228267815
 30
0.0
 10
93.68659457762803
 20
-106.0748044991646
 30
0.0
  0
LWPOLYLINE
  5
D2
330
1B
100
AcDbEntity
 67
     1
  8
0
  6
Continuous
 62
     8
370
    25
100
AcDbPolyline
 90
       28
 70
   128
 43
0.0
 10
65.5841539551
 20
-61.0076839423
 10
68.0080468334
 20
-57.9258069496
 10
70.5775380411
 20
-54.2326708806
 10
72.9726024415
 20
-50.3120641427
 10
75.1831943021
 20
-46.1804311231
 10
77.2000416325
 20
-41.8551013266
 10
79.0146850741
 20
-37.3542166894
 10
80.6195133816
 20
-32.6966554859
 10
82.0077953473
 20
-27.9019531464
 10
83.1737080344
 20
-22.9902203188
 10
84.1123611996
 20
-17.9820585175
 10
84.8198178056
 20
-12.8984737136
 10
85.2931105334
 20
-7.7607882284
 10
85.5302542288
 20
-2.5905513003
 10
85.5302542288
 20
2.5905513003
 10
85.2931105334
 20
7.7607882284
 10
84.8198178056
 20
12.8984737136
 10
84.1123611996
 20
17.9820585175
 10
83.1737080344
 20
22.9902203188
 10
82.0077953473
 20
27.9019531464
 10
80.6195133816
 20
32.6966554859
 10
79.0146850741
 20
37.3542166894
 10
77.2000416325
 20
41.8551013266
 10
75.1831943021
 20
46.1804311231
 10
72.9726024415
 20
50.3120641427
 10
70.5775380411
 20
54.2326708806
 10
68.0080468334
 20
57.9258069496
 10
65.5841539551
 20
61.0076839423
  0
SPLINE
  5
D3
330
1B
100
AcDbEntity
 67
     1
  8
0
  6
Continuous
 62
     8
370
    25
100
AcDbSpline
210
0.0
220
0.0
230
1.0
 70
     8
 71
     3
 72
    13
 73
     9
 74
     0
 42
0.000000001
 43
0.00000001
 40
0.0
 40
0.0
 40
0.0
 40
0.0
 40
0.0596186713068713
 40
0.2917338736321198
 40
0.5243234948824296
 40
0.7582574169235665
 40
0.9923019619444015
 40
1.0
 40
1.0
 40
1.0
 40
1.0
 10
93.81267780046633
 20
-108.0668196071301
 30
0.0
 10
93.52360422873062
 20
-108.0479033409946
 30
0.0
 10
92.10907165028627
 20
-107.9553397954913
 30
0.0
 10
89.67594516267849
 20
-107.8207824936187
 30
0.0
 10
87.00614444012628
 20
-107.7866990496404
 30
0.0
 10
85.37433153330147
 20
-107.9104086202639
 30
0.0
 10
84.67829823368186
 20
-108.0750094893469
 30
0.0
 10
84.86813811142264
 20
-108.1501584495646
 30
0.0
 10
84.87418336246913
 20
-108.1525514890872
 30
0.0
  0
SPLINE
  5
D4
330
1B
100
AcDbEntity
 67
     1
  8
0
  6
Continuous
 62
     8
370
    25
100
AcDbSpline
210
0.0
220
0.0
230
1.0
 70
     8
 71
     3
 72
    18
 73
    14
 74
     0
 42
0.000000001
 43
0.00000001
 40
0.0
 40
0.0
 40
0.0
 40
0.0
 40
0.0116634513483425
 40
0.148247613433986
 40
0.2508882809996917
 40
0.3536194666452516
 40
0.4439119383515036
 40
0.5023367796010978
 40
0.5108332669362726
 40
0.6161814126620374
 40
0.7223702743998438
 40
0.8851320330169934
 40
1.0
 40
1.0
 40
1.0
 40
1.0
 10
105.3422525139374
 20
-107.9961854863387
 30
0.0
 10
105.3465140230112
 20
-107.9928981245221
 30
0.0
 10
105.4006796838394
 20
-107.9511143052004
 30
0.0
 10
105.1073976124852
 20
-107.359770844434
 30
0.0
 10
104.4877503865629
 20
-106.4625422674354
 30
0.0
 10
103.6944198837662
 20
-105.6191519313531
 30
0.0
 10
102.7937548686401
 20
-105.0149765209579
 30
0.0
 10
102.0788967516862
 20
-105.0645861476121
 30
0.0
 10
101.2969049313185
 20
-105.3180621267971
 30
0.0
 10
100.2696192730101
 20
-105.8895069850729
 30
0.0
 10
98.43958053635312
 20
-106.9915778236222
 30
0.0
 10
96.24877207267731
 20
-107.9531868942972
 30
0.0
 10
94.52562261954581
 20
-108.0335639754346
 30
0.0
 10
93.81267780046635
 20
-108.0668196071301
 30
0.0
  0
LWPOLYLINE
  5
D5
330
1B
100
AcDbEntity
 67
     1
  8
0
  6
Continuous
 62
     8
370
    25
100
AcDbPolyline
 90
       29
 70
   128
 43
0.0
 10
64.692658085
 20
-59.9154298639
 10
65.1162751108
 20
-59.3953447908
 10
67.7842712475
 20
-55.8614357137
 10
70.28312232
 20
-52.0883193929
 10
72.6021278644
 20
-48.0921528917
 10
74.731357543
 20
-43.8900484085
 10
76.6616936674
 20
-39.5
 10
78.384870242
 20
-34.9408065273
 10
79.8935083601
 20
-30.2319911568
 10
81.1811478017
 20
-25.3937177589
 10
82.2422746969
 20
-20.4467045631
 10
83.0723451377
 20
-15.4121354393
 10
83.6678046348
 20
-10.3115691854
 10
84.0261033393
 20
-5.1668472092
 10
84.1457069612
 20
0.0
 10
84.0261033393
 20
5.1668472092
 10
83.6678046348
 20
10.3115691854
 10
83.0723451377
 20
15.4121354393
 10
82.2422746969
 20
20.4467045631
 10
81.1811478017
 20
25.393717759
 10
79.8935083601
 20
30.2319911568
 10
78.384870242
 20
34.9408065273
 10
76.6616936674
 20
39.5
 10
74.731357543
 20
43.8900484085
 10
72.6021278644
 20
48.0921528917
 10
70.28312232
 20
52.0883193929
 10
67.7842712475
 20
55.8614357137
 10
65.1162751108
 20
59.3953447908
 10
64.692658085
 20
59.9154298639
  0
SPLINE
  5
D6
330
1B
100
AcDbEntity
 67
     1
  8
0
  6
Continuous
 62
     8
370
    25
100
AcDbSpline
210
0.0
220
0.0
230
1.0
 70
     8
 71
     3
 72
    18
 73
    14
 74
     0
 42
0.000000001
 43
0.00000001
 40
0.0
 40
0.0
 40
0.0
 40
0.0
 40
0.0307327440739807
 40
0.1383097017385669
 40
0.2459375305359077
 40
0.3529791447737824
 40
0.4597068026322929
 40
0.5668763203635426
 40
0.6745641579695228
 40
0.7820347476576807
 40
0.8888897043074945
 40
0.9956870501725197
 40
1.0
 40
1.0
 40
1.0
 40
1.0
 10
10.13184235988142
 20
-107.8221227563713
 30
0.0
 10
10.16573993397429
 20
-107.8175738963064
 30
0.0
 10
10.31829264294033
 20
-107.7971021975442
 30
0.0
 10
9.415028457317892
 20
-107.9199665364182
 30
0.0
 10
7.492761471709818
 20
-108.1424554506839
 30
0.0
 10
4.652108273275075
 20
-108.3792694552567
 30
0.0
 10
1.314905610905942
 20
-108.5151674294332
 30
0.0
 10
-2.189147950412758
 20
-108.4944229102702
 30
0.0
 10
-5.438905767581597
 20
-108.3252753040487
 30
0.0
 10
-8.10411455588831
 20
-108.0769325560149
 30
0.0
 10
-9.727234976109882
 20
-107.8784441915109
 30
0.0
 10
-10.42409983078271
 20
-107.7832069623368
 30
0.0
 10
-10.235059042239
 20
-107.8082288610716
 30
0.0
 10
-10.22772107746036
 20
-107.809200131944
 30
0.0
  0
LINE
  5
D7
330
1B
100
AcDbEntity
 67
     1
  8
0
  6
Continuous
 62
     7
370
    25
100
AcDbLine
 10
107.0456633576
 20
-106.0611667159
 30
0.0
 11
107.8482653893
 21
-105.9700421881
 31
0.0
  0
LINE
  5
D8
330
1B
100
AcDbEntity
 67
     1
  8
0
  6
Continuous
 62
     7
370
    25
100
AcDbLine
 10
100.4091629285
 20
106.5
 30
0.0
 11
0.0
 21
106.5
 31
0.0
  0
LINE
  5
D9
330
1B
100
AcDbEntity
 67
     1
  8
0
  6
Continuous
 62
     7
370
    25
100
AcDbLine
 10
0.0
 20
-106.5
 30
0.0
 11
83.9277244534
 21
-106.5
 31
0.0
  0
LINE
  5
DA
330
1B
100
AcDbEntity
 67
     1
  8
0
  6
Continuous
 62
     7
370
    25
100
AcDbLine
 10
105.3558620696
 20
-125.0
 30
0.0
 11
105.3558620696
 21
-107.9960772024
 31
0.0
  0
LINE
  5
DB
330
1B
100
AcDbEntity
 67
     1
  8
0
  6
Continuous
 62
     7
370
    25
100
AcDbLine
 10
84.8558620696
 20
-108.1530602135
 30
0.0
 11
84.8558620696
 21
-125.0
 31
0.0
  0
LINE
  5
DC
330
1B
100
AcDbEntity
 67
     1
  8
0
  6
Continuous
 62
     7
370
    25
100
AcDbLine
 10
10.25
 20
-125.0
 30
0.0
 11
10.25
 21
-107.8222223028
 31
0.0
  0
LINE
  5
DD
330
1B
100
AcDbEntity
 67
     1
  8
0
  6
Continuous
 62
     7
370
    25
100
AcDbLine
 10
-10.25
 20
-107.8093818223
 30
0.0
 11
-10.25
 21
-125.0
 31
0.0
  0
LINE
  5
DE
330
1B
100
AcDbEntity
 67
     1
  8
0
  6
Continuous
 62
     7
370
    25
100
AcDbLine
 10
105.3558620696
 20
-125.0
 30
0.0
 11
84.8558620696
 21
-125.0
 31
0.0
  0
LINE
  5
DF
330
1B
100
AcDbEntity
 67
     1
  8
0
  6
Continuous
 62
     7
370
    25
100
AcDbLine
 10
75.4061823631
 20
23.4443740794
 30
0.0
 11
75.4061823631
 21
-23.4443740794
 31
0.0
  0
LINE
  5
E0
330
1B
100
AcDbEntity
 67
     1
  8
0
  6
Continuous
 62
     7
370
    25
100
AcDbLine
 10
10.25
 20
-125.0
 30
0.0
 11
-10.25
 21
-125.0
 31
0.0
  0
ARC
  5
E1
330
1B
100
AcDbEntity
 67
     1
  8
0
  6
Continuous
 62
     7
370
    25
100
AcDbCircle
 10
100.4093741181
 20
53.0404457212
 30
0.0
 40
53.45884315122804
100
AcDbArc
 50
81.4620699776
 51
98.2204686653
  0
ARC
  5
E2
330
1B
100
AcDbEntity
 67
     1
  8
0
  6
Continuous
 62
     7
370
    25
100
AcDbCircle
 10
89.1310422098
 20
-107.3631427747
 30
0.0
 40
4.734223578235493
100
AcDbArc
 50
351.4521014581
 51
15.791229904
  0
ARC
  5
E3
330
1B
100
AcDbEntity
 67
     1
  8
0
  6
Continuous
 62
     7
370
    25
100
AcDbCircle
 10
-14.3213111076
 20
-6.5380330173
 30
0.0
 40
91.3063385129099
100
AcDbArc
 50
326.8396882217
 51
349.3295011688
  0
ARC
  5
E4
330
1B
100
AcDbEntity
 67
     1
  8
0
  6
Continuous
 62
     7
370
    25
100
AcDbCircle
 10
-30.8078980906
 20
0.0
 30
0.0
 40
108.7707201529306
100
AcDbArc
 50
347.5528262743
 51
12.4471737257
  0
ARC
  5
E5
330
1B
100
AcDbEntity
 67
     1
  8
0
  6
Continuous
 62
     7
370
    25
100
AcDbCircle
 10
-14.3213111076
 20
6.5380330173
 30
0.0
 40
91.30633851290828
100
AcDbArc
 50
10.6704988312
 51
33.1603117783
  0
ARC
  5
E6
330
1B
100
AcDbEntity
 67
     1
  8
0
  6
Continuous
 62
     7
370
    25
100
AcDbCircle
 10
0.0
 20
0.0
 30
0.0
 40
77.99999999999866
100
AcDbArc
 50
318.8850238479
 51
345.1826356984
  0
ARC
  5
E7
330
1B
100
AcDbEntity
 67
     1
  8
0
  6
Continuous
 62
     7
370
    25
100
AcDbCircle
 10
0.0
 20
0.0
 30
0.0
 40
77.99999999998425
100
AcDbArc
 50
14.8173643016
 51
41.1149761521
  0
ARC
  5
E8
330
1B
100
AcDbEntity
 67
     1
  8
0
  6
Continuous
 62
     7
370
    25
100
AcDbCircle
 10
0.0
 20
0.0
 30
0.0
 40
106.5
100
AcDbArc
 50
90.0
 51
270.0
  0
VIEWPORT
  5
120
330
1B
100
AcDbEntity
 67
     1
  8
0
100
AcDbViewport
 10
0.0
 20
0.0
 30
0.0
 40
205.6
 41
156.0
 68
     1
 69
     1
 12
35.0473573906
 22
15.7973573906
 13
0.0
 23
0.0
 14
10.0
 24
10.0
 15
10.0
 25
10.0
 16
0.0
 26
0.0
 36
1.0
 17
0.0
 27
0.0
 37
0.0
 42
50.0
 43
0.0
 44
0.0
 45
328.0266090769
 50
0.0
 51
0.0
 72
   100
 90
   557152
  1

281
     0
 71
     1
 74
     0
110
0.0
120
0.0
130
0.0
111
1.0
121
0.0
131
0.0
112
0.0
122
1.0
132
0.0
 79
     0
146
0.0
  0
ENDSEC
  0
SECTION
  2
OBJECTS
  0
DICTIONARY
  5
C
330
0
100
AcDbDictionary
281
     1
  3
ACAD_GROUP
350
D
  3
ACAD_LAYOUT
350
1A
  3
ACAD_MLINESTYLE
350
17
  3
ACAD_PLOTSETTINGS
350
19
  3
ACAD_PLOTSTYLENAME
350
E
  3
ACAD_SCALELIST
350
47
  0
DICTIONARY
  5
D
102
{ACAD_REACTORS
330
C
102
}
330
C
100
AcDbDictionary
281
     1
  0
DICTIONARY
  5
1A
102
{ACAD_REACTORS
330
C
102
}
330
C
100
AcDbDictionary
281
     1
  3
_Left
350
26
  3
_Top
350
1E
  3
Model
350
22
  0
DICTIONARY
  5
17
102
{ACAD_REACTORS
330
C
102
}
330
C
100
AcDbDictionary
281
     1
  3
Standard
350
18
  0
DICTIONARY
  5
19
102
{ACAD_REACTORS
330
C
102
}
330
C
100
AcDbDictionary
281
     1
  0
ACDBDICTIONARYWDFLT
  5
E
102
{ACAD_REACTORS
330
C
102
}
330
C
100
AcDbDictionary
281
     1
  3
Normal
350
F
100
AcDbDictionaryWithDefault
340
F
  0
DICTIONARY
  5
47
102
{ACAD_REACTORS
330
C
102
}
330
C
100
AcDbDictionary
281
     1
  3
A0
350
48
  3
A1
350
49
  3
A2
350
4A
  3
A3
350
4B
  3
A4
350
4C
  3
A5
350
4D
  3
A6
350
4E
  3
A7
350
4F
  3
A8
350
50
  3
A9
350
51
  3
B0
350
52
  3
B1
350
53
  3
B2
350
54
  3
B3
350
55
  3
B4
350
56
  3
B5
350
57
  3
B6
350
58
  3
B7
350
59
  3
B8
350
5A
  3
B9
350
5B
  3
C0
350
5C
  3
C1
350
5D
  3
C2
350
5E
  3
C3
350
5F
  3
C4
350
60
  3
C5
350
61
  3
C6
350
62
  3
C7
350
63
  3
C8
350
64
  3
C9
350
65
  3
D0
350
66
  3
D1
350
67
  3
D2
350
68
  0
LAYOUT
  5
26
102
{ACAD_REACTORS
330
1A
102
}
330
1A
100
AcDbPlotSettings
  1

  2
none_device
  4
ISO_A4_(210.00_x_297.00_MM)
  6

 40
7.5
 41
20.0
 42
7.5
 43
20.0
 44
210.0
 45
297.0
 46
0.0
 47
0.0
 48
0.0
 49
0.0
140
0.0
141
0.0
142
1.0
143
1.1871794872
 70
   688
 72
     1
 73
     1
 74
     1
  7

 75
     0
147
0.8423326134
148
106.5
149
125.0
100
AcDbLayout
  1
_Left
 70
     1
 71
     2
 10
0.0
 20
0.0
 11
0.0
 21
0.0
 12
0.0
 22
0.0
 32
0.0
 14
0.0
 24
0.0
 34
0.0
 15
0.0
 25
0.0
 35
0.0
146
0.0
 13
0.0
 23
0.0
 33
0.0
 16
1.0
 26
0.0
 36
0.0
 17
0.0
 27
1.0
 37
0.0
 76
     0
330
23
331
122
  0
LAYOUT
  5
1E
102
{ACAD_REACTORS
330
1A
102
}
330
1A
100
AcDbPlotSettings
  1

  2
none_device
  4
ISO_A4_(210.00_x_297.00_MM)
  6

 40
7.5
 41
20.0
 42
7.5
 43
20.0
 44
210.0
 45
297.0
 46
0.0
 47
0.0
 48
0.0
 49
0.0
140
0.0
141
0.0
142
1.0
143
1.1871794872
 70
   688
 72
     1
 73
     1
 74
     1
  7

 75
     0
147
0.8423326134
148
106.5
149
125.0
100
AcDbLayout
  1
_Top
 70
     1
 71
     1
 10
-130.2435897436
 20
-133.9038461538
 11
222.3487179487
 21
115.4038461538
 12
0.0
 22
0.0
 32
0.0
 14
-106.5
 24
-125.0
 34
0.0
 15
176.5938872142
 25
106.5
 35
0.0
146
0.0
 13
0.0
 23
0.0
 33
0.0
 16
1.0
 26
0.0
 36
0.0
 17
0.0
 27
1.0
 37
0.0
 76
     0
330
1B
331
120
  0
LAYOUT
  5
22
102
{ACAD_REACTORS
330
1A
102
}
330
1A
100
AcDbPlotSettings
  1

  2
none_device
  4
ANSI_A_(11.00_x_8.50_Inches)
  6

 40
6.35
 41
19.05
 42
6.35000508
 43
19.05000254
 44
279.4
 45
215.9
 46
110.0565262936
 47
78.4006254168
 48
0.0
 49
0.0
140
0.0
141
0.0
142
0.0261664748
143
1.0
 70
  1696
 72
     0
 73
     0
 74
     0
  7

 75
     0
147
0.0179189148
148
-1300.4909072572
149
0.0
100
AcDbLayout
  1
Model
 70
     1
 71
     0
 10
0.0
 20
0.0
 11
420.0
 21
297.0
 12
0.0
 22
0.0
 32
0.0
 14
-106.5
 24
-145.0
 34
0.0
 15
176.5947147813
 25
176.5947147813
 35
0.0
146
0.0
 13
0.0
 23
0.0
 33
0.0
 16
1.0
 26
0.0
 36
0.0
 17
0.0
 27
1.0
 37
0.0
 76
     0
330
1F
331
29
  0
MLINESTYLE
  5
18
102
{ACAD_REACTORS
330
17
102
}
330
17
100
AcDbMlineStyle
  2
Standard
 70
     0
  3

 62
   256
 51
90.0
 52
90.0
 71
     2
 49
0.5
 62
   256
  6
BYLAYER
 49
-0.5
 62
   256
  6
BYLAYER
  0
ACDBPLACEHOLDER
  5
F
102
{ACAD_REACTORS
330
E
102
}
330
E
  0
SCALE
  5
48
102
{ACAD_REACTORS
330
47
102
}
330
47
100
AcDbScale
 70
     0
300
1:1
140
1.0
141
1.0
290
     1
  0
SCALE
  5
49
102
{ACAD_REACTORS
330
47
102
}
330
47
100
AcDbScale
 70
     0
300
1:2
140
1.0
141
2.0
290
     0
  0
SCALE
  5
4A
102
{ACAD_REACTORS
330
47
102
}
330
47
100
AcDbScale
 70
     0
300
1:4
140
1.0
141
4.0
290
     0
  0
SCALE
  5
4B
102
{ACAD_REACTORS
330
47
102
}
330
47
100
AcDbScale
 70
     0
300
1:5
140
1.0
141
5.0
290
     0
  0
SCALE
  5
4C
102
{ACAD_REACTORS
330
47
102
}
330
47
100
AcDbScale
 70
     0
300
1:8
140
1.0
141
8.0
290
     0
  0
SCALE
  5
4D
102
{ACAD_REACTORS
330
47
102
}
330
47
100
AcDbScale
 70
     0
300
1:10
140
1.0
141
10.0
290
     0
  0
SCALE
  5
4E
102
{ACAD_REACTORS
330
47
102
}
330
47
100
AcDbScale
 70
     0
300
1:16
140
1.0
141
16.0
290
     0
  0
SCALE
  5
4F
102
{ACAD_REACTORS
330
47
102
}
330
47
100
AcDbScale
 70
     0
300
1:20
140
1.0
141
20.0
290
     0
  0
SCALE
  5
50
102
{ACAD_REACTORS
330
47
102
}
330
47
100
AcDbScale
 70
     0
300
1:30
140
1.0
141
30.0
290
     0
  0
SCALE
  5
51
102
{ACAD_REACTORS
330
47
102
}
330
47
100
AcDbScale
 70
     0
300
1:40
140
1.0
141
40.0
290
     0
  0
SCALE
  5
52
102
{ACAD_REACTORS
330
47
102
}
330
47
100
AcDbScale
 70
     0
300
1:50
140
1.0
141
50.0
290
     0
  0
SCALE
  5
53
102
{ACAD_REACTORS
330
47
102
}
330
47
100
AcDbScale
 70
     0
300
1:100
140
1.0
141
100.0
290
     0
  0
SCALE
  5
54
102
{ACAD_REACTORS
330
47
102
}
330
47
100
AcDbScale
 70
     0
300
2:1
140
2.0
141
1.0
290
     0
  0
SCALE
  5
55
102
{ACAD_REACTORS
330
47
102
}
330
47
100
AcDbScale
 70
     0
300
4:1
140
4.0
141
1.0
290
     0
  0
SCALE
  5
56
102
{ACAD_REACTORS
330
47
102
}
330
47
100
AcDbScale
 70
     0
300
8:1
140
8.0
141
1.0
290
     0
  0
SCALE
  5
57
102
{ACAD_REACTORS
330
47
102
}
330
47
100
AcDbScale
 70
     0
300
10:1
140
10.0
141
1.0
290
     0
  0
SCALE
  5
58
102
{ACAD_REACTORS
330
47
102
}
330
47
100
AcDbScale
 70
     0
300
100:1
140
100.0
141
1.0
290
     0
  0
SCALE
  5
59
102
{ACAD_REACTORS
330
47
102
}
330
47
100
AcDbScale
 70
     0
300
1/128" = 1'-0"
140
0.0078125
141
12.0
290
     0
  0
SCALE
  5
5A
102
{ACAD_REACTORS
330
47
102
}
330
47
100
AcDbScale
 70
     0
300
1/64" = 1'-0"
140
0.015625
141
12.0
290
     0
  0
SCALE
  5
5B
102
{ACAD_REACTORS
330
47
102
}
330
47
100
AcDbScale
 70
     0
300
1/32" = 1'-0"
140
0.03125
141
12.0
290
     0
  0
SCALE
  5
5C
102
{ACAD_REACTORS
330
47
102
}
330
47
100
AcDbScale
 70
     0
300
1/16" = 1'-0"
140
0.0625
141
12.0
290
     0
  0
SCALE
  5
5D
102
{ACAD_REACTORS
330
47
102
}
330
47
100
AcDbScale
 70
     0
300
3/32" = 1'-0"
140
0.09375
141
12.0
290
     0
  0
SCALE
  5
5E
102
{ACAD_REACTORS
330
47
102
}
330
47
100
AcDbScale
 70
     0
300
1/8" = 1'-0"
140
0.125
141
12.0
290
     0
  0
SCALE
  5
5F
102
{ACAD_REACTORS
330
47
102
}
330
47
100
AcDbScale
 70
     0
300
3/16" = 1'-0"
140
0.1875
141
12.0
290
     0
  0
SCALE
  5
60
102
{ACAD_REACTORS
330
47
102
}
330
47
100
AcDbScale
 70
     0
300
1/4" = 1'-0"
140
0.25
141
12.0
290
     0
  0
SCALE
  5
61
102
{ACAD_REACTORS
330
47
102
}
330
47
100
AcDbScale
 70
     0
300
3/8" = 1'-0"
140
0.375
141
12.0
290
     0
  0
SCALE
  5
62
102
{ACAD_REACTORS
330
47
102
}
330
47
100
AcDbScale
 70
     0
300
1/2" = 1'-0"
140
0.5
141
12.0
290
     0
  0
SCALE
  5
63
102
{ACAD_REACTORS
330
47
102
}
330
47
100
AcDbScale
 70
     0
300
3/4" = 1'-0"
140
0.75
141
12.0
290
     0
  0
SCALE
  5
64
102
{ACAD_REACTORS
330
47
102
}
330
47
100
AcDbScale
 70
     0
300
1" = 1'-0"
140
1.0
141
12.0
290
     0
  0
SCALE
  5
65
102
{ACAD_REACTORS
330
47
102
}
330
47
100
AcDbScale
 70
     0
300
1-1/2" = 1'-0"
140
1.5
141
12.0
290
     0
  0
SCALE
  5
66
102
{ACAD_REACTORS
330
47
102
}
330
47
100
AcDbScale
 70
     0
300
3" = 1'-0"
140
3.0
141
12.0
290
     0
  0
SCALE
  5
67
102
{ACAD_REACTORS
330
47
102
}
330
47
100
AcDbScale
 70
     0
300
6" = 1'-0"
140
6.0
141
12.0
290
     0
  0
SCALE
  5
68
102
{ACAD_REACTORS
330
47
102
}
330
47
100
AcDbScale
 70
     0
300
1'-0" = 1'-0"
140
12.0
141
12.0
290
     0
  0
ENDSEC
  0
EOF
