  0
SECTION
  2
HEADER
  9
$ACADVER
  1
AC1015
  9
$ACADMAINTVER
 70
     6
  9
$DWGCODEPAGE
  3
ANSI_1252
  9
$INSBASE
 10
0.0
 20
0.0
 30
0.0
  9
$EXTMIN
 10
0.0
 20
-97.5
 30
0.0
  9
$EXTMAX
 10
175.0
 20
112.1
 30
0.0
  9
$LIMMIN
 10
0.0
 20
0.0
  9
$LIMMAX
 10
420.0
 20
297.0
  9
$ORTHOMODE
 70
     0
  9
$REGENMODE
 70
     1
  9
$FILLMODE
 70
     1
  9
$QTEXTMODE
 70
     0
  9
$MIRRTEXT
 70
     1
  9
$LTSCALE
 40
1.0
  9
$ATTMODE
 70
     1
  9
$TEXTSIZE
 40
6.35
  9
$TRACEWID
 40
1.0
  9
$TEXTSTYLE
  7
Standard
  9
$CLAYER
  8
0
  9
$CELTYPE
  6
ByLayer
  9
$CECOLOR
 62
   256
  9
$CELTSCALE
 40
1.0
  9
$DISPSILH
 70
     0
  9
$DIMSCALE
 40
1.0
  9
$DIMASZ
 40
5.9944
  9
$DIMEXO
 40
0.9906
  9
$DIMDLI
 40
3.75
  9
$DIMRND
 40
0.0
  9
$DIMDLE
 40
0.0
  9
$DIMEXE
 40
0.9906
  9
$DIMTP
 40
0.0
  9
$DIMTM
 40
0.0
  9
$DIMTXT
 40
6.35
  9
$DIMCEN
 40
2.5
  9
$DIMTSZ
 40
0.0
  9
$DIMTOL
 70
     0
  9
$DIMLIM
 70
     0
  9
$DIMTIH
 70
     1
  9
$DIMTOH
 70
     1
  9
$DIMSE1
 70
     0
  9
$DIMSE2
 70
     0
  9
$DIMTAD
 70
     1
  9
$DIMZIN
 70
     0
  9
$DIMBLK
  1

  9
$DIMASO
 70
     1
  9
$DIMSHO
 70
     1
  9
$DIMPOST
  1

  9
$DIMAPOST
  1

  9
$DIMALT
 70
     0
  9
$DIMALTD
 70
     3
  9
$DIMALTF
 40
0.0393700787
  9
$DIMLFAC
 40
1.0
  9
$DIMTOFL
 70
     1
  9
$DIMTVP
 40
0.0
  9
$DIMTIX
 70
     0
  9
$DIMSOXD
 70
     0
  9
$DIMSAH
 70
     0
  9
$DIMBLK1
  1

  9
$DIMBLK2
  1

  9
$DIMSTYLE
  2
ISO-25
  9
$DIMCLRD
 70
     0
  9
$DIMCLRE
 70
     0
  9
$DIMCLRT
 70
     0
  9
$DIMTFAC
 40
1.0
  9
$DIMGAP
 40
1.524
  9
$DIMJUST
 70
     0
  9
$DIMSD1
 70
     0
  9
$DIMSD2
 70
     0
  9
$DIMTOLJ
 70
     0
  9
$DIMTZIN
 70
     0
  9
$DIMALTZ
 70
     0
  9
$DIMALTTZ
 70
     0
  9
$DIMUPT
 70
     0
  9
$DIMDEC
 70
     2
  9
$DIMTDEC
 70
     2
  9
$DIMALTU
 70
     2
  9
$DIMALTTD
 70
     3
  9
$DIMTXSTY
  7
Standard
  9
$DIMAUNIT
 70
     0
  9
$DIMADEC
 70
     2
  9
$DIMALTRND
 40
0.0
  9
$DIMAZIN
 70
     0
  9
$DIMDSEP
 70
    44
  9
$DIMATFIT
 70
     3
  9
$DIMFRAC
 70
     0
  9
$DIMLDRBLK
  1

  9
$DIMLUNIT
 70
     2
  9
$DIMLWD
 70
    -2
  9
$DIMLWE
 70
    -2
  9
$DIMTMOVE
 70
     0
  9
$LUNITS
 70
     2
  9
$LUPREC
 70
     2
  9
$SKETCHINC
 40
1.0
  9
$FILLETRAD
 40
10.0
  9
$AUNITS
 70
     0
  9
$AUPREC
 70
     2
  9
$MENU
  1
.
  9
$ELEVATION
 40
0.0
  9
$PELEVATION
 40
0.0
  9
$THICKNESS
 40
0.0
  9
$LIMCHECK
 70
     0
  9
$CHAMFERA
 40
0.0
  9
$CHAMFERB
 40
0.0
  9
$CHAMFERC
 40
0.0
  9
$CHAMFERD
 40
0.0
  9
$SKPOLY
 70
     0
  9
$TDCREATE
 40
2458381.641787002
  9
$TDUCREATE
 40
2458381.600120336
  9
$TDUPDATE
 40
2458381.641818241
  9
$TDUUPDATE
 40
2458381.600151574
  9
$TDINDWG
 40
0.0000000116
  9
$TDUSRTIMER
 40
0.0000000116
  9
$USRTIMER
 70
     1
  9
$ANGBASE
 50
0.0
  9
$ANGDIR
 70
     0
  9
$PDMODE
 70
     0
  9
$PDSIZE
 40
-1.0
  9
$PLINEWID
 40
0.0
  9
$SPLFRAME
 70
     0
  9
$SPLINETYPE
 70
     6
  9
$SPLINESEGS
 70
     8
  9
$HANDSEED
  5
EF
  9
$SURFTAB1
 70
     6
  9
$SURFTAB2
 70
     6
  9
$SURFTYPE
 70
     6
  9
$SURFU
 70
     6
  9
$SURFV
 70
     6
  9
$UCSBASE
  2

  9
$UCSNAME
  2

  9
$UCSORG
 10
0.0
 20
0.0
 30
0.0
  9
$UCSXDIR
 10
1.0
 20
0.0
 30
0.0
  9
$UCSYDIR
 10
0.0
 20
1.0
 30
0.0
  9
$UCSORTHOREF
  2

  9
$UCSORTHOVIEW
 70
     0
  9
$UCSORGTOP
 10
0.0
 20
0.0
 30
0.0
  9
$UCSORGBOTTOM
 10
0.0
 20
0.0
 30
0.0
  9
$UCSORGLEFT
 10
0.0
 20
0.0
 30
0.0
  9
$UCSORGRIGHT
 10
0.0
 20
0.0
 30
0.0
  9
$UCSORGFRONT
 10
0.0
 20
0.0
 30
0.0
  9
$UCSORGBACK
 10
0.0
 20
0.0
 30
0.0
  9
$PUCSBASE
  2

  9
$PUCSNAME
  2

  9
$PUCSORG
 10
0.0
 20
0.0
 30
0.0
  9
$PUCSXDIR
 10
1.0
 20
0.0
 30
0.0
  9
$PUCSYDIR
 10
0.0
 20
1.0
 30
0.0
  9
$PUCSORTHOREF
  2

  9
$PUCSORTHOVIEW
 70
     0
  9
$PUCSORGTOP
 10
0.0
 20
0.0
 30
0.0
  9
$PUCSORGBOTTOM
 10
0.0
 20
0.0
 30
0.0
  9
$PUCSORGLEFT
 10
0.0
 20
0.0
 30
0.0
  9
$PUCSORGRIGHT
 10
0.0
 20
0.0
 30
0.0
  9
$PUCSORGFRONT
 10
0.0
 20
0.0
 30
0.0
  9
$PUCSORGBACK
 10
0.0
 20
0.0
 30
0.0
  9
$USERI1
 70
     0
  9
$USERI2
 70
     0
  9
$USERI3
 70
     0
  9
$USERI4
 70
     0
  9
$USERI5
 70
     0
  9
$USERR1
 40
0.0
  9
$USERR2
 40
0.0
  9
$USERR3
 40
0.0
  9
$USERR4
 40
0.0
  9
$USERR5
 40
0.0
  9
$WORLDVIEW
 70
     1
  9
$SHADEDGE
 70
     3
  9
$SHADEDIF
 70
    70
  9
$TILEMODE
 70
     1
  9
$MAXACTVP
 70
    64
  9
$PINSBASE
 10
0.0
 20
0.0
 30
0.0
  9
$PLIMCHECK
 70
     0
  9
$PEXTMIN
 10
-97.5
 20
-97.5
 30
0.0
  9
$PEXTMAX
 10
97.5
 20
112.1
 30
0.0
  9
$PLIMMIN
 10
-118.9974358974
 20
-105.5615384615
  9
$PLIMMAX
 10
200.2394871795
 20
120.1615384615
  9
$UNITMODE
 70
     0
  9
$VISRETAIN
 70
     1
  9
$PLINEGEN
 70
     0
  9
$PSLTSCALE
 70
     1
  9
$TREEDEPTH
 70
  3020
  9
$CMLSTYLE
  2
Standard
  9
$CMLJUST
 70
     0
  9
$CMLSCALE
 40
20.0
  9
$PROXYGRAPHICS
 70
     1
  9
$MEASUREMENT
 70
     1
  9
$CELWEIGHT
370
    -1
  9
$ENDCAPS
280
     0
  9
$JOINSTYLE
280
     0
  9
$LWDISPLAY
290
     1
  9
$INSUNITS
 70
     4
  9
$HYPERLINKBASE
  1

  9
$STYLESHEET
  1

  9
$XEDIT
290
     1
  9
$CEPSNTYPE
380
     0
  9
$PSTYLEMODE
290
     1
  9
$FINGERPRINTGUID
  2
{D82B2086-8C2C-40A2-87FA-C7AB5C680429}
  9
$VERSIONGUID
  2
{FAEB1C32-E019-11D5-929B-00C0DF256EC4}
  9
$EXTNAMES
290
     1
  9
$PSVPSCALE
 40
0.0
  9
$OLESTARTUP
290
     0
  0
ENDSEC
  0
SECTION
  2
CLASSES
  0
CLASS
  1
ACDBDICTIONARYWDFLT
  2
AcDbDictionaryWithDefault
  3
ObjectDBX Classes
 90
        0
280
     0
281
     0
  0
CLASS
  1
VISUALSTYLE
  2
AcDbVisualStyle
  3
ObjectDBX Classes
 90
     4095
280
     0
281
     0
  0
CLASS
  1
MATERIAL
  2
AcDbMaterial
  3
ObjectDBX Classes
 90
     1153
280
     0
281
     0
  0
CLASS
  1
SCALE
  2
AcDbScale
  3
ObjectDBX Classes
 90
     1153
280
     0
281
     0
  0
CLASS
  1
TABLESTYLE
  2
AcDbTableStyle
  3
ObjectDBX Classes
 90
     4095
280
     0
281
     0
  0
CLASS
  1
MLEADERSTYLE
  2
AcDbMLeaderStyle
  3
ACDB_MLEADERSTYLE_CLASS
 90
     4095
280
     0
281
     0
  0
CLASS
  1
SUN
  2
AcDbSun
  3
SCENEOE
 90
     1153
280
     0
281
     0
  0
CLASS
  1
ACDBPLACEHOLDER
  2
AcDbPlaceHolder
  3
ObjectDBX Classes
 90
        0
280
     0
281
     0
  0
CLASS
  1
LAYOUT
  2
AcDbLayout
  3
ObjectDBX Classes
 90
        0
280
     0
281
     0
  0
ENDSEC
  0
SECTION
  2
TABLES
  0
TABLE
  2
VPORT
  5
8
330
0
100
AcDbSymbolTable
 70
     1
  0
VPORT
  5
29
330
8
100
AcDbSymbolTableRecord
100
AcDbViewportTableRecord
  2
*Active
 70
     0
 10
0.0
 20
0.0
 11
1.0
 21
1.0
 12
87.5
 22
7.3
 13
0.0
 23
0.0
 14
10.0
 24
10.0
 15
10.0
 25
10.0
 16
0.0
 26
0.0
 36
1.0
 17
0.0
 27
0.0
 37
0.0
 40
213.792
 41
0.8349236641
 42
50.0
 43
0.0
 44
0.0
 50
0.0
 51
0.0
 71
     0
 72
   100
 73
     1
 74
     3
 75
     0
 76
     0
 77
     0
 78
     0
281
     0
 65
     1
110
0.0
120
0.0
130
0.0
111
1.0
121
0.0
131
0.0
112
0.0
122
1.0
132
0.0
 79
     0
146
0.0
  0
ENDTAB
  0
TABLE
  2
LTYPE
  5
5
330
0
100
AcDbSymbolTable
 70
     6
  0
LTYPE
  5
14
330
5
100
AcDbSymbolTableRecord
100
AcDbLinetypeTableRecord
  2
ByBlock
 70
     0
  3

 72
    65
 73
     0
 40
0.0
  0
LTYPE
  5
15
330
5
100
AcDbSymbolTableRecord
100
AcDbLinetypeTableRecord
  2
ByLayer
 70
     0
  3

 72
    65
 73
     0
 40
0.0
  0
LTYPE
  5
16
330
5
100
AcDbSymbolTableRecord
100
AcDbLinetypeTableRecord
  2
Continuous
 70
     0
  3
Solid line
 72
    65
 73
     0
 40
0.0
  0
LTYPE
  5
6E
330
5
100
AcDbSymbolTableRecord
100
AcDbLinetypeTableRecord
  2
HIDDEN
 70
     0
  3
Hidden __ __ __ __ __ __ __ __ __ __ __ __ __ __
 72
    65
 73
     2
 40
1.905
 49
1.27
 74
     0
 49
-0.635
 74
     0
  0
LTYPE
  5
6F
330
5
100
AcDbSymbolTableRecord
100
AcDbLinetypeTableRecord
  2
PHANTOM
 70
     0
  3
Phantom ______  __  __  ______  __  __  ______
 72
    65
 73
     6
 40
12.7
 49
6.35
 74
     0
 49
-1.27
 74
     0
 49
1.27
 74
     0
 49
-1.27
 74
     0
 49
1.27
 74
     0
 49
-1.27
 74
     0
  0
LTYPE
  5
70
330
5
100
AcDbSymbolTableRecord
100
AcDbLinetypeTableRecord
  2
CENTER
 70
     0
  3
Center ____ _ ____ _ ____ _ ____ _ ____ _ ____
 72
    65
 73
     4
 40
10.16
 49
6.35
 74
     0
 49
-1.27
 74
     0
 49
1.27
 74
     0
 49
-1.27
 74
     0
  0
LTYPE
  5
71
330
5
100
AcDbSymbolTableRecord
100
AcDbLinetypeTableRecord
  2
CENTERX2
 70
     0
  3
Center (2x) ________  __  ________  __  _____
 72
    65
 73
     4
 40
20.32
 49
12.7
 74
     0
 49
-2.54
 74
     0
 49
2.54
 74
     0
 49
-2.54
 74
     0
  0
LTYPE
  5
72
330
5
100
AcDbSymbolTableRecord
100
AcDbLinetypeTableRecord
  2
DOT2
 70
     0
  3
Dot (.5x) ........................................
 72
    65
 73
     2
 40
0.635
 49
0.0
 74
     0
 49
-0.635
 74
     0
  0
ENDTAB
  0
TABLE
  2
LAYER
  5
2
330
0
100
AcDbSymbolTable
 70
     1
  0
LAYER
  5
10
330
2
100
AcDbSymbolTableRecord
100
AcDbLayerTableRecord
  2
0
 70
     0
 62
     7
  6
Continuous
370
    -3
390
F
  0
ENDTAB
  0
TABLE
  2
STYLE
  5
3
330
0
100
AcDbSymbolTable
 70
     1
  0
STYLE
  5
11
330
3
100
AcDbSymbolTableRecord
100
AcDbTextStyleTableRecord
  2
Standard
 70
     0
 40
0.0
 41
1.0
 50
0.0
 71
     0
 42
6.35
  3
txt
  4

  0
ENDTAB
  0
TABLE
  2
VIEW
  5
6
330
0
100
AcDbSymbolTable
 70
     0
  0
ENDTAB
  0
TABLE
  2
UCS
  5
7
330
0
100
AcDbSymbolTable
 70
     0
  0
ENDTAB
  0
TABLE
  2
APPID
  5
9
330
0
100
AcDbSymbolTable
 70
     1
  0
APPID
  5
12
330
9
100
AcDbSymbolTableRecord
100
AcDbRegAppTableRecord
  2
ACAD
 70
     0
  0
ENDTAB
  0
TABLE
  2
DIMSTYLE
  5
A
330
0
100
AcDbSymbolTable
 70
     1
100
AcDbDimStyleTable
  0
DIMSTYLE
105
27
330
A
100
AcDbSymbolTableRecord
100
AcDbDimStyleTableRecord
  2
ISO-25
 70
     0
 41
2.5
 42
0.625
 43
3.75
 44
1.25
 73
     0
 74
     0
 77
     1
 78
     8
140
2.5
141
2.5
143
0.0393700787
147
0.625
171
     3
172
     1
178
     0
271
     2
272
     2
274
     3
278
    44
283
     0
284
     8
340
11
  0
ENDTAB
  0
TABLE
  2
BLOCK_RECORD
  5
1
330
0
100
AcDbSymbolTable
 70
     1
  0
BLOCK_RECORD
  5
1F
330
1
100
AcDbSymbolTableRecord
100
AcDbBlockTableRecord
  2
*Model_Space
340
22
  0
BLOCK_RECORD
  5
1B
330
1
100
AcDbSymbolTableRecord
100
AcDbBlockTableRecord
  2
*Paper_Space
340
1E
  0
BLOCK_RECORD
  5
23
330
1
100
AcDbSymbolTableRecord
100
AcDbBlockTableRecord
  2
*Paper_Space0
340
26
  0
ENDTAB
  0
ENDSEC
  0
SECTION
  2
BLOCKS
  0
BLOCK
  5
20
330
1F
100
AcDbEntity
  8
0
100
AcDbBlockBegin
  2
*Model_Space
 70
     0
 10
0.0
 20
0.0
 30
0.0
  3
*Model_Space
  1

  0
ENDBLK
  5
21
330
1F
100
AcDbEntity
  8
0
100
AcDbBlockEnd
  0
BLOCK
  5
1C
330
1B
100
AcDbEntity
 67
     1
  8
0
100
AcDbBlockBegin
  2
*Paper_Space
 70
     0
 10
0.0
 20
0.0
 30
0.0
  3
*Paper_Space
  1

  0
ENDBLK
  5
1D
330
1B
100
AcDbEntity
 67
     1
  8
0
100
AcDbBlockEnd
  0
BLOCK
  5
24
330
23
100
AcDbEntity
  8
0
100
AcDbBlockBegin
  2
*Paper_Space0
 70
     0
 10
0.0
 20
0.0
 30
0.0
  3
*Paper_Space0
  1

  0
CIRCLE
  5
CB
330
23
100
AcDbEntity
  8
0
  6
Continuous
 62
     7
370
    25
100
AcDbCircle
 10
20.0
 20
0.0
 30
0.0
 40
9.999999999999957
  0
CIRCLE
  5
CC
330
23
100
AcDbEntity
  8
0
  6
Continuous
 62
     7
370
    25
100
AcDbCircle
 10
20.0
 20
0.0
 30
0.0
 40
6.249999999999815
  0
CIRCLE
  5
CD
330
23
100
AcDbEntity
  8
0
  6
Continuous
 62
     7
370
    25
100
AcDbCircle
 10
155.0
 20
0.0
 30
0.0
 40
6.249999999999801
  0
CIRCLE
  5
CE
330
23
100
AcDbEntity
  8
0
  6
Continuous
 62
     7
370
    25
100
AcDbCircle
 10
155.0
 20
0.0
 30
0.0
 40
9.999999999999886
  0
CIRCLE
  5
CF
330
23
100
AcDbEntity
  8
0
  6
Continuous
 62
     7
370
    25
100
AcDbCircle
 10
20.0
 20
0.0
 30
0.0
 40
1.916987298107959
  0
CIRCLE
  5
D0
330
23
100
AcDbEntity
  8
0
  6
Continuous
 62
     7
370
    25
100
AcDbCircle
 10
20.0
 20
0.0
 30
0.0
 40
2.34999999999987
  0
CIRCLE
  5
D1
330
23
100
AcDbEntity
  8
0
  6
Continuous
 62
     7
370
    25
100
AcDbCircle
 10
155.0
 20
0.0
 30
0.0
 40
2.349999999999824
  0
CIRCLE
  5
D2
330
23
100
AcDbEntity
  8
0
  6
Continuous
 62
     7
370
    25
100
AcDbCircle
 10
155.0
 20
0.0
 30
0.0
 40
1.916987298107955
  0
SPLINE
  5
D3
330
23
100
AcDbEntity
  8
0
  6
Continuous
 62
     7
370
    25
100
AcDbSpline
210
0.0
220
0.0
230
1.0
 70
    11
 71
     3
 72
   101
 73
    97
 74
     0
 42
0.000000001
 43
0.00000001
 40
0.0
 40
0.0
 40
0.0
 40
0.0
 40
0.0156250000000009
 40
0.0156250000000009
 40
0.0312500000000017
 40
0.0312500000000017
 40
0.0625000000000034
 40
0.0625000000000034
 40
0.0781250000000037
 40
0.0781250000000037
 40
0.093750000000004
 40
0.1093750000000043
 40
0.1093750000000043
 40
0.1250000000000046
 40
0.1250000000000046
 40
0.1562500000000052
 40
0.1562500000000052
 40
0.1718750000000049
 40
0.1718750000000049
 40
0.1875000000000047
 40
0.1875000000000047
 40
0.2187500000000052
 40
0.2187500000000052
 40
0.2343750000000054
 40
0.2343750000000054
 40
0.2500000000000056
 40
0.2500000000000056
 40
0.2812500000000052
 40
0.2812500000000052
 40
0.2968750000000052
 40
0.2968750000000052
 40
0.3125000000000053
 40
0.3125000000000053
 40
0.3281250000000053
 40
0.3281250000000053
 40
0.3437500000000054
 40
0.3437500000000054
 40
0.3750000000000054
 40
0.3750000000000054
 40
0.3906250000000055
 40
0.3906250000000055
 40
0.4062500000000055
 40
0.4062500000000055
 40
0.4375000000000053
 40
0.4375000000000053
 40
0.4531250000000054
 40
0.4531250000000054
 40
0.4687500000000056
 40
0.4687500000000056
 40
0.4843750000000057
 40
0.4843750000000057
 40
0.5000000000000058
 40
0.5000000000000058
 40
0.531250000000006
 40
0.531250000000006
 40
0.5625000000000063
 40
0.5625000000000063
 40
0.5781250000000063
 40
0.5781250000000063
 40
0.5937500000000064
 40
0.5937500000000064
 40
0.6250000000000066
 40
0.6250000000000066
 40
0.6562500000000068
 40
0.6562500000000068
 40
0.6875000000000069
 40
0.6875000000000069
 40
0.703125000000007
 40
0.703125000000007
 40
0.718750000000007
 40
0.718750000000007
 40
0.7500000000000062
 40
0.7500000000000062
 40
0.7812500000000056
 40
0.7812500000000056
 40
0.7968750000000051
 40
0.7968750000000051
 40
0.8125000000000048
 40
0.8125000000000048
 40
0.8437500000000041
 40
0.8437500000000041
 40
0.8593750000000037
 40
0.8593750000000037
 40
0.8750000000000033
 40
0.8750000000000033
 40
0.9062500000000024
 40
0.9062500000000024
 40
0.9218750000000021
 40
0.9218750000000021
 40
0.9375000000000017
 40
0.9375000000000017
 40
0.9531250000000013
 40
0.9531250000000013
 40
0.968750000000001
 40
0.968750000000001
 40
1.0
 40
1.0
 40
1.0
 40
1.0
 10
146.5097754056858
 20
8.671837916856951
 30
0.0
 10
146.7986021838386
 20
8.930740337249697
 30
0.0
 10
147.1001114052541
 20
9.17543922102055
 30
0.0
 10
147.7219140510781
 20
9.632165409995647
 30
0.0
 10
148.0414705565094
 20
9.843812639972297
 30
0.0
 10
149.0253489532091
 20
10.43049516776319
 30
0.0
 10
149.714648501077
 20
10.75772269285764
 30
0.0
 10
150.8000190152339
 20
11.15162592567055
 30
0.0
 10
151.1697099409791
 20
11.26615589314866
 30
0.0
 10
151.911616799993
 20
11.45819946517565
 30
0.0
 10
152.6596148233476
 20
11.61459776635364
 30
0.0
 10
153.4197586644779
 20
11.7006396158086
 30
0.0
 10
154.1861051041917
 20
11.75097527727397
 30
0.0
 10
154.5736444801766
 20
11.75824854220692
 30
0.0
 10
155.7375228464312
 20
11.72444119538265
 30
0.0
 10
156.5017299778258
 20
11.62913096168875
 30
0.0
 10
157.6306589330889
 20
11.37902465596275
 30
0.0
 10
158.0040493265577
 20
11.27767710260486
 30
0.0
 10
158.7447433619303
 20
11.03784724243388
 30
0.0
 10
159.1132177750864
 20
10.89866170029283
 30
0.0
 10
160.1859191686801
 20
10.43305978158335
 30
0.0
 10
160.8649477173751
 20
10.05724112153951
 30
0.0
 10
161.8284142002116
 20
9.394588135055022
 30
0.0
 10
162.1408802806621
 20
9.15663863778113
 30
0.0
 10
162.7440323510823
 20
8.647916869977013
 30
0.0
 10
163.0307605611347
 20
8.380574276025856
 30
0.0
 10
163.8474155046954
 20
7.540585482402523
 30
0.0
 10
164.3342395736413
 20
6.93034960304391
 30
0.0
 10
164.9744386107946
 20
5.936869968235675
 30
0.0
 10
165.1725058790498
 20
5.592352522727951
 30
0.0
 10
165.5289242203565
 20
4.892718642731083
 30
0.0
 10
165.6885985634267
 20
4.535689984368978
 30
0.0
 10
165.9712459571288
 20
3.807370225401252
 30
0.0
 10
166.0942199026839
 20
3.436079448748759
 30
0.0
 10
166.3027402082313
 20
2.678967552910632
 30
0.0
 10
166.3886171867382
 20
2.290812191366898
 30
0.0
 10
166.5843167651192
 20
1.123202580830759
 30
0.0
 10
166.633694956789
 20
0.3427253004671259
 30
0.0
 10
166.5887656117534
 20
-0.8310285420824705
 30
0.0
 10
166.5538094644183
 20
-1.222789930445849
 30
0.0
 10
166.4425383072167
 20
-2.007368914034585
 30
0.0
 10
166.3669486089046
 20
-2.394558475536017
 30
0.0
 10
166.0836425722249
 20
-3.535248466091952
 30
0.0
 10
165.8195460789626
 20
-4.27080479741311
 30
0.0
 10
165.3098297110884
 20
-5.336465085881669
 30
0.0
 10
165.1202314640232
 20
-5.686005079953673
 30
0.0
 10
164.7097464015843
 20
-6.359012680313274
 30
0.0
 10
164.4881627249754
 20
-6.684165389733715
 30
0.0
 10
164.0126279145707
 20
-7.311941406905018
 30
0.0
 10
163.7573463623877
 20
-7.615898345778345
 30
0.0
 10
163.22187559334
 20
-8.19245215725663
 30
0.0
 10
162.9417567504782
 20
-8.465349319504597
 30
0.0
 10
162.0655960609194
 20
-9.239414885631433
 30
0.0
 10
161.4340812193551
 20
-9.696369421401815
 30
0.0
 10
160.0750500973706
 20
-10.48981428101965
 30
0.0
 10
159.3671440336014
 20
-10.81455695214994
 30
0.0
 10
158.2712742236689
 20
-11.19708408512735
 30
0.0
 10
157.899953956051
 20
-11.30721621018507
 30
0.0
 10
157.1451830953699
 20
-11.49236905962508
 30
0.0
 10
156.760303659248
 20
-11.56744361029164
 30
0.0
 10
155.610046802585
 20
-11.73550643618058
 30
0.0
 10
154.8427365236338
 20
-11.77393697105446
 30
0.0
 10
153.307248860559
 20
-11.70734295008975
 30
0.0
 10
152.5342145423811
 20
-11.59995094990281
 30
0.0
 10
151.0452611614066
 20
-11.24777529468759
 30
0.0
 10
150.3225366344642
 20
-11.00361049179467
 30
0.0
 10
149.2711713557073
 20
-10.53313337566612
 30
0.0
 10
148.9251635032226
 20
-10.35803570017528
 30
0.0
 10
148.2578136487579
 20
-9.979154703195995
 30
0.0
 10
147.9348680055962
 20
-9.774785782928923
 30
0.0
 10
146.9977057353406
 20
-9.117286636507108
 30
0.0
 10
146.414832563365
 20
-8.620241844457091
 30
0.0
 10
145.3376976898507
 20
-7.500054796474007
 30
0.0
 10
144.86015744183
 20
-6.893929897926061
 30
0.0
 10
144.2369657552694
 20
-5.92005768725046
 30
0.0
 10
144.0446717046476
 20
-5.584370612269801
 30
0.0
 10
143.6920414147054
 20
-4.889979497675364
 30
0.0
 10
143.5309732611466
 20
-4.529045846867898
 30
0.0
 10
143.1075115600438
 20
-3.433415070823148
 30
0.0
 10
142.9014633298528
 20
-2.682675672162029
 30
0.0
 10
142.7069485751564
 20
-1.525889048160415
 30
0.0
 10
142.6613185685932
 20
-1.134799082503277
 30
0.0
 10
142.610443561088
 20
-0.3432276284954627
 30
0.0
 10
142.6056115995306
 20
0.0502991163721652
 30
0.0
 10
142.6506490674419
 20
1.224351910501458
 30
0.0
 10
142.7594718234137
 20
1.998411986532006
 30
0.0
 10
143.0427966653886
 20
3.146366752302601
 30
0.0
 10
143.157204841503
 20
3.52495977079784
 30
0.0
 10
143.4205276355947
 20
4.260296292179317
 30
0.0
 10
143.5699315024281
 20
4.619145888008124
 30
0.0
 10
143.9033987572512
 20
5.319682423971795
 30
0.0
 10
144.0874635587826
 20
5.661368544985439
 30
0.0
 10
144.4904873332859
 20
6.327538797666874
 30
0.0
 10
144.7102419260783
 20
6.652796936996425
 30
0.0
 10
145.4095155198897
 20
7.584626007658255
 30
0.0
 10
145.9321218493802
 20
8.154033076071503
 30
0.0
 10
146.5097754056858
 20
8.671837916856951
 30
0.0
  0
SPLINE
  5
D4
330
23
100
AcDbEntity
  8
0
  6
Continuous
 62
     7
370
    25
100
AcDbSpline
210
0.0
220
0.0
230
1.0
 70
    11
 71
     3
 72
   101
 73
    97
 74
     0
 42
0.000000001
 43
0.00000001
 40
0.0
 40
0.0
 40
0.0
 40
0.0
 40
0.0156250000000001
 40
0.0156250000000001
 40
0.0312500000000001
 40
0.0312500000000001
 40
0.0625000000000001
 40
0.0625000000000001
 40
0.0781250000000001
 40
0.0781250000000001
 40
0.09375
 40
0.09375
 40
0.1249999999999998
 40
0.1249999999999998
 40
0.1406249999999998
 40
0.1406249999999998
 40
0.1562499999999998
 40
0.1562499999999998
 40
0.1874999999999996
 40
0.1874999999999996
 40
0.2031249999999996
 40
0.2031249999999996
 40
0.2187499999999996
 40
0.2187499999999996
 40
0.2343749999999996
 40
0.2343749999999996
 40
0.2499999999999996
 40
0.2499999999999996
 40
0.2812499999999996
 40
0.2812499999999996
 40
0.2968749999999997
 40
0.2968749999999997
 40
0.3124999999999997
 40
0.3124999999999997
 40
0.3437499999999998
 40
0.3437499999999998
 40
0.3593749999999998
 40
0.3593749999999998
 40
0.3749999999999998
 40
0.3749999999999998
 40
0.4062499999999998
 40
0.4062499999999998
 40
0.4374999999999998
 40
0.4374999999999998
 40
0.4531249999999997
 40
0.4531249999999997
 40
0.4687499999999996
 40
0.4687499999999996
 40
0.4843749999999995
 40
0.4843749999999995
 40
0.4999999999999994
 40
0.4999999999999994
 40
0.5312499999999993
 40
0.5312499999999993
 40
0.5468749999999994
 40
0.5468749999999994
 40
0.5624999999999996
 40
0.5624999999999996
 40
0.5937499999999994
 40
0.5937499999999994
 40
0.6093749999999994
 40
0.6093749999999994
 40
0.6249999999999993
 40
0.6249999999999993
 40
0.6562499999999996
 40
0.6562499999999996
 40
0.6874999999999997
 40
0.6874999999999997
 40
0.7031249999999998
 40
0.7031249999999998
 40
0.7187499999999998
 40
0.7187499999999998
 40
0.7499999999999998
 40
0.7499999999999998
 40
0.7812499999999999
 40
0.7812499999999999
 40
0.8124999999999999
 40
0.8124999999999999
 40
0.8281249999999999
 40
0.8281249999999999
 40
0.8437499999999998
 40
0.8593749999999998
 40
0.8593749999999998
 40
0.8749999999999998
 40
0.8749999999999998
 40
0.9062499999999998
 40
0.9062499999999998
 40
0.9218749999999999
 40
0.9218749999999999
 40
0.9374999999999999
 40
0.9374999999999999
 40
0.96875
 40
0.96875
 40
0.984375
 40
0.984375
 40
1.0
 40
1.0
 40
1.0
 40
1.0
 10
11.98131652854489
 20
8.383289380767913
 30
0.0
 10
12.26614243223993
 20
8.657130962844972
 30
0.0
 10
12.56312954583072
 20
8.91542413231379
 30
0.0
 10
13.18084094431982
 20
9.401551523044418
 30
0.0
 10
13.50271835089191
 20
9.630099830507472
 30
0.0
 10
14.49585266885504
 20
10.26451806829122
 30
0.0
 10
15.18823815835191
 20
10.61646025080508
 30
0.0
 10
16.26961489184949
 20
11.04294802852606
 30
0.0
 10
16.63726124155509
 20
11.16808331556411
 30
0.0
 10
17.38712108743089
 20
11.38370271653929
 30
0.0
 10
17.76784054541621
 20
11.47354848855993
 30
0.0
 10
18.90858372179982
 20
11.686358567418
 30
0.0
 10
19.67419499766594
 20
11.75522482871412
 30
0.0
 10
20.83008766887687
 20
11.75044877990938
 30
0.0
 10
21.21860015976977
 20
11.73046687541222
 30
0.0
 10
21.98655678848582
 20
11.65432883279819
 30
0.0
 10
22.36600446095577
 20
11.59842011063361
 30
0.0
 10
23.49118803883302
 20
11.37858909272657
 30
0.0
 10
24.22387713385764
 20
11.1630598767514
 30
0.0
 10
25.29642798586858
 20
10.73294349800968
 30
0.0
 10
25.64739078484855
 20
10.57230627115686
 30
0.0
 10
26.32705964539836
 20
10.22135701062598
 30
0.0
 10
26.65723326922294
 20
10.03047336628713
 30
0.0
 10
27.29845327931814
 20
9.617966906639259
 30
0.0
 10
27.60950046557026
 20
9.396345798509408
 30
0.0
 10
28.21211022867848
 20
8.921536649170156
 30
0.0
 10
28.505097760725
 20
8.666939948898063
 30
0.0
 10
29.34236021886257
 20
7.863902664934719
 30
0.0
 10
29.84214407225577
 20
7.280911262106871
 30
0.0
 10
30.50476440801014
 20
6.3345409473716
 30
0.0
 10
30.7110246405138
 20
6.007019352501107
 30
0.0
 10
31.09305221491758
 20
5.326664636009571
 30
0.0
 10
31.26842974303718
 20
4.973882484048445
 30
0.0
 10
31.73531454090989
 20
3.902514122533106
 30
0.0
 10
31.97307661441043
 20
3.162852111121286
 30
0.0
 10
32.2171973517009
 20
2.014217158394495
 30
0.0
 10
32.27989255303464
 20
1.62233922305417
 30
0.0
 10
32.36414438522646
 20
0.8374272288713156
 30
0.0
 10
32.38585546908018
 20
0.4457266676726533
 30
0.0
 10
32.39143037776438
 20
-0.7271699288529163
 30
0.0
 10
32.31633624422765
 20
-1.506182369275345
 30
0.0
 10
32.00293902625958
 20
-3.058174258819925
 30
0.0
 10
31.77022192969563
 20
-3.803278959595029
 30
0.0
 10
31.31440650118427
 20
-4.876096991537899
 30
0.0
 10
31.1445137993156
 20
-5.226262321510287
 30
0.0
 10
30.76830894232166
 20
-5.911561532395517
 30
0.0
 10
30.56245208758868
 20
-6.245474745024191
 30
0.0
 10
30.12176323792271
 20
-6.886678594895185
 30
0.0
 10
29.88616773725315
 20
-7.195410882450405
 30
0.0
 10
29.38465533413022
 20
-7.789414381784395
 30
0.0
 10
29.11909918224936
 20
-8.07395588519075
 30
0.0
 10
28.29163343543195
 20
-8.878660267435714
 30
0.0
 10
27.69499552204415
 20
-9.355565887763657
 30
0.0
 10
26.7336581205027
 20
-9.98434445086802
 30
0.0
 10
26.40067630350867
 20
-10.18011218351464
 30
0.0
 10
25.7181726907157
 20
-10.53837293429512
 30
0.0
 10
25.37083809192188
 20
-10.69990668028715
 30
0.0
 10
24.31103848703081
 20
-11.13354026291721
 30
0.0
 10
23.58093471263224
 20
-11.35514527749078
 30
0.0
 10
22.44928475772279
 20
-11.58462949719466
 30
0.0
 10
22.06515457528546
 20
-11.6437297097242
 30
0.0
 10
21.30008662116424
 20
-11.72466318109827
 30
0.0
 10
20.9172689080771
 20
-11.74696788629547
 30
0.0
 10
19.76794342594643
 20
-11.76010092667731
 30
0.0
 10
19.00055889938924
 20
-11.69767605493873
 30
0.0
 10
17.46344322231212
 20
-11.42199774027187
 30
0.0
 10
16.71788938779661
 20
-11.21298886289982
 30
0.0
 10
15.63500003012309
 20
-10.79546244586118
 30
0.0
 10
15.27990519429093
 20
-10.63881756261545
 30
0.0
 10
14.5818860745883
 20
-10.28953127862438
 30
0.0
 10
14.23735690881395
 20
-10.0957344033345
 30
0.0
 10
13.24309643921254
 20
-9.470484249283043
 30
0.0
 10
12.62747032792096
 20
-8.994011965679857
 30
0.0
 10
11.49151182858798
 20
-7.921526979260809
 30
0.0
 10
10.96817111830982
 20
-7.319069153885007
 30
0.0
 10
10.06565496090045
 20
-6.040800744970458
 30
0.0
 10
9.680365189405322
 20
-5.360974043318979
 30
0.0
 10
9.204899726077228
 20
-4.278246016444105
 30
0.0
 10
9.063759466439725
 20
-3.906271019401982
 30
0.0
 10
8.822819414852301
 20
-3.158273008688281
 30
0.0
 10
8.621177453884826
 20
-2.402016544123035
 30
0.0
 10
8.49710965317657
 20
-1.62946981712837
 30
0.0
 10
8.412487027692261
 20
-0.8486435677354537
 30
0.0
 10
8.389940099060508
 20
-0.4517541416162171
 30
0.0
 10
8.384074463059775
 20
0.7327056299958496
 30
0.0
 10
8.460756006669484
 20
1.511132685274469
 30
0.0
 10
8.693342419776359
 20
2.662407517043742
 30
0.0
 10
8.79061190450446
 20
3.043417574129423
 30
0.0
 10
9.02588747628054
 20
3.799762612774928
 30
0.0
 10
9.162459559847722
 20
4.170166988135295
 30
0.0
 10
9.624052051061135
 20
5.251103290229056
 30
0.0
 10
10.00153132396232
 20
5.935122065562339
 30
0.0
 10
10.67241858367886
 20
6.906045992870284
 30
0.0
 10
10.91435548628666
 20
7.221063766582525
 30
0.0
 10
11.42592638749464
 20
7.822045433534892
 30
0.0
 10
11.69649062484984
 20
8.109447798690855
 30
0.0
 10
11.98131652854489
 20
8.383289380767913
 30
0.0
  0
LINE
  5
DB
330
23
100
AcDbEntity
  8
0
  6
Continuous
 62
     7
370
    25
100
AcDbLine
 10
43.0
 20
97.5
 30
0.0
 11
0.8060780429
 21
89.1593410085
 31
0.0
  0
LINE
  5
DC
330
23
100
AcDbEntity
  8
0
  6
Continuous
 62
     7
370
    25
100
AcDbLine
 10
0.8060780429
 20
-89.1593410085
 30
0.0
 11
43.0
 21
-97.5
 31
0.0
  0
LINE
  5
DD
330
23
100
AcDbEntity
  8
0
  6
Continuous
 62
     7
370
    25
100
AcDbLine
 10
43.0
 20
-97.5
 30
0.0
 11
132.0
 21
-97.5
 31
0.0
  0
LINE
  5
DE
330
23
100
AcDbEntity
  8
0
  6
Continuous
 62
     7
370
    25
100
AcDbLine
 10
132.0
 20
97.5
 30
0.0
 11
43.0
 21
97.5
 31
0.0
  0
LINE
  5
DF
330
23
100
AcDbEntity
  8
0
  6
Continuous
 62
     7
370
    25
100
AcDbLine
 10
132.0
 20
-97.5
 30
0.0
 11
174.1939219571
 21
-89.1593410085
 31
0.0
  0
LINE
  5
E0
330
23
100
AcDbEntity
  8
0
  6
Continuous
 62
     7
370
    25
100
AcDbLine
 10
174.1939219571
 20
89.1593410085
 30
0.0
 11
132.0
 21
97.5
 31
0.0
  0
LINE
  5
E1
330
23
100
AcDbEntity
  8
0
  6
Continuous
 62
     7
370
    25
100
AcDbLine
 10
43.0
 20
-97.5
 30
0.0
 11
43.0
 21
97.5
 31
0.0
  0
LINE
  5
E2
330
23
100
AcDbEntity
  8
0
  6
Continuous
 62
     7
370
    25
100
AcDbLine
 10
132.0
 20
-97.5
 30
0.0
 11
132.0
 21
97.5
 31
0.0
  0
LINE
  5
E3
330
23
100
AcDbEntity
  8
0
  6
Continuous
 62
     7
370
    25
100
AcDbLine
 10
0.0
 20
-88.1783240491
 30
0.0
 11
0.0
 21
88.1783240491
 31
0.0
  0
LINE
  5
E4
330
23
100
AcDbEntity
  8
0
  6
Continuous
 62
     7
370
    25
100
AcDbLine
 10
175.0
 20
-88.1783240491
 30
0.0
 11
175.0
 21
88.1783240491
 31
0.0
  0
LINE
  5
E5
330
23
100
AcDbEntity
  8
0
  6
Continuous
 62
     8
370
    25
100
AcDbLine
 10
0.8060780429
 20
-89.1593410085
 30
0.0
 11
0.8060780429
 21
89.1593410085
 31
0.0
  0
LINE
  5
E6
330
23
100
AcDbEntity
  8
0
  6
Continuous
 62
     8
370
    25
100
AcDbLine
 10
174.1939219571
 20
-89.1593410085
 30
0.0
 11
174.1939219571
 21
89.1593410085
 31
0.0
  0
ARC
  5
E7
330
23
100
AcDbEntity
  8
0
  6
Continuous
 62
     7
370
    25
100
AcDbCircle
 10
1.0
 20
-88.1783240491
 30
0.0
 40
1.000000000000322
100
AcDbArc
 50
180.0
 51
258.8182457898
  0
ARC
  5
E8
330
23
100
AcDbEntity
  8
0
  6
Continuous
 62
     7
370
    25
100
AcDbCircle
 10
1.0
 20
88.1783240491
 30
0.0
 40
1.000000000000311
100
AcDbArc
 50
101.1817542102
 51
180.0
  0
ARC
  5
E9
330
23
100
AcDbEntity
  8
0
  6
Continuous
 62
     7
370
    25
100
AcDbCircle
 10
174.0
 20
-88.1783240491
 30
0.0
 40
1.000000000000259
100
AcDbArc
 50
281.1817542102
 51
360.0
  0
ARC
  5
EA
330
23
100
AcDbEntity
  8
0
  6
Continuous
 62
     7
370
    25
100
AcDbCircle
 10
174.0
 20
88.1783240491
 30
0.0
 40
1.000000000000227
100
AcDbArc
 50
0.0
 51
78.8182457898
  0
VIEWPORT
  5
ED
330
23
100
AcDbEntity
  8
0
100
AcDbViewport
 10
0.0
 20
0.0
 30
0.0
 40
205.6
 41
156.0
 68
     1
 69
     1
 12
87.5
 22
7.3
 13
0.0
 23
0.0
 14
10.0
 24
10.0
 15
10.0
 25
10.0
 16
0.0
 26
0.0
 36
1.0
 17
0.0
 27
0.0
 37
0.0
 42
50.0
 43
0.0
 44
0.0
 45
213.792
 50
0.0
 51
0.0
 72
   100
 90
   557152
  1

281
     0
 71
     1
 74
     0
110
0.0
120
0.0
130
0.0
111
1.0
121
0.0
131
0.0
112
0.0
122
1.0
132
0.0
 79
     0
146
0.0
  0
ENDBLK
  5
25
330
23
100
AcDbEntity
  8
0
100
AcDbBlockEnd
  0
ENDSEC
  0
SECTION
  2
ENTITIES
  0
SPLINE
  5
7F
330
1F
100
AcDbEntity
  8
0
  6
Continuous
 62
     7
370
    25
100
AcDbSpline
210
0.0
220
0.0
230
1.0
 70
     8
 71
     3
 72
    13
 73
     9
 74
     0
 42
0.000000001
 43
0.00000001
 40
0.0
 40
0.0
 40
0.0
 40
0.0
 40
0.0798267133375632
 40
0.2120451651061064
 40
0.3850165466126129
 40
0.6185393700303582
 40
0.8328232729134062
 40
1.0
 40
1.0
 40
1.0
 40
1.0
 10
166.5288398983236
 20
90.69024362013565
 30
0.0
 10
166.4592104116157
 20
90.7038263396116
 30
0.0
 10
166.2742523269357
 20
90.73990636687881
 30
0.0
 10
165.9659279919182
 20
90.89522085200761
 30
0.0
 10
165.5763564639559
 20
91.17643903658944
 30
0.0
 10
165.2369855855724
 20
91.61934161266215
 30
0.0
 10
165.0238251502968
 20
92.13452599445637
 30
0.0
 10
165.0191085846648
 20
92.47484678783381
 30
0.0
 10
165.0170415299191
 20
92.62399380832939
 30
0.0
  0
SPLINE
  5
80
330
1F
100
AcDbEntity
  8
0
  6
Continuous
 62
     7
370
    25
100
AcDbSpline
210
0.0
220
0.0
230
1.0
 70
     8
 71
     3
 72
    15
 73
    11
 74
     0
 42
0.000000001
 43
0.00000001
 40
0.0
 40
0.0
 40
0.0
 40
0.0
 40
0.1607202011459144
 40
0.3631804399007417
 40
0.5305123511723916
 40
0.6748997757619043
 40
0.8010787847718935
 40
0.9096866515765528
 40
0.9997539679827488
 40
1.0
 40
1.0
 40
1.0
 40
1.0
 10
144.9897636877884
 20
97.3567727912637
 30
0.0
 10
144.9800347073198
 20
97.18185356432322
 30
0.0
 10
144.9580500695382
 20
96.78658749736712
 30
0.0
 10
144.698851587399
 20
96.25533228895758
 30
0.0
 10
144.3252135347402
 20
95.83635728743133
 30
0.0
 10
143.9254628283041
 20
95.57290342579853
 30
0.0
 10
143.5391930444889
 20
95.42429394751595
 30
0.0
 10
143.1913535517025
 20
95.36745429689128
 30
0.0
 10
142.9743649166372
 20
95.35638408800892
 30
0.0
 10
142.877281953009
 20
95.36790283594497
 30
0.0
 10
142.8770174791765
 20
95.36793421536827
 30
0.0
  0
SPLINE
  5
81
330
1F
100
AcDbEntity
  8
0
  6
Continuous
 62
     7
370
    25
100
AcDbSpline
210
0.0
220
0.0
230
1.0
 70
     8
 71
     3
 72
    14
 73
    10
 74
     0
 42
0.000000001
 43
0.00000001
 40
0.0
 40
0.0
 40
0.0
 40
0.0
 40
0.0778714119903543
 40
0.2315454344876134
 40
0.3793058520882713
 40
0.5353627967848869
 40
0.7086744319336669
 40
0.8883268391087398
 40
1.0
 40
1.0
 40
1.0
 40
1.0
 10
32.27451000850569
 20
95.39480008223703
 30
0.0
 10
32.18699439918501
 20
95.3814289774312
 30
0.0
 10
31.9267725890666
 20
95.34167089172658
 30
0.0
 10
31.49310843898911
 20
95.40897866137851
 30
0.0
 10
31.00759156252851
 20
95.60018353790278
 30
0.0
 10
30.56725871034309
 20
95.92854937548294
 30
0.0
 10
30.21899110917265
 20
96.39492394760342
 30
0.0
 10
30.01708391549422
 20
96.89783745864952
 30
0.0
 10
30.01899946508841
 20
97.22999590604707
 30
0.0
 10
30.01973374831472
 20
97.35732144078757
 30
0.0
  0
SPLINE
  5
82
330
1F
100
AcDbEntity
  8
0
  6
Continuous
 62
     7
370
    25
100
AcDbSpline
210
0.0
220
0.0
230
1.0
 70
     8
 71
     3
 72
    14
 73
    10
 74
     0
 42
0.000000001
 43
0.00000001
 40
0.0
 40
0.0
 40
0.0
 40
0.0
 40
0.028462377444163
 40
0.2707954812039933
 40
0.4751874326451958
 40
0.6533663992300203
 40
0.8084694241421561
 40
0.9403195272743546
 40
1.0
 40
1.0
 40
1.0
 40
1.0
 10
9.990566061868142
 20
92.618167129667
 30
0.0
 10
9.993669335487343
 20
92.5947241543785
 30
0.0
 10
10.02319436285612
 20
92.37168404514811
 30
0.0
 10
9.911547927301854
 20
91.97543232265362
 30
0.0
 10
9.687545974435816
 20
91.50853259734875
 30
0.0
 10
9.393698838654707
 20
91.16512542363279
 30
0.0
 10
9.086276850374553
 20
90.92980413741414
 30
0.0
 10
8.831584315833183
 20
90.79129237869934
 30
0.0
 10
8.68017121037755
 20
90.74260725565067
 30
0.0
 10
8.632991246186577
 20
90.72743708689181
 30
0.0
  0
SPLINE
  5
88
330
1F
100
AcDbEntity
  8
0
  6
Continuous
 62
     7
370
    25
100
AcDbSpline
210
0.0
220
0.0
230
1.0
 70
     8
 71
     3
 72
    26
 73
    22
 74
     0
 42
0.000000001
 43
0.00000001
 40
0.0
 40
0.0
 40
0.0
 40
0.0
 40
0.0523508372121319
 40
0.1023900614794978
 40
0.1538681884511675
 40
0.2184706898942937
 40
0.2737662224647277
 40
0.3306769006438273
 40
0.3862939295240432
 40
0.4434547260905523
 40
0.4995639110305371
 40
0.5572876412865125
 40
0.6122689501729834
 40
0.6688589692239014
 40
0.7222643322474747
 40
0.7772315305306934
 40
0.8296643309118656
 40
0.8836450267298801
 40
0.9357518605388992
 40
0.9894246744513385
 40
1.0
 40
1.0
 40
1.0
 40
1.0
 10
32.38227396230794
 20
95.40047467052236
 30
0.0
 10
32.33005419142125
 20
95.38382659700731
 30
0.0
 10
32.22792047520447
 20
95.35126556529325
 30
0.0
 10
31.67775961095126
 20
95.17779771176068
 30
0.0
 10
30.79915989537827
 20
94.90652608127424
 30
0.0
 10
29.55559193381348
 20
94.53499374050952
 30
0.0
 10
27.9838767899246
 20
94.08837017150118
 30
0.0
 10
26.27827213848393
 20
93.630710899503
 30
0.0
 10
24.3883974156376
 20
93.15780091242237
 30
0.0
 10
22.39148358281114
 20
92.69758620485256
 30
0.0
 10
20.30674302694742
 20
92.26114184249623
 30
0.0
 10
18.24117689362723
 20
91.87390234957353
 30
0.0
 10
16.22354818080255
 20
91.53937672084115
 30
0.0
 10
14.3653654290562
 20
91.27004248653655
 30
0.0
 10
12.67303572843781
 20
91.05717293327072
 30
0.0
 10
11.23117631371648
 20
90.90046360385901
 30
0.0
 10
10.04122801336514
 20
90.78815030061102
 30
0.0
 10
9.149215739656324
 20
90.71427044530509
 30
0.0
 10
8.59571411903154
 20
90.672721879757
 30
0.0
 10
8.35591602514546
 20
90.65578398129769
 30
0.0
 10
8.406206111876314
 20
90.659371638961
 30
0.0
 10
8.414483924175792
 20
90.65996217197981
 30
0.0
  0
SPLINE
  5
8A
330
1F
100
AcDbEntity
  8
0
  6
Continuous
 62
     7
370
    25
100
AcDbSpline
210
0.0
220
0.0
230
1.0
 70
     8
 71
     3
 72
    26
 73
    22
 74
     0
 42
0.000000001
 43
0.00000001
 40
0.0
 40
0.0
 40
0.0
 40
0.0
 40
0.0446083108731112
 40
0.0963634738247897
 40
0.1496776791562289
 40
0.219862590117333
 40
0.2722992137536692
 40
0.3262558646751527
 40
0.3790197974005686
 40
0.433246704950692
 40
0.4865509834068308
 40
0.5412771692740883
 40
0.5956293323486757
 40
0.6514446447784593
 40
0.7065424550958458
 40
0.7632283274136942
 40
0.8176151790005735
 40
0.8737167990687573
 40
0.9258307962705783
 40
0.9796418750208659
 40
1.0
 40
1.0
 40
1.0
 40
1.0
 10
166.5885944036702
 20
90.6597450682056
 30
0.0
 10
166.5743686266131
 20
90.6607325722456
 30
0.0
 10
166.5436379114561
 20
90.66286579177019
 30
0.0
 10
166.0846463321816
 20
90.69626727425494
 30
0.0
 10
165.2277444624195
 20
90.76454721064341
 30
0.0
 10
163.9639248198673
 20
90.87965178149913
 30
0.0
 10
162.3760648232455
 20
91.05157820584776
 30
0.0
 10
160.7343430112342
 20
91.25682400876877
 30
0.0
 10
158.913978889469
 20
91.5185975409817
 30
0.0
 10
156.9926387382453
 20
91.83342287836211
 30
0.0
 10
154.9932406713566
 20
92.20271983315556
 30
0.0
 10
152.989707023728
 20
92.61482773108246
 30
0.0
 10
151.0059413884024
 20
93.06385830855923
 30
0.0
 10
149.1189922925887
 20
93.52838433497026
 30
0.0
 10
147.3600444605282
 20
93.99367627758305
 30
0.0
 10
145.8181011408322
 20
94.42705583836612
 30
0.0
 10
144.5203741336643
 20
94.8097545234512
 30
0.0
 10
143.5390858350597
 20
95.11015491021536
 30
0.0
 10
142.9012604506033
 20
95.31021383739937
 30
0.0
 10
142.6073528320981
 20
95.40377549393423
 30
0.0
 10
142.6402925702946
 20
95.39329380969062
 30
0.0
 10
142.6493339415548
 20
95.39041677411394
 30
0.0
  0
SPLINE
  5
92
330
1F
100
AcDbEntity
  8
0
  6
Continuous
 62
     8
370
    25
100
AcDbSpline
210
0.0
220
0.0
230
1.0
 70
     8
 71
     3
 72
    26
 73
    22
 74
     0
 42
0.000000001
 43
0.00000001
 40
0.0
 40
0.0
 40
0.0
 40
0.0
 40
0.0200907199664131
 40
0.0733663175084318
 40
0.126653583892062
 40
0.1821940493793437
 40
0.237753390451388
 40
0.2938062686746413
 40
0.3498680514487879
 40
0.4048574823573216
 40
0.4598434054295077
 40
0.5135265371647154
 40
0.5672014031741955
 40
0.6202997977548872
 40
0.6733922534991051
 40
0.7263626922466823
 40
0.7793316216353869
 40
0.8495584524730863
 40
0.9023503243235051
 40
0.9551426413533831
 40
1.0
 40
1.0
 40
1.0
 40
1.0
 10
145.0320213337628
 20
97.35191390745783
 30
0.0
 10
145.0241602959595
 20
97.35495920083986
 30
0.0
 10
144.9954537390821
 20
97.36607985562698
 30
0.0
 10
145.241616094199
 20
97.27106854934459
 30
0.0
 10
145.7640571084077
 20
97.07313887029477
 30
0.0
 10
146.586505570716
 20
96.7686976524855
 30
0.0
 10
147.6578429067149
 20
96.3867502174296
 30
0.0
 10
148.9491092538908
 20
95.94868427606093
 30
0.0
 10
150.4050170297871
 20
95.48333108075768
 30
0.0
 10
151.9852409208849
 20
95.01486749334589
 30
0.0
 10
153.6300817385217
 20
94.56578017068743
 30
0.0
 10
155.3082746522155
 20
94.15160596880582
 30
0.0
 10
156.968504534926
 20
93.78297207435733
 30
0.0
 10
158.5775404003613
 20
93.46839102263147
 30
0.0
 10
160.0908933964597
 20
93.20837323861599
 30
0.0
 10
161.464741579443
 20
93.00506938070026
 30
0.0
 10
162.7917179405091
 20
92.83517302438781
 30
0.0
 10
163.8439196655856
 20
92.72335369440458
 30
0.0
 10
164.5569803393983
 20
92.65695664949425
 30
0.0
 10
164.9426123892603
 20
92.62481632815486
 30
0.0
 10
164.9690488008293
 20
92.62255227652084
 30
0.0
 10
164.9811929025568
 20
92.62151223849267
 30
0.0
  0
SPLINE
  5
93
330
1F
100
AcDbEntity
  8
0
  6
Continuous
 62
     8
370
    25
100
AcDbSpline
210
0.0
220
0.0
230
1.0
 70
     8
 71
     3
 72
    27
 73
    23
 74
     0
 42
0.000000001
 43
0.00000001
 40
0.0
 40
0.0
 40
0.0
 40
0.0
 40
0.0102390262932547
 40
0.0629277032062741
 40
0.115616078288035
 40
0.1683793299590356
 40
0.2211421366046686
 40
0.2745651342371584
 40
0.3279897371703518
 40
0.3828112063492931
 40
0.4376395796894219
 40
0.4936565241660972
 40
0.5496831353198537
 40
0.6054487554611769
 40
0.6612170784793064
 40
0.7169611072993874
 40
0.7726950837128815
 40
0.8370166012853527
 40
0.8875862724141126
 40
0.9381435194752742
 40
0.9895016306778899
 40
1.0
 40
1.0
 40
1.0
 40
1.0
 10
10.02230980478899
 20
92.62190396507452
 30
0.0
 10
10.01541107258137
 20
92.6213475297697
 30
0.0
 10
9.973012375632335
 20
92.61792775188151
 30
0.0
 10
10.17387417139269
 20
92.63398320917796
 30
0.0
 10
10.62640920036802
 20
92.67359893475759
 30
0.0
 10
11.37360401570472
 20
92.74548499645756
 30
0.0
 10
12.35541573201226
 20
92.85387958173987
 30
0.0
 10
13.56360038866895
 20
93.00888260223356
 30
0.0
 10
14.96452723817467
 20
93.21698785566765
 30
0.0
 10
16.5218774110088
 20
93.48633163642307
 30
0.0
 10
18.19582910861527
 20
93.81687954192323
 30
0.0
 10
19.92601854407607
 20
94.20640787042078
 30
0.0
 10
21.65752579427114
 20
94.64082278917579
 30
0.0
 10
23.32842906873039
 20
95.10485968131269
 30
0.0
 10
24.89805531626532
 20
95.57752408104089
 30
0.0
 10
26.32396852599091
 20
96.03939547277972
 30
0.0
 10
27.63681258553722
 20
96.48951020001698
 30
0.0
 10
28.67005405067917
 20
96.86264599070634
 30
0.0
 10
29.41090440526404
 20
97.1390119910782
 30
0.0
 10
29.83861635296619
 20
97.30217594451963
 30
0.0
 10
30.02365540626672
 20
97.37321221338247
 30
0.0
 10
29.98402947402442
 20
97.35803227032423
 30
0.0
 10
29.97730410478448
 20
97.35545590892829
 30
0.0
  0
LINE
  5
94
330
1F
100
AcDbEntity
  8
0
  6
Continuous
 62
     7
370
    25
100
AcDbLine
 10
8.4138435652
 20
90.663201635
 30
0.0
 11
0.8060780429
 21
89.1593410085
 31
0.0
  0
LINE
  5
95
330
1F
100
AcDbEntity
  8
0
  6
Continuous
 62
     7
370
    25
100
AcDbLine
 10
43.0
 20
97.5
 30
0.0
 11
32.3633808099
 21
95.3974124857
 31
0.0
  0
LINE
  5
96
330
1F
100
AcDbEntity
  8
0
  6
Continuous
 62
     7
370
    25
100
AcDbLine
 10
0.8060780429
 20
-89.1593410085
 30
0.0
 11
43.0
 21
-97.5
 31
0.0
  0
LINE
  5
97
330
1F
100
AcDbEntity
  8
0
  6
Continuous
 62
     7
370
    25
100
AcDbLine
 10
43.0
 20
-97.5
 30
0.0
 11
132.0
 21
-97.5
 31
0.0
  0
LINE
  5
98
330
1F
100
AcDbEntity
  8
0
  6
Continuous
 62
     7
370
    25
100
AcDbLine
 10
132.0
 20
97.5
 30
0.0
 11
43.0
 21
97.5
 31
0.0
  0
LINE
  5
99
330
1F
100
AcDbEntity
  8
0
  6
Continuous
 62
     7
370
    25
100
AcDbLine
 10
132.0
 20
-97.5
 30
0.0
 11
174.1939219571
 21
-89.1593410085
 31
0.0
  0
LINE
  5
9A
330
1F
100
AcDbEntity
  8
0
  6
Continuous
 62
     7
370
    25
100
AcDbLine
 10
142.6501866634
 20
95.3947305433
 30
0.0
 11
132.0
 21
97.5
 31
0.0
  0
LINE
  5
9B
330
1F
100
AcDbEntity
  8
0
  6
Continuous
 62
     7
370
    25
100
AcDbLine
 10
174.1939219571
 20
89.1593410085
 30
0.0
 11
166.5891603019
 21
90.6626078473
 31
0.0
  0
LINE
  5
9C
330
1F
100
AcDbEntity
  8
0
  6
Continuous
 62
     7
370
    25
100
AcDbLine
 10
145.0
 20
112.1
 30
0.0
 11
145.0
 21
97.3518360518
 31
0.0
  0
LINE
  5
9D
330
1F
100
AcDbEntity
  8
0
  6
Continuous
 62
     7
370
    25
100
AcDbLine
 10
165.0
 20
92.6214964416
 30
0.0
 11
165.0
 21
112.1
 31
0.0
  0
LINE
  5
9E
330
1F
100
AcDbEntity
  8
0
  6
Continuous
 62
     7
370
    25
100
AcDbLine
 10
10.0
 20
112.1
 30
0.0
 11
10.0
 21
92.6219397089
 31
0.0
  0
LINE
  5
9F
330
1F
100
AcDbEntity
  8
0
  6
Continuous
 62
     7
370
    25
100
AcDbLine
 10
30.0
 20
97.3555510277
 30
0.0
 11
30.0
 21
112.1
 31
0.0
  0
LINE
  5
A0
330
1F
100
AcDbEntity
  8
0
  6
Continuous
 62
     7
370
    25
100
AcDbLine
 10
43.0
 20
-97.5
 30
0.0
 11
43.0
 21
97.5
 31
0.0
  0
LINE
  5
A1
330
1F
100
AcDbEntity
  8
0
  6
Continuous
 62
     7
370
    25
100
AcDbLine
 10
132.0
 20
-97.5
 30
0.0
 11
132.0
 21
97.5
 31
0.0
  0
LINE
  5
A2
330
1F
100
AcDbEntity
  8
0
  6
Continuous
 62
     7
370
    25
100
AcDbLine
 10
0.0
 20
-88.1783240491
 30
0.0
 11
0.0
 21
88.1783240461
 31
0.0
  0
LINE
  5
A3
330
1F
100
AcDbEntity
  8
0
  6
Continuous
 62
     7
370
    25
100
AcDbLine
 10
175.0
 20
-88.1783240491
 30
0.0
 11
175.0
 21
88.1783240461
 31
0.0
  0
LINE
  5
A4
330
1F
100
AcDbEntity
  8
0
  6
Continuous
 62
     7
370
    25
100
AcDbLine
 10
145.0
 20
112.1
 30
0.0
 11
165.0
 21
112.1
 31
0.0
  0
LINE
  5
A5
330
1F
100
AcDbEntity
  8
0
  6
Continuous
 62
     7
370
    25
100
AcDbLine
 10
30.0
 20
112.1
 30
0.0
 11
10.0
 21
112.1
 31
0.0
  0
LINE
  5
A6
330
1F
100
AcDbEntity
  8
0
  6
Continuous
 62
     8
370
    25
100
AcDbLine
 10
0.8060780429
 20
-89.1593410085
 30
0.0
 11
0.8060780429
 21
89.1593410085
 31
0.0
  0
LINE
  5
A7
330
1F
100
AcDbEntity
  8
0
  6
Continuous
 62
     8
370
    25
100
AcDbLine
 10
32.3639284474
 20
95.3946420842
 30
0.0
 11
32.3822739623
 21
95.4004746705
 31
0.0
  0
LINE
  5
A8
330
1F
100
AcDbEntity
  8
0
  6
Continuous
 62
     8
370
    25
100
AcDbLine
 10
174.1939219571
 20
-89.1593410085
 30
0.0
 11
174.1939219571
 21
89.1593410085
 31
0.0
  0
ARC
  5
A9
330
1F
100
AcDbEntity
  8
0
  6
Continuous
 62
     7
370
    25
100
AcDbCircle
 10
1.0
 20
-88.1783240491
 30
0.0
 40
1.000000000000322
100
AcDbArc
 50
180.0
 51
258.8182457898
  0
ARC
  5
AA
330
1F
100
AcDbEntity
  8
0
  6
Continuous
 62
     7
370
    25
100
AcDbCircle
 10
1.0
 20
88.1783240491
 30
0.0
 40
1.000000000000311
100
AcDbArc
 50
101.1817542102
 51
180.0
  0
ARC
  5
AB
330
1F
100
AcDbEntity
  8
0
  6
Continuous
 62
     7
370
    25
100
AcDbCircle
 10
174.0
 20
-88.1783240491
 30
0.0
 40
1.000000000000348
100
AcDbArc
 50
281.1817542102
 51
360.0
  0
ARC
  5
AC
330
1F
100
AcDbEntity
  8
0
  6
Continuous
 62
     7
370
    25
100
AcDbCircle
 10
174.0
 20
88.1783240491
 30
0.0
 40
1.000000000000209
100
AcDbArc
 50
0.0
 51
78.8182457898
  0
SPLINE
  5
AD
330
1B
100
AcDbEntity
 67
     1
  8
0
  6
Continuous
 62
     7
370
    25
100
AcDbSpline
210
0.0
220
0.0
230
1.0
 70
     8
 71
     3
 72
    11
 73
     7
 74
     0
 42
0.000000001
 43
0.00000001
 40
0.0
 40
0.0
 40
0.0
 40
0.0
 40
0.2229901509193827
 40
0.5415185182626799
 40
0.8258337500221649
 40
1.0
 40
1.0
 40
1.0
 40
1.0
 10
-10.02098725835269
 20
94.24084795324123
 30
0.0
 10
-10.02081466634364
 20
94.12080189500776
 30
0.0
 10
-10.02039553676049
 20
93.82927707514527
 30
0.0
 10
-10.17563593883753
 20
93.5216371993381
 30
0.0
 10
-10.28004458014208
 20
93.38960079761539
 30
0.0
 10
-10.27629794059325
 20
93.3941838119056
 30
0.0
 10
-10.2748746810152
 20
93.39592479042776
 30
0.0
  0
SPLINE
  5
AE
330
1B
100
AcDbEntity
 67
     1
  8
0
  6
Continuous
 62
     7
370
    25
100
AcDbSpline
210
0.0
220
0.0
230
1.0
 70
     8
 71
     3
 72
    11
 73
     7
 74
     0
 42
0.000000001
 43
0.00000001
 40
0.0
 40
0.0
 40
0.0
 40
0.0
 40
0.2652744347222413
 40
0.598548793665777
 40
0.9449830989798239
 40
1.0
 40
1.0
 40
1.0
 40
1.0
 10
10.28505360069206
 20
93.38704088240047
 30
0.0
 10
10.27726452489911
 20
93.39303569543524
 30
0.0
 10
10.25968973702132
 20
93.40656202002802
 30
0.0
 10
10.10578037489238
 20
93.64973280522908
 30
0.0
 10
9.976717458246553
 20
93.99206157291445
 30
0.0
 10
10.00773838354419
 20
94.20348199157533
 30
0.0
 10
10.01198964783167
 20
94.23245611361948
 30
0.0
  0
CIRCLE
  5
B1
330
1B
100
AcDbEntity
 67
     1
  8
0
  6
Continuous
 62
     7
370
    25
100
AcDbCircle
 10
0.0
 20
0.0
 30
0.0
 40
88.1783240491187
  0
CIRCLE
  5
B2
330
1B
100
AcDbEntity
 67
     1
  8
0
  6
Continuous
 62
     7
370
    25
100
AcDbCircle
 10
0.0
 20
0.0
 30
0.0
 40
89.15934100848332
  0
CIRCLE
  5
B3
330
1B
100
AcDbEntity
 67
     1
  8
0
  6
Continuous
 62
     7
370
    25
100
AcDbCircle
 10
0.0
 20
0.0
 30
0.0
 40
81.10468477356322
  0
CIRCLE
  5
B4
330
1B
100
AcDbEntity
 67
     1
  8
0
  6
Continuous
 62
     7
370
    25
100
AcDbCircle
 10
0.0
 20
0.0
 30
0.0
 40
82.57968477356317
  0
CIRCLE
  5
B5
330
1B
100
AcDbEntity
 67
     1
  8
0
  6
Continuous
 62
     7
370
    25
100
AcDbCircle
 10
0.0
 20
0.0
 30
0.0
 40
80.00000000000004
  0
SPLINE
  5
B9
330
1B
100
AcDbEntity
 67
     1
  8
0
  6
Continuous
 62
     8
370
    25
100
AcDbSpline
210
0.0
220
0.0
230
1.0
 70
     8
 71
     3
 72
    15
 73
    11
 74
     0
 42
0.000000001
 43
0.00000001
 40
0.0
 40
0.0
 40
0.0
 40
0.0
 40
0.1353703997440668
 40
0.2603574161805451
 40
0.3888229512853004
 40
0.5151901110102232
 40
0.6449429555898808
 40
0.7736798721897411
 40
0.9058597492279704
 40
1.0
 40
1.0
 40
1.0
 40
1.0
 10
-8.383289380767915
 20
90.98299257177074
 30
0.0
 10
-8.850838454226668
 20
91.04479692697032
 30
0.0
 10
-9.750073951303378
 20
91.16366502707848
 30
0.0
 10
-10.72598159998081
 20
91.41077498816836
 30
0.0
 10
-11.39632895990965
 20
91.70284732057296
 30
0.0
 10
-11.74944793458754
 20
92.05199365893694
 30
0.0
 10
-11.78108806846157
 20
92.44731182087702
 30
0.0
 10
-11.47186606543879
 20
92.88410828567397
 30
0.0
 10
-10.93203153143193
 20
93.30167410294044
 30
0.0
 10
-10.35986726783283
 20
93.56641928289471
 30
0.0
 10
-10.12186949105899
 20
93.67654284049749
 30
0.0
  0
SPLINE
  5
BA
330
1B
100
AcDbEntity
 67
     1
  8
0
  6
Continuous
 62
     8
370
    25
100
AcDbSpline
210
0.0
220
0.0
230
1.0
 70
     8
 71
     3
 72
    25
 73
    21
 74
     0
 42
0.000000001
 43
0.00000001
 40
0.0
 40
0.0
 40
0.0
 40
0.0
 40
0.0085733835953259
 40
0.068481718547294
 40
0.1300529354169148
 40
0.1904914002710172
 40
0.252668985742185
 40
0.3118925497330333
 40
0.3728489489600085
 40
0.4303749700485923
 40
0.4895833346883959
 40
0.546061752017559
 40
0.6042074975044466
 40
0.6603347972895613
 40
0.7181489052780746
 40
0.7743127144126642
 40
0.8321758700581673
 40
0.8885984240419793
 40
0.946706368941735
 40
1.0
 40
1.0
 40
1.0
 40
1.0
 10
10.10368135921432
 20
93.69000420138416
 30
0.0
 10
10.15794694794955
 20
93.66852932745448
 30
0.0
 10
10.59140483925351
 20
93.49699422046453
 30
0.0
 10
11.12457665624101
 20
93.15662938186077
 30
0.0
 10
11.65223341206487
 20
92.69789699611708
 30
0.0
 10
11.80976367169856
 20
92.26105640274197
 30
0.0
 10
11.62148353418494
 20
91.87392441036545
 30
0.0
 10
11.08173039715364
 20
91.53937025994401
 30
0.0
 10
10.22846005155075
 20
91.27004592153251
 30
0.0
 10
9.071751999288892
 20
91.0571657180945
 30
0.0
 10
7.679369808662865
 20
90.90048947642894
 30
0.0
 10
6.056684702332912
 20
90.78805796923841
 30
0.0
 10
4.285523510125686
 20
90.71462158101329
 30
0.0
 10
2.374709708483985
 20
90.67144710501643
 30
0.0
 10
0.4150059701549046
 20
90.65459629360446
 30
0.0
 10
-1.57577743050084
 20
90.66164753697417
 30
0.0
 10
-3.506037002328952
 20
90.69309984999377
 30
0.0
 10
-5.34864072315372
 20
90.75453285651197
 30
0.0
 10
-7.005851301341725
 20
90.84478774626709
 30
0.0
 10
-7.937564953564116
 20
90.93827094863244
 30
0.0
 10
-8.383289380767915
 20
90.98299257177074
 30
0.0
  0
SPLINE
  5
BB
330
1B
100
AcDbEntity
 67
     1
  8
0
  6
Continuous
 62
     8
370
    25
100
AcDbSpline
210
0.0
220
0.0
230
1.0
 70
     8
 71
     3
 72
    23
 73
    19
 74
     0
 42
0.000000001
 43
0.00000001
 40
0.0
 40
0.0
 40
0.0
 40
0.0
 40
0.0655756136959417
 40
0.136175251669285
 40
0.2067755710071573
 40
0.2071055219255598
 40
0.2778348583843061
 40
0.3485644693592216
 40
0.4192078144132092
 40
0.4898507547812
 40
0.5605940873594346
 40
0.6313368232614486
 40
0.7029647227777067
 40
0.7745947746313961
 40
0.848097701455082
 40
0.9216098851641112
 40
0.9967156682162951
 40
1.0
 40
1.0
 40
1.0
 40
1.0
 10
-7.136092598873979
 20
92.93675030294773
 30
0.0
 10
-6.756606117896268
 20
92.89283079546104
 30
0.0
 10
-5.968559096455593
 20
92.80162692182407
 30
0.0
 10
-4.560824918944032
 20
92.71384114505744
 30
0.0
 10
-3.521255544419015
 20
92.67397733472619
 30
0.0
 10
-2.451000918972495
 20
92.64414605889536
 30
0.0
 10
-1.348638681860451
 20
92.62344379665467
 30
0.0
 10
0.3364038782301111
 20
92.61679419251992
 30
0.0
 10
2.011396052908754
 20
92.63270550930228
 30
0.0
 10
3.630479381048923
 20
92.67394268803291
 30
0.0
 10
5.144987939858396
 20
92.74538964212003
 30
0.0
 10
6.522227670852415
 20
92.85391759495747
 30
0.0
 10
7.7133611262458
 20
93.00882648727675
 30
0.0
 10
8.696014753218845
 20
93.21717602883263
 30
0.0
 10
9.431668170930775
 20
93.48561548931725
 30
0.0
 10
9.867056057618196
 20
93.8195730366234
 30
0.0
 10
10.04398774920908
 20
94.07521864427841
 30
0.0
 10
9.994784701851374
 20
94.22612305613575
 30
0.0
 10
9.992723228505783
 20
94.23244553897943
 30
0.0
  0
SPLINE
  5
BC
330
1B
100
AcDbEntity
 67
     1
  8
0
  6
Continuous
 62
     8
370
    25
100
AcDbSpline
210
0.0
220
0.0
230
1.0
 70
     8
 71
     3
 72
    12
 73
     8
 74
     0
 42
0.000000001
 43
0.00000001
 40
0.0
 40
0.0
 40
0.0
 40
0.0
 40
0.1275227834823003
 40
0.343579407894241
 40
0.5573301171207631
 40
0.77106065965169
 40
1.0
 40
1.0
 40
1.0
 40
1.0
 10
-9.966338517914085
 20
94.23983317155943
 30
0.0
 10
-9.970307837354591
 20
94.16127611197813
 30
0.0
 10
-9.9810022120057
 20
93.94962304669971
 30
0.0
 10
-9.695798838858833
 20
93.65360787352856
 30
0.0
 10
-9.132069372827441
 20
93.3607704461956
 30
0.0
 10
-8.302457744165233
 20
93.1150617278515
 30
0.0
 10
-7.533685213348496
 20
92.99753341697027
 30
0.0
 10
-7.136092598873979
 20
92.93675030294773
 30
0.0
  0
LINE
  5
BD
330
1B
100
AcDbEntity
 67
     1
  8
0
  6
Continuous
 62
     7
370
    25
100
AcDbLine
 10
-10.0
 20
112.1
 30
0.0
 11
-10.0
 21
94.2365242077
 31
0.0
  0
LINE
  5
BE
330
1B
100
AcDbEntity
 67
     1
  8
0
  6
Continuous
 62
     7
370
    25
100
AcDbLine
 10
10.0
 20
94.2323079087
 30
0.0
 11
10.0
 21
112.1
 31
0.0
  0
LINE
  5
BF
330
1B
100
AcDbEntity
 67
     1
  8
0
  6
Continuous
 62
     7
370
    25
100
AcDbLine
 10
10.0
 20
112.1
 30
0.0
 11
-10.0
 21
112.1
 31
0.0
  0
ARC
  5
C0
330
1B
100
AcDbEntity
 67
     1
  8
0
  6
Continuous
 62
     7
370
    25
100
AcDbCircle
 10
0.0
 20
0.0
 30
0.0
 40
97.4999999999999
100
AcDbArc
 50
95.8868421387
 51
84.1131578613
  0
VIEWPORT
  5
EB
330
1B
100
AcDbEntity
 67
     1
  8
0
100
AcDbViewport
 10
0.0
 20
0.0
 30
0.0
 40
205.6
 41
156.0
 68
     1
 69
     1
 12
87.5
 22
7.3
 13
0.0
 23
0.0
 14
10.0
 24
10.0
 15
10.0
 25
10.0
 16
0.0
 26
0.0
 36
1.0
 17
0.0
 27
0.0
 37
0.0
 42
50.0
 43
0.0
 44
0.0
 45
213.792
 50
0.0
 51
0.0
 72
   100
 90
   557152
  1

281
     0
 71
     1
 74
     0
110
0.0
120
0.0
130
0.0
111
1.0
121
0.0
131
0.0
112
0.0
122
1.0
132
0.0
 79
     0
146
0.0
  0
ENDSEC
  0
SECTION
  2
OBJECTS
  0
DICTIONARY
  5
C
330
0
100
AcDbDictionary
281
     1
  3
ACAD_GROUP
350
D
  3
ACAD_LAYOUT
350
1A
  3
ACAD_MLINESTYLE
350
17
  3
ACAD_PLOTSETTINGS
350
19
  3
ACAD_PLOTSTYLENAME
350
E
  3
ACAD_SCALELIST
350
47
  0
DICTIONARY
  5
D
102
{ACAD_REACTORS
330
C
102
}
330
C
100
AcDbDictionary
281
     1
  0
DICTIONARY
  5
1A
102
{ACAD_REACTORS
330
C
102
}
330
C
100
AcDbDictionary
281
     1
  3
_Left
350
1E
  3
_Top
350
26
  3
Model
350
22
  0
DICTIONARY
  5
17
102
{ACAD_REACTORS
330
C
102
}
330
C
100
AcDbDictionary
281
     1
  3
Standard
350
18
  0
DICTIONARY
  5
19
102
{ACAD_REACTORS
330
C
102
}
330
C
100
AcDbDictionary
281
     1
  0
ACDBDICTIONARYWDFLT
  5
E
102
{ACAD_REACTORS
330
C
102
}
330
C
100
AcDbDictionary
281
     1
  3
Normal
350
F
100
AcDbDictionaryWithDefault
340
F
  0
DICTIONARY
  5
47
102
{ACAD_REACTORS
330
C
102
}
330
C
100
AcDbDictionary
281
     1
  3
A0
350
48
  3
A1
350
49
  3
A2
350
4A
  3
A3
350
4B
  3
A4
350
4C
  3
A5
350
4D
  3
A6
350
4E
  3
A7
350
4F
  3
A8
350
50
  3
A9
350
51
  3
B0
350
52
  3
B1
350
53
  3
B2
350
54
  3
B3
350
55
  3
B4
350
56
  3
B5
350
57
  3
B6
350
58
  3
B7
350
59
  3
B8
350
5A
  3
B9
350
5B
  3
C0
350
5C
  3
C1
350
5D
  3
C2
350
5E
  3
C3
350
5F
  3
C4
350
60
  3
C5
350
61
  3
C6
350
62
  3
C7
350
63
  3
C8
350
64
  3
C9
350
65
  3
D0
350
66
  3
D1
350
67
  3
D2
350
68
  0
LAYOUT
  5
1E
102
{ACAD_REACTORS
330
1A
102
}
330
1A
100
AcDbPlotSettings
  1

  2
none_device
  4
ISO_A4_(210.00_x_297.00_MM)
  6

 40
7.5
 41
20.0
 42
7.5
 43
20.0
 44
210.0
 45
297.0
 46
0.0
 47
0.0
 48
0.0
 49
0.0
140
0.0
141
0.0
142
1.0
143
1.0748717949
 70
   688
 72
     1
 73
     1
 74
     1
  7

 75
     0
147
0.9303435115
148
97.5
149
97.5
100
AcDbLayout
  1
_Left
 70
     1
 71
     1
 10
-118.9974358974
 20
-105.5615384615
 11
200.2394871795
 21
120.1615384615
 12
0.0
 22
0.0
 32
0.0
 14
-97.5
 24
-97.5
 34
0.0
 15
97.5
 25
112.1
 35
0.0
146
0.0
 13
0.0
 23
0.0
 33
0.0
 16
1.0
 26
0.0
 36
0.0
 17
0.0
 27
1.0
 37
0.0
 76
     0
330
1B
331
EB
  0
LAYOUT
  5
26
102
{ACAD_REACTORS
330
1A
102
}
330
1A
100
AcDbPlotSettings
  1

  2
none_device
  4
ISO_A4_(210.00_x_297.00_MM)
  6

 40
7.5
 41
20.0
 42
7.5
 43
20.0
 44
210.0
 45
297.0
 46
0.0
 47
0.0
 48
0.0
 49
0.0
140
0.0
141
0.0
142
1.0
143
1.0748717949
 70
   688
 72
     1
 73
     1
 74
     1
  7

 75
     0
147
0.9303435115
148
97.5
149
97.5
100
AcDbLayout
  1
_Top
 70
     1
 71
     2
 10
0.0
 20
0.0
 11
0.0
 21
0.0
 12
0.0
 22
0.0
 32
0.0
 14
0.0
 24
0.0
 34
0.0
 15
0.0
 25
0.0
 35
0.0
146
0.0
 13
0.0
 23
0.0
 33
0.0
 16
1.0
 26
0.0
 36
0.0
 17
0.0
 27
1.0
 37
0.0
 76
     0
330
23
331
ED
  0
LAYOUT
  5
22
102
{ACAD_REACTORS
330
1A
102
}
330
1A
100
AcDbPlotSettings
  1

  2
none_device
  4
ANSI_A_(11.00_x_8.50_Inches)
  6

 40
6.35
 41
19.05
 42
6.35000508
 43
19.05000254
 44
279.4
 45
215.9
 46
44.1212880134
 47
81.4557749705
 48
0.0
 49
0.0
140
0.0
141
0.0
142
0.0401479008
143
1.0
 70
  1696
 72
     0
 73
     0
 74
     0
  7

 75
     0
147
0.0179189148
148
-1300.4909072572
149
0.0
100
AcDbLayout
  1
Model
 70
     1
 71
     0
 10
0.0
 20
0.0
 11
420.0
 21
297.0
 12
0.0
 22
0.0
 32
0.0
 14
0.0
 24
-97.5
 34
0.0
 15
175.0
 25
112.1
 35
0.0
146
0.0
 13
0.0
 23
0.0
 33
0.0
 16
1.0
 26
0.0
 36
0.0
 17
0.0
 27
1.0
 37
0.0
 76
     0
330
1F
331
29
  0
MLINESTYLE
  5
18
102
{ACAD_REACTORS
330
17
102
}
330
17
100
AcDbMlineStyle
  2
Standard
 70
     0
  3

 62
   256
 51
90.0
 52
90.0
 71
     2
 49
0.5
 62
   256
  6
BYLAYER
 49
-0.5
 62
   256
  6
BYLAYER
  0
ACDBPLACEHOLDER
  5
F
102
{ACAD_REACTORS
330
E
102
}
330
E
  0
SCALE
  5
48
102
{ACAD_REACTORS
330
47
102
}
330
47
100
AcDbScale
 70
     0
300
1:1
140
1.0
141
1.0
290
     1
  0
SCALE
  5
49
102
{ACAD_REACTORS
330
47
102
}
330
47
100
AcDbScale
 70
     0
300
1:2
140
1.0
141
2.0
290
     0
  0
SCALE
  5
4A
102
{ACAD_REACTORS
330
47
102
}
330
47
100
AcDbScale
 70
     0
300
1:4
140
1.0
141
4.0
290
     0
  0
SCALE
  5
4B
102
{ACAD_REACTORS
330
47
102
}
330
47
100
AcDbScale
 70
     0
300
1:5
140
1.0
141
5.0
290
     0
  0
SCALE
  5
4C
102
{ACAD_REACTORS
330
47
102
}
330
47
100
AcDbScale
 70
     0
300
1:8
140
1.0
141
8.0
290
     0
  0
SCALE
  5
4D
102
{ACAD_REACTORS
330
47
102
}
330
47
100
AcDbScale
 70
     0
300
1:10
140
1.0
141
10.0
290
     0
  0
SCALE
  5
4E
102
{ACAD_REACTORS
330
47
102
}
330
47
100
AcDbScale
 70
     0
300
1:16
140
1.0
141
16.0
290
     0
  0
SCALE
  5
4F
102
{ACAD_REACTORS
330
47
102
}
330
47
100
AcDbScale
 70
     0
300
1:20
140
1.0
141
20.0
290
     0
  0
SCALE
  5
50
102
{ACAD_REACTORS
330
47
102
}
330
47
100
AcDbScale
 70
     0
300
1:30
140
1.0
141
30.0
290
     0
  0
SCALE
  5
51
102
{ACAD_REACTORS
330
47
102
}
330
47
100
AcDbScale
 70
     0
300
1:40
140
1.0
141
40.0
290
     0
  0
SCALE
  5
52
102
{ACAD_REACTORS
330
47
102
}
330
47
100
AcDbScale
 70
     0
300
1:50
140
1.0
141
50.0
290
     0
  0
SCALE
  5
53
102
{ACAD_REACTORS
330
47
102
}
330
47
100
AcDbScale
 70
     0
300
1:100
140
1.0
141
100.0
290
     0
  0
SCALE
  5
54
102
{ACAD_REACTORS
330
47
102
}
330
47
100
AcDbScale
 70
     0
300
2:1
140
2.0
141
1.0
290
     0
  0
SCALE
  5
55
102
{ACAD_REACTORS
330
47
102
}
330
47
100
AcDbScale
 70
     0
300
4:1
140
4.0
141
1.0
290
     0
  0
SCALE
  5
56
102
{ACAD_REACTORS
330
47
102
}
330
47
100
AcDbScale
 70
     0
300
8:1
140
8.0
141
1.0
290
     0
  0
SCALE
  5
57
102
{ACAD_REACTORS
330
47
102
}
330
47
100
AcDbScale
 70
     0
300
10:1
140
10.0
141
1.0
290
     0
  0
SCALE
  5
58
102
{ACAD_REACTORS
330
47
102
}
330
47
100
AcDbScale
 70
     0
300
100:1
140
100.0
141
1.0
290
     0
  0
SCALE
  5
59
102
{ACAD_REACTORS
330
47
102
}
330
47
100
AcDbScale
 70
     0
300
1/128" = 1'-0"
140
0.0078125
141
12.0
290
     0
  0
SCALE
  5
5A
102
{ACAD_REACTORS
330
47
102
}
330
47
100
AcDbScale
 70
     0
300
1/64" = 1'-0"
140
0.015625
141
12.0
290
     0
  0
SCALE
  5
5B
102
{ACAD_REACTORS
330
47
102
}
330
47
100
AcDbScale
 70
     0
300
1/32" = 1'-0"
140
0.03125
141
12.0
290
     0
  0
SCALE
  5
5C
102
{ACAD_REACTORS
330
47
102
}
330
47
100
AcDbScale
 70
     0
300
1/16" = 1'-0"
140
0.0625
141
12.0
290
     0
  0
SCALE
  5
5D
102
{ACAD_REACTORS
330
47
102
}
330
47
100
AcDbScale
 70
     0
300
3/32" = 1'-0"
140
0.09375
141
12.0
290
     0
  0
SCALE
  5
5E
102
{ACAD_REACTORS
330
47
102
}
330
47
100
AcDbScale
 70
     0
300
1/8" = 1'-0"
140
0.125
141
12.0
290
     0
  0
SCALE
  5
5F
102
{ACAD_REACTORS
330
47
102
}
330
47
100
AcDbScale
 70
     0
300
3/16" = 1'-0"
140
0.1875
141
12.0
290
     0
  0
SCALE
  5
60
102
{ACAD_REACTORS
330
47
102
}
330
47
100
AcDbScale
 70
     0
300
1/4" = 1'-0"
140
0.25
141
12.0
290
     0
  0
SCALE
  5
61
102
{ACAD_REACTORS
330
47
102
}
330
47
100
AcDbScale
 70
     0
300
3/8" = 1'-0"
140
0.375
141
12.0
290
     0
  0
SCALE
  5
62
102
{ACAD_REACTORS
330
47
102
}
330
47
100
AcDbScale
 70
     0
300
1/2" = 1'-0"
140
0.5
141
12.0
290
     0
  0
SCALE
  5
63
102
{ACAD_REACTORS
330
47
102
}
330
47
100
AcDbScale
 70
     0
300
3/4" = 1'-0"
140
0.75
141
12.0
290
     0
  0
SCALE
  5
64
102
{ACAD_REACTORS
330
47
102
}
330
47
100
AcDbScale
 70
     0
300
1" = 1'-0"
140
1.0
141
12.0
290
     0
  0
SCALE
  5
65
102
{ACAD_REACTORS
330
47
102
}
330
47
100
AcDbScale
 70
     0
300
1-1/2" = 1'-0"
140
1.5
141
12.0
290
     0
  0
SCALE
  5
66
102
{ACAD_REACTORS
330
47
102
}
330
47
100
AcDbScale
 70
     0
300
3" = 1'-0"
140
3.0
141
12.0
290
     0
  0
SCALE
  5
67
102
{ACAD_REACTORS
330
47
102
}
330
47
100
AcDbScale
 70
     0
300
6" = 1'-0"
140
6.0
141
12.0
290
     0
  0
SCALE
  5
68
102
{ACAD_REACTORS
330
47
102
}
330
47
100
AcDbScale
 70
     0
300
1'-0" = 1'-0"
140
12.0
141
12.0
290
     0
  0
ENDSEC
  0
EOF
