  0
SECTION
  2
HEADER
  9
$ACADVER
  1
AC1015
  9
$ACADMAINTVER
 70
     6
  9
$DWGCODEPAGE
  3
ANSI_1252
  9
$INSBASE
 10
0.0
 20
0.0
 30
0.0
  9
$EXTMIN
 10
10.0
 20
-66.5
 30
0.0
  9
$EXTMAX
 10
154.2
 20
82.596384285
 30
0.0
  9
$LIMMIN
 10
0.0
 20
0.0
  9
$LIMMAX
 10
420.0
 20
297.0
  9
$ORTHOMODE
 70
     0
  9
$REGENMODE
 70
     1
  9
$FILLMODE
 70
     1
  9
$QTEXTMODE
 70
     0
  9
$MIRRTEXT
 70
     1
  9
$LTSCALE
 40
1.0
  9
$ATTMODE
 70
     1
  9
$TEXTSIZE
 40
6.35
  9
$TRACEWID
 40
1.0
  9
$TEXTSTYLE
  7
Standard
  9
$CLAYER
  8
0
  9
$CELTYPE
  6
ByLayer
  9
$CECOLOR
 62
   256
  9
$CELTSCALE
 40
1.0
  9
$DISPSILH
 70
     0
  9
$DIMSCALE
 40
1.0
  9
$DIMASZ
 40
5.9944
  9
$DIMEXO
 40
0.9906
  9
$DIMDLI
 40
3.75
  9
$DIMRND
 40
0.0
  9
$DIMDLE
 40
0.0
  9
$DIMEXE
 40
0.9906
  9
$DIMTP
 40
0.0
  9
$DIMTM
 40
0.0
  9
$DIMTXT
 40
6.35
  9
$DIMCEN
 40
2.5
  9
$DIMTSZ
 40
0.0
  9
$DIMTOL
 70
     0
  9
$DIMLIM
 70
     0
  9
$DIMTIH
 70
     1
  9
$DIMTOH
 70
     1
  9
$DIMSE1
 70
     0
  9
$DIMSE2
 70
     0
  9
$DIMTAD
 70
     1
  9
$DIMZIN
 70
     0
  9
$DIMBLK
  1

  9
$DIMASO
 70
     1
  9
$DIMSHO
 70
     1
  9
$DIMPOST
  1

  9
$DIMAPOST
  1

  9
$DIMALT
 70
     0
  9
$DIMALTD
 70
     3
  9
$DIMALTF
 40
0.0393700787
  9
$DIMLFAC
 40
1.0
  9
$DIMTOFL
 70
     1
  9
$DIMTVP
 40
0.0
  9
$DIMTIX
 70
     0
  9
$DIMSOXD
 70
     0
  9
$DIMSAH
 70
     0
  9
$DIMBLK1
  1

  9
$DIMBLK2
  1

  9
$DIMSTYLE
  2
ISO-25
  9
$DIMCLRD
 70
     0
  9
$DIMCLRE
 70
     0
  9
$DIMCLRT
 70
     0
  9
$DIMTFAC
 40
1.0
  9
$DIMGAP
 40
1.524
  9
$DIMJUST
 70
     0
  9
$DIMSD1
 70
     0
  9
$DIMSD2
 70
     0
  9
$DIMTOLJ
 70
     0
  9
$DIMTZIN
 70
     0
  9
$DIMALTZ
 70
     0
  9
$DIMALTTZ
 70
     0
  9
$DIMUPT
 70
     0
  9
$DIMDEC
 70
     2
  9
$DIMTDEC
 70
     2
  9
$DIMALTU
 70
     2
  9
$DIMALTTD
 70
     3
  9
$DIMTXSTY
  7
Standard
  9
$DIMAUNIT
 70
     0
  9
$DIMADEC
 70
     2
  9
$DIMALTRND
 40
0.0
  9
$DIMAZIN
 70
     0
  9
$DIMDSEP
 70
    44
  9
$DIMATFIT
 70
     3
  9
$DIMFRAC
 70
     0
  9
$DIMLDRBLK
  1

  9
$DIMLUNIT
 70
     2
  9
$DIMLWD
 70
    -2
  9
$DIMLWE
 70
    -2
  9
$DIMTMOVE
 70
     0
  9
$LUNITS
 70
     2
  9
$LUPREC
 70
     2
  9
$SKETCHINC
 40
1.0
  9
$FILLETRAD
 40
10.0
  9
$AUNITS
 70
     0
  9
$AUPREC
 70
     2
  9
$MENU
  1
.
  9
$ELEVATION
 40
0.0
  9
$PELEVATION
 40
0.0
  9
$THICKNESS
 40
0.0
  9
$LIMCHECK
 70
     0
  9
$CHAMFERA
 40
0.0
  9
$CHAMFERB
 40
0.0
  9
$CHAMFERC
 40
0.0
  9
$CHAMFERD
 40
0.0
  9
$SKPOLY
 70
     0
  9
$TDCREATE
 40
2458381.631438507
  9
$TDUCREATE
 40
2458381.58977184
  9
$TDUPDATE
 40
2458381.631470822
  9
$TDUUPDATE
 40
2458381.589804155
  9
$TDINDWG
 40
0.0000000116
  9
$TDUSRTIMER
 40
0.0000000116
  9
$USRTIMER
 70
     1
  9
$ANGBASE
 50
0.0
  9
$ANGDIR
 70
     0
  9
$PDMODE
 70
     0
  9
$PDSIZE
 40
-1.0
  9
$PLINEWID
 40
0.0
  9
$SPLFRAME
 70
     0
  9
$SPLINETYPE
 70
     6
  9
$SPLINESEGS
 70
     8
  9
$HANDSEED
  5
F9
  9
$SURFTAB1
 70
     6
  9
$SURFTAB2
 70
     6
  9
$SURFTYPE
 70
     6
  9
$SURFU
 70
     6
  9
$SURFV
 70
     6
  9
$UCSBASE
  2

  9
$UCSNAME
  2

  9
$UCSORG
 10
0.0
 20
0.0
 30
0.0
  9
$UCSXDIR
 10
1.0
 20
0.0
 30
0.0
  9
$UCSYDIR
 10
0.0
 20
1.0
 30
0.0
  9
$UCSORTHOREF
  2

  9
$UCSORTHOVIEW
 70
     0
  9
$UCSORGTOP
 10
0.0
 20
0.0
 30
0.0
  9
$UCSORGBOTTOM
 10
0.0
 20
0.0
 30
0.0
  9
$UCSORGLEFT
 10
0.0
 20
0.0
 30
0.0
  9
$UCSORGRIGHT
 10
0.0
 20
0.0
 30
0.0
  9
$UCSORGFRONT
 10
0.0
 20
0.0
 30
0.0
  9
$UCSORGBACK
 10
0.0
 20
0.0
 30
0.0
  9
$PUCSBASE
  2

  9
$PUCSNAME
  2

  9
$PUCSORG
 10
0.0
 20
0.0
 30
0.0
  9
$PUCSXDIR
 10
1.0
 20
0.0
 30
0.0
  9
$PUCSYDIR
 10
0.0
 20
1.0
 30
0.0
  9
$PUCSORTHOREF
  2

  9
$PUCSORTHOVIEW
 70
     0
  9
$PUCSORGTOP
 10
0.0
 20
0.0
 30
0.0
  9
$PUCSORGBOTTOM
 10
0.0
 20
0.0
 30
0.0
  9
$PUCSORGLEFT
 10
0.0
 20
0.0
 30
0.0
  9
$PUCSORGRIGHT
 10
0.0
 20
0.0
 30
0.0
  9
$PUCSORGFRONT
 10
0.0
 20
0.0
 30
0.0
  9
$PUCSORGBACK
 10
0.0
 20
0.0
 30
0.0
  9
$USERI1
 70
     0
  9
$USERI2
 70
     0
  9
$USERI3
 70
     0
  9
$USERI4
 70
     0
  9
$USERI5
 70
     0
  9
$USERR1
 40
0.0
  9
$USERR2
 40
0.0
  9
$USERR3
 40
0.0
  9
$USERR4
 40
0.0
  9
$USERR5
 40
0.0
  9
$WORLDVIEW
 70
     1
  9
$SHADEDGE
 70
     3
  9
$SHADEDIF
 70
    70
  9
$TILEMODE
 70
     1
  9
$MAXACTVP
 70
    64
  9
$PINSBASE
 10
0.0
 20
0.0
 30
0.0
  9
$PLIMCHECK
 70
     0
  9
$PEXTMIN
 10
-66.5
 20
-66.5
 30
0.0
  9
$PEXTMAX
 10
66.5
 20
82.596384285
 30
0.0
  9
$PLIMMIN
 10
-81.7919368497
 20
-72.2344763187
  9
$PLIMMAX
 10
145.2933253689
 20
88.3308606036
  9
$UNITMODE
 70
     0
  9
$VISRETAIN
 70
     1
  9
$PLINEGEN
 70
     0
  9
$PSLTSCALE
 70
     1
  9
$TREEDEPTH
 70
  3020
  9
$CMLSTYLE
  2
Standard
  9
$CMLJUST
 70
     0
  9
$CMLSCALE
 40
20.0
  9
$PROXYGRAPHICS
 70
     1
  9
$MEASUREMENT
 70
     1
  9
$CELWEIGHT
370
    -1
  9
$ENDCAPS
280
     0
  9
$JOINSTYLE
280
     0
  9
$LWDISPLAY
290
     1
  9
$INSUNITS
 70
     4
  9
$HYPERLINKBASE
  1

  9
$STYLESHEET
  1

  9
$XEDIT
290
     1
  9
$CEPSNTYPE
380
     0
  9
$PSTYLEMODE
290
     1
  9
$FINGERPRINTGUID
  2
{5678E51A-4681-4C88-986C-028BB32CC05E}
  9
$VERSIONGUID
  2
{FAEB1C32-E019-11D5-929B-00C0DF256EC4}
  9
$EXTNAMES
290
     1
  9
$PSVPSCALE
 40
0.0
  9
$OLESTARTUP
290
     0
  0
ENDSEC
  0
SECTION
  2
CLASSES
  0
CLASS
  1
ACDBDICTIONARYWDFLT
  2
AcDbDictionaryWithDefault
  3
ObjectDBX Classes
 90
        0
280
     0
281
     0
  0
CLASS
  1
VISUALSTYLE
  2
AcDbVisualStyle
  3
ObjectDBX Classes
 90
     4095
280
     0
281
     0
  0
CLASS
  1
MATERIAL
  2
AcDbMaterial
  3
ObjectDBX Classes
 90
     1153
280
     0
281
     0
  0
CLASS
  1
SCALE
  2
AcDbScale
  3
ObjectDBX Classes
 90
     1153
280
     0
281
     0
  0
CLASS
  1
TABLESTYLE
  2
AcDbTableStyle
  3
ObjectDBX Classes
 90
     4095
280
     0
281
     0
  0
CLASS
  1
MLEADERSTYLE
  2
AcDbMLeaderStyle
  3
ACDB_MLEADERSTYLE_CLASS
 90
     4095
280
     0
281
     0
  0
CLASS
  1
SUN
  2
AcDbSun
  3
SCENEOE
 90
     1153
280
     0
281
     0
  0
CLASS
  1
ACDBPLACEHOLDER
  2
AcDbPlaceHolder
  3
ObjectDBX Classes
 90
        0
280
     0
281
     0
  0
CLASS
  1
LAYOUT
  2
AcDbLayout
  3
ObjectDBX Classes
 90
        0
280
     0
281
     0
  0
ENDSEC
  0
SECTION
  2
TABLES
  0
TABLE
  2
VPORT
  5
8
330
0
100
AcDbSymbolTable
 70
     1
  0
VPORT
  5
29
330
8
100
AcDbSymbolTableRecord
100
AcDbViewportTableRecord
  2
*Active
 70
     0
 10
0.0
 20
0.0
 11
1.0
 21
1.0
 12
82.1
 22
8.0481921425
 13
0.0
 23
0.0
 14
10.0
 24
10.0
 15
10.0
 25
10.0
 16
0.0
 26
0.0
 36
1.0
 17
0.0
 27
0.0
 37
0.0
 40
152.0783119707
 41
0.9671596041
 42
50.0
 43
0.0
 44
0.0
 50
0.0
 51
0.0
 71
     0
 72
   100
 73
     1
 74
     3
 75
     0
 76
     0
 77
     0
 78
     0
281
     0
 65
     1
110
0.0
120
0.0
130
0.0
111
1.0
121
0.0
131
0.0
112
0.0
122
1.0
132
0.0
 79
     0
146
0.0
  0
ENDTAB
  0
TABLE
  2
LTYPE
  5
5
330
0
100
AcDbSymbolTable
 70
     6
  0
LTYPE
  5
14
330
5
100
AcDbSymbolTableRecord
100
AcDbLinetypeTableRecord
  2
ByBlock
 70
     0
  3

 72
    65
 73
     0
 40
0.0
  0
LTYPE
  5
15
330
5
100
AcDbSymbolTableRecord
100
AcDbLinetypeTableRecord
  2
ByLayer
 70
     0
  3

 72
    65
 73
     0
 40
0.0
  0
LTYPE
  5
16
330
5
100
AcDbSymbolTableRecord
100
AcDbLinetypeTableRecord
  2
Continuous
 70
     0
  3
Solid line
 72
    65
 73
     0
 40
0.0
  0
LTYPE
  5
6E
330
5
100
AcDbSymbolTableRecord
100
AcDbLinetypeTableRecord
  2
HIDDEN
 70
     0
  3
Hidden __ __ __ __ __ __ __ __ __ __ __ __ __ __
 72
    65
 73
     2
 40
1.905
 49
1.27
 74
     0
 49
-0.635
 74
     0
  0
LTYPE
  5
6F
330
5
100
AcDbSymbolTableRecord
100
AcDbLinetypeTableRecord
  2
PHANTOM
 70
     0
  3
Phantom ______  __  __  ______  __  __  ______
 72
    65
 73
     6
 40
12.7
 49
6.35
 74
     0
 49
-1.27
 74
     0
 49
1.27
 74
     0
 49
-1.27
 74
     0
 49
1.27
 74
     0
 49
-1.27
 74
     0
  0
LTYPE
  5
70
330
5
100
AcDbSymbolTableRecord
100
AcDbLinetypeTableRecord
  2
CENTER
 70
     0
  3
Center ____ _ ____ _ ____ _ ____ _ ____ _ ____
 72
    65
 73
     4
 40
10.16
 49
6.35
 74
     0
 49
-1.27
 74
     0
 49
1.27
 74
     0
 49
-1.27
 74
     0
  0
LTYPE
  5
71
330
5
100
AcDbSymbolTableRecord
100
AcDbLinetypeTableRecord
  2
CENTERX2
 70
     0
  3
Center (2x) ________  __  ________  __  _____
 72
    65
 73
     4
 40
20.32
 49
12.7
 74
     0
 49
-2.54
 74
     0
 49
2.54
 74
     0
 49
-2.54
 74
     0
  0
LTYPE
  5
72
330
5
100
AcDbSymbolTableRecord
100
AcDbLinetypeTableRecord
  2
DOT2
 70
     0
  3
Dot (.5x) ........................................
 72
    65
 73
     2
 40
0.635
 49
0.0
 74
     0
 49
-0.635
 74
     0
  0
ENDTAB
  0
TABLE
  2
LAYER
  5
2
330
0
100
AcDbSymbolTable
 70
     1
  0
LAYER
  5
10
330
2
100
AcDbSymbolTableRecord
100
AcDbLayerTableRecord
  2
0
 70
     0
 62
     7
  6
Continuous
370
    -3
390
F
  0
ENDTAB
  0
TABLE
  2
STYLE
  5
3
330
0
100
AcDbSymbolTable
 70
     1
  0
STYLE
  5
11
330
3
100
AcDbSymbolTableRecord
100
AcDbTextStyleTableRecord
  2
Standard
 70
     0
 40
0.0
 41
1.0
 50
0.0
 71
     0
 42
6.35
  3
txt
  4

  0
ENDTAB
  0
TABLE
  2
VIEW
  5
6
330
0
100
AcDbSymbolTable
 70
     0
  0
ENDTAB
  0
TABLE
  2
UCS
  5
7
330
0
100
AcDbSymbolTable
 70
     0
  0
ENDTAB
  0
TABLE
  2
APPID
  5
9
330
0
100
AcDbSymbolTable
 70
     1
  0
APPID
  5
12
330
9
100
AcDbSymbolTableRecord
100
AcDbRegAppTableRecord
  2
ACAD
 70
     0
  0
ENDTAB
  0
TABLE
  2
DIMSTYLE
  5
A
330
0
100
AcDbSymbolTable
 70
     1
100
AcDbDimStyleTable
  0
DIMSTYLE
105
27
330
A
100
AcDbSymbolTableRecord
100
AcDbDimStyleTableRecord
  2
ISO-25
 70
     0
 41
2.5
 42
0.625
 43
3.75
 44
1.25
 73
     0
 74
     0
 77
     1
 78
     8
140
2.5
141
2.5
143
0.0393700787
147
0.625
171
     3
172
     1
178
     0
271
     2
272
     2
274
     3
278
    44
283
     0
284
     8
340
11
  0
ENDTAB
  0
TABLE
  2
BLOCK_RECORD
  5
1
330
0
100
AcDbSymbolTable
 70
     1
  0
BLOCK_RECORD
  5
1F
330
1
100
AcDbSymbolTableRecord
100
AcDbBlockTableRecord
  2
*Model_Space
340
22
  0
BLOCK_RECORD
  5
1B
330
1
100
AcDbSymbolTableRecord
100
AcDbBlockTableRecord
  2
*Paper_Space
340
1E
  0
BLOCK_RECORD
  5
23
330
1
100
AcDbSymbolTableRecord
100
AcDbBlockTableRecord
  2
*Paper_Space0
340
26
  0
ENDTAB
  0
ENDSEC
  0
SECTION
  2
BLOCKS
  0
BLOCK
  5
20
330
1F
100
AcDbEntity
  8
0
100
AcDbBlockBegin
  2
*Model_Space
 70
     0
 10
0.0
 20
0.0
 30
0.0
  3
*Model_Space
  1

  0
ENDBLK
  5
21
330
1F
100
AcDbEntity
  8
0
100
AcDbBlockEnd
  0
BLOCK
  5
1C
330
1B
100
AcDbEntity
 67
     1
  8
0
100
AcDbBlockBegin
  2
*Paper_Space
 70
     0
 10
0.0
 20
0.0
 30
0.0
  3
*Paper_Space
  1

  0
ENDBLK
  5
1D
330
1B
100
AcDbEntity
 67
     1
  8
0
100
AcDbBlockEnd
  0
BLOCK
  5
24
330
23
100
AcDbEntity
  8
0
100
AcDbBlockBegin
  2
*Paper_Space0
 70
     0
 10
0.0
 20
0.0
 30
0.0
  3
*Paper_Space0
  1

  0
CIRCLE
  5
D1
330
23
100
AcDbEntity
  8
0
  6
Continuous
 62
     7
370
    25
100
AcDbCircle
 10
24.2
 20
0.0
 30
0.0
 40
10.25000000000009
  0
CIRCLE
  5
D2
330
23
100
AcDbEntity
  8
0
  6
Continuous
 62
     7
370
    25
100
AcDbCircle
 10
24.2
 20
0.0
 30
0.0
 40
6.100000000000217
  0
CIRCLE
  5
D3
330
23
100
AcDbEntity
  8
0
  6
Continuous
 62
     7
370
    25
100
AcDbCircle
 10
140.2
 20
0.0
 30
0.0
 40
10.25000000000009
  0
CIRCLE
  5
D4
330
23
100
AcDbEntity
  8
0
  6
Continuous
 62
     7
370
    25
100
AcDbCircle
 10
140.2
 20
0.0
 30
0.0
 40
6.100000000000158
  0
CIRCLE
  5
D5
330
23
100
AcDbEntity
  8
0
  6
Continuous
 62
     7
370
    25
100
AcDbCircle
 10
140.2
 20
0.0
 30
0.0
 40
1.906987298107905
  0
CIRCLE
  5
D6
330
23
100
AcDbEntity
  8
0
  6
Continuous
 62
     7
370
    25
100
AcDbCircle
 10
24.2
 20
0.0
 30
0.0
 40
1.906987298107897
  0
CIRCLE
  5
D7
330
23
100
AcDbEntity
  8
0
  6
Continuous
 62
     7
370
    25
100
AcDbCircle
 10
140.2
 20
0.0
 30
0.0
 40
2.340000000000194
  0
CIRCLE
  5
D8
330
23
100
AcDbEntity
  8
0
  6
Continuous
 62
     7
370
    25
100
AcDbCircle
 10
24.2
 20
0.0
 30
0.0
 40
2.340000000000223
  0
SPLINE
  5
D9
330
23
100
AcDbEntity
  8
0
  6
Continuous
 62
     7
370
    25
100
AcDbSpline
210
0.0
220
0.0
230
1.0
 70
    11
 71
     3
 72
   100
 73
    96
 74
     0
 42
0.000000001
 43
0.00000001
 40
0.0
 40
0.0
 40
0.0
 40
0.0
 40
0.0312500000000003
 40
0.0312500000000003
 40
0.0625000000000006
 40
0.0625000000000006
 40
0.0781250000000013
 40
0.0781250000000013
 40
0.093750000000002
 40
0.093750000000002
 40
0.1250000000000024
 40
0.1250000000000024
 40
0.1562500000000028
 40
0.1562500000000028
 40
0.1718750000000024
 40
0.1718750000000024
 40
0.187500000000002
 40
0.187500000000002
 40
0.2187500000000013
 40
0.2187500000000013
 40
0.2500000000000006
 40
0.2500000000000006
 40
0.2812499999999998
 40
0.2812499999999998
 40
0.2968749999999994
 40
0.2968749999999994
 40
0.312499999999999
 40
0.312499999999999
 40
0.3281249999999986
 40
0.3281249999999986
 40
0.3437499999999982
 40
0.3437499999999982
 40
0.3749999999999975
 40
0.3749999999999975
 40
0.3906249999999972
 40
0.3906249999999972
 40
0.4062499999999968
 40
0.4062499999999968
 40
0.4374999999999964
 40
0.4374999999999964
 40
0.4531249999999962
 40
0.4531249999999962
 40
0.4687499999999959
 40
0.4687499999999959
 40
0.4843749999999957
 40
0.4843749999999957
 40
0.4999999999999955
 40
0.4999999999999955
 40
0.531249999999996
 40
0.531249999999996
 40
0.5468749999999957
 40
0.5468749999999957
 40
0.5624999999999954
 40
0.5624999999999954
 40
0.5781249999999951
 40
0.5781249999999951
 40
0.5937499999999949
 40
0.5937499999999949
 40
0.6249999999999942
 40
0.6249999999999942
 40
0.6562499999999937
 40
0.6562499999999937
 40
0.6874999999999931
 40
0.6874999999999931
 40
0.7031249999999934
 40
0.7031249999999934
 40
0.7187499999999937
 40
0.7187499999999937
 40
0.7499999999999951
 40
0.7499999999999951
 40
0.7656249999999954
 40
0.7656249999999954
 40
0.7812499999999959
 40
0.7812499999999959
 40
0.7968749999999962
 40
0.7968749999999962
 40
0.8124999999999967
 40
0.8124999999999967
 40
0.8437499999999973
 40
0.8437499999999973
 40
0.8593749999999977
 40
0.8593749999999977
 40
0.874999999999998
 40
0.874999999999998
 40
0.9062499999999989
 40
0.9062499999999989
 40
0.9218749999999992
 40
0.9218749999999992
 40
0.9374999999999996
 40
0.9374999999999996
 40
0.9531249999999999
 40
0.9531249999999999
 40
0.9687500000000001
 40
0.9687500000000001
 40
1.0
 40
1.0
 40
1.0
 40
1.0
 10
132.3736870241211
 20
8.138788414495913
 30
0.0
 10
132.9109557331567
 20
8.62774553894836
 30
0.0
 10
133.494144336742
 20
9.061979859222594
 30
0.0
 10
134.7174076937216
 20
9.804270734068009
 30
0.0
 10
135.3606504211005
 20
10.11569181250447
 30
0.0
 10
136.3746033816316
 20
10.49216986124521
 30
0.0
 10
136.7210287313194
 20
10.60225957386199
 30
0.0
 10
137.4163786575563
 20
10.78738188517299
 30
0.0
 10
137.7670500652324
 20
10.86312661708612
 30
0.0
 10
138.8280738128296
 20
11.04054482967609
 30
0.0
 10
139.5480434254489
 20
11.09288851348432
 30
0.0
 10
141.0109255843244
 20
11.05753608741593
 30
0.0
 10
141.7312622656876
 20
10.97047699291629
 30
0.0
 10
142.7953136916455
 20
10.73803037984261
 30
0.0
 10
143.1472330273406
 20
10.64345440324087
 30
0.0
 10
143.845300400871
 20
10.41904043442293
 30
0.0
 10
144.1930560436459
 20
10.28836900406395
 30
0.0
 10
145.2060623756027
 20
9.85013535133958
 30
0.0
 10
145.8465827983612
 20
9.495816879544478
 30
0.0
 10
147.0572397288024
 20
8.662714534971238
 30
0.0
 10
147.6308869788081
 20
8.178570290472747
 30
0.0
 10
148.6560380829036
 20
7.121999097121175
 30
0.0
 10
149.1138785735319
 20
6.546592656033949
 30
0.0
 10
149.7156624206671
 20
5.610637551015102
 30
0.0
 10
149.9017746793463
 20
5.286225347083719
 30
0.0
 10
150.2367542952474
 20
4.627510036952332
 30
0.0
 10
150.3868484667216
 20
4.291427532448767
 30
0.0
 10
150.652650755416
 20
3.605978313041622
 30
0.0
 10
150.7683594023299
 20
3.25661179038417
 30
0.0
 10
150.9647695314844
 20
2.5443617523884
 30
0.0
 10
151.0457783697402
 20
2.179316497911249
 30
0.0
 10
151.2309724624539
 20
1.081309797956813
 30
0.0
 10
151.2787324011473
 20
0.3472522476819912
 30
0.0
 10
151.2393162113725
 20
-0.75684554949926
 30
0.0
 10
151.2075314896654
 20
-1.125383778957879
 30
0.0
 10
151.1053785572123
 20
-1.863506613399426
 30
0.0
 10
151.0356163859925
 20
-2.228133671360538
 30
0.0
 10
150.7734425619236
 20
-3.302395763573411
 30
0.0
 10
150.5282428194067
 20
-3.995598245119207
 30
0.0
 10
150.0539059359612
 20
-5.000611830724011
 30
0.0
 10
149.8772237969707
 20
-5.330571900993181
 30
0.0
 10
149.4944827444142
 20
-5.96595580025901
 30
0.0
 10
149.287802959145
 20
-6.272943956908413
 30
0.0
 10
148.8441458743214
 20
-6.865704669331686
 30
0.0
 10
148.6063814756029
 20
-7.15232203969947
 30
0.0
 10
148.1035016466382
 20
-7.70010746979536
 30
0.0
 10
147.8404434045426
 20
-7.959221417041556
 30
0.0
 10
147.0178048980487
 20
-8.693837714294409
 30
0.0
 10
146.4250688454488
 20
-9.127006689289008
 30
0.0
 10
145.469132551952
 20
-9.69082646280094
 30
0.0
 10
145.1401891894765
 20
-9.863538523834139
 30
0.0
 10
144.4743701543638
 20
-10.17294391313266
 30
0.0
 10
144.1358296270392
 20
-10.31065637070758
 30
0.0
 10
143.4478131838434
 20
-10.55283335665499
 30
0.0
 10
143.0983368013122
 20
-10.65729687205201
 30
0.0
 10
142.3884464540352
 20
-10.83277653769604
 30
0.0
 10
142.0260818516261
 20
-10.90400806523118
 30
0.0
 10
140.9405977430908
 20
-11.06352536975471
 30
0.0
 10
140.2180214380944
 20
-11.09934611203852
 30
0.0
 10
138.7749936802105
 20
-11.03523511878591
 30
0.0
 10
138.0487458888249
 20
-10.93297727750148
 30
0.0
 10
136.6508205720418
 20
-10.59868603956803
 30
0.0
 10
135.9737943237034
 20
-10.36750494154828
 30
0.0
 10
134.9906694313574
 20
-9.923708352182837
 30
0.0
 10
134.6670679091822
 20
-9.758598853373188
 30
0.0
 10
134.0426773426008
 20
-9.401287204383271
 30
0.0
 10
133.7407531261916
 20
-9.208738428671154
 30
0.0
 10
132.8651076551137
 20
-8.589898094414577
 30
0.0
 10
132.3212016324795
 20
-8.122855331256424
 30
0.0
 10
131.5678212422231
 20
-7.334918117710151
 30
0.0
 10
131.3296106943003
 20
-7.059939381724323
 30
0.0
 10
130.8837206056753
 20
-6.491471426099072
 30
0.0
 10
130.6751814732102
 20
-6.197093496289846
 30
0.0
 10
130.2869428882764
 20
-5.587863417731417
 30
0.0
 10
130.1072410073315
 20
-5.273013269318617
 30
0.0
 10
129.7775946750053
 20
-4.622032918233618
 30
0.0
 10
129.6268635951949
 20
-4.28370991031421
 30
0.0
 10
129.2289845771802
 20
-3.253096091428473
 30
0.0
 10
129.0352382199846
 20
-2.547519650349462
 30
0.0
 10
128.8513720666314
 20
-1.461328039151686
 30
0.0
 10
128.8080042778001
 20
-1.094594429916647
 30
0.0
 10
128.7586954421492
 20
-0.3513584468137749
 30
0.0
 10
128.7531895963118
 20
0.0206718915171265
 30
0.0
 10
128.7926090878499
 20
1.126166897357991
 30
0.0
 10
128.8925687472058
 20
1.854174748956501
 30
0.0
 10
129.153833141477
 20
2.932657229360345
 30
0.0
 10
129.259868791847
 20
3.289683403741099
 30
0.0
 10
129.5040429988492
 20
3.982395799907989
 30
0.0
 10
129.6426514631346
 20
4.320298774859261
 30
0.0
 10
129.9520340804808
 20
4.979737451644125
 30
0.0
 10
130.1228100390095
 20
5.301272063725665
 30
0.0
 10
130.4966464635868
 20
5.928021709413209
 30
0.0
 10
130.7006273302174
 20
6.234279725719753
 30
0.0
 10
131.3505193028065
 20
7.112722547163118
 30
0.0
 10
131.8364183150855
 20
7.649831290043472
 30
0.0
 10
132.3736870241211
 20
8.138788414495913
 30
0.0
  0
SPLINE
  5
DA
330
23
100
AcDbEntity
  8
0
  6
Continuous
 62
     7
370
    25
100
AcDbSpline
210
0.0
220
0.0
230
1.0
 70
    11
 71
     3
 72
    98
 73
    94
 74
     0
 42
0.000000001
 43
0.00000001
 40
0.0
 40
0.0
 40
0.0
 40
0.0
 40
0.0156250000000001
 40
0.0156250000000001
 40
0.0312500000000001
 40
0.0312500000000001
 40
0.0625000000000003
 40
0.0625000000000003
 40
0.0781250000000004
 40
0.0781250000000004
 40
0.0937500000000005
 40
0.0937500000000005
 40
0.1250000000000004
 40
0.1250000000000004
 40
0.1406250000000005
 40
0.1406250000000005
 40
0.1562500000000006
 40
0.1718750000000007
 40
0.1718750000000007
 40
0.1875000000000007
 40
0.1875000000000007
 40
0.218750000000001
 40
0.218750000000001
 40
0.2343750000000012
 40
0.2343750000000012
 40
0.2500000000000012
 40
0.2500000000000012
 40
0.2812500000000013
 40
0.2812500000000013
 40
0.2968750000000013
 40
0.2968750000000013
 40
0.3125000000000014
 40
0.3125000000000014
 40
0.3437500000000016
 40
0.3437500000000016
 40
0.3593750000000016
 40
0.3593750000000016
 40
0.3750000000000017
 40
0.3906250000000017
 40
0.3906250000000017
 40
0.4062500000000018
 40
0.4062500000000018
 40
0.4375000000000019
 40
0.4375000000000019
 40
0.4531250000000019
 40
0.4531250000000019
 40
0.4687500000000019
 40
0.4687500000000019
 40
0.5000000000000018
 40
0.5000000000000018
 40
0.5312500000000017
 40
0.5312500000000017
 40
0.5468750000000016
 40
0.5468750000000016
 40
0.5625000000000013
 40
0.5625000000000013
 40
0.5937500000000012
 40
0.5937500000000012
 40
0.6250000000000011
 40
0.6250000000000011
 40
0.6406250000000011
 40
0.6406250000000011
 40
0.6562500000000011
 40
0.6562500000000011
 40
0.687500000000001
 40
0.687500000000001
 40
0.7031250000000009
 40
0.7031250000000009
 40
0.7187500000000009
 40
0.7187500000000009
 40
0.7500000000000008
 40
0.7500000000000008
 40
0.7656250000000008
 40
0.7656250000000008
 40
0.7812500000000007
 40
0.7812500000000007
 40
0.8125000000000006
 40
0.8125000000000006
 40
0.8437500000000004
 40
0.8437500000000004
 40
0.8593750000000004
 40
0.8593750000000004
 40
0.8750000000000003
 40
0.8750000000000003
 40
0.9062500000000003
 40
0.9062500000000003
 40
0.9218750000000002
 40
0.9218750000000002
 40
0.9375000000000002
 40
0.9375000000000002
 40
0.9687500000000001
 40
0.9687500000000001
 40
1.0
 40
1.0
 40
1.0
 40
1.0
 10
16.48580734667259
 20
7.879890748995713
 30
0.0
 10
16.75273457430033
 20
8.139473890290244
 30
0.0
 10
17.03153732441703
 20
8.384719625621171
 30
0.0
 10
17.61251943018496
 20
8.84689213113699
 30
0.0
 10
17.91539326463573
 20
9.06409645389808
 30
0.0
 10
18.84439233849806
 20
9.663756567311212
 30
0.0
 10
19.49485065900795
 20
9.99842751033767
 30
0.0
 10
20.51560659486976
 20
10.40508265190311
 30
0.0
 10
20.86494286911278
 20
10.52505339549567
 30
0.0
 10
21.57197562172487
 20
10.73000750861307
 30
0.0
 10
21.92740111758821
 20
10.81451172337674
 30
0.0
 10
22.9990937007219
 20
11.01616046943542
 30
0.0
 10
23.72071446406186
 20
11.08190605192768
 30
0.0
 10
24.81384518817822
 20
11.07683785033248
 30
0.0
 10
25.1784862174699
 20
11.05757254349239
 30
0.0
 10
25.89697789353507
 20
10.98541065343308
 30
0.0
 10
26.60803607835634
 20
10.87964534036372
 30
0.0
 10
27.30462722260009
 20
10.70786237097893
 30
0.0
 10
27.99400762461379
 20
10.5027108346061
 30
0.0
 10
28.33678282255095
 20
10.38271003783596
 30
0.0
 10
29.33896820122209
 20
9.977072081010864
 30
0.0
 10
29.97259998248289
 20
9.647186160904878
 30
0.0
 10
30.87302991518592
 20
9.064152756190513
 30
0.0
 10
31.16477774547636
 20
8.855001404215871
 30
0.0
 10
31.73102725056451
 20
8.405894319082257
 30
0.0
 10
32.00431754742263
 20
8.16664189953888
 30
0.0
 10
32.78124753396573
 20
7.417134066987574
 30
0.0
 10
33.24795229336566
 20
6.87116910865567
 30
0.0
 10
33.86962887747971
 20
5.980086388087481
 30
0.0
 10
34.06451650331976
 20
5.669449731661149
 30
0.0
 10
34.42258957642736
 20
5.029375622803431
 30
0.0
 10
34.58460648856335
 20
4.702397922895048
 30
0.0
 10
35.02057297911474
 20
3.700914196748231
 30
0.0
 10
35.24496382165196
 20
3.006067462088818
 30
0.0
 10
35.47682179640103
 20
1.920436527022926
 30
0.0
 10
35.53613993539257
 20
1.551541302519087
 30
0.0
 10
35.61618598975951
 20
0.8179010354708449
 30
0.0
 10
35.65877720212829
 20
0.0837209079230886
 30
0.0
 10
35.62741514976264
 20
-0.6515260278782442
 30
0.0
 10
35.55843983870695
 20
-1.387315223885336
 30
0.0
 10
35.50460346488605
 20
-1.757625034524814
 30
0.0
 10
35.28929002280906
 20
-2.846044835132061
 30
0.0
 10
35.07512872841202
 20
-3.54593467762947
 30
0.0
 10
34.65164603611
 20
-4.558837236941462
 30
0.0
 10
34.49254536964094
 20
-4.89163331392382
 30
0.0
 10
34.14289920891697
 20
-5.537633637592243
 30
0.0
 10
33.95308857394556
 20
-5.849867618199001
 30
0.0
 10
33.33975660471
 20
-6.75527572455221
 30
0.0
 10
32.86935329028934
 20
-7.319184941667288
 30
0.0
 10
31.84693929336692
 20
-8.329231013235438
 30
0.0
 10
31.29195210512781
 20
-8.780882257496296
 30
0.0
 10
30.39316640377623
 20
-9.379242436230905
 30
0.0
 10
30.08130839344348
 20
-9.565840464608415
 30
0.0
 10
29.44746283223669
 20
-9.905023535940211
 30
0.0
 10
29.12417946636888
 20
-10.05860600210965
 30
0.0
 10
28.13544150059449
 20
-10.47245216884072
 30
0.0
 10
27.45127752661115
 20
-10.68628052350571
 30
0.0
 10
26.02975543129588
 20
-10.98460714356363
 30
0.0
 10
25.31255306932613
 20
-11.06463293240613
 30
0.0
 10
24.23198306274585
 20
-11.08314472348996
 30
0.0
 10
23.87072106987205
 20
-11.07233091875023
 30
0.0
 10
23.14599386960753
 20
-11.01581629839053
 30
0.0
 10
22.78050024421305
 20
-10.96969994508814
 30
0.0
 10
21.69865400548687
 20
-10.77960365217203
 30
0.0
 10
20.99694180045941
 20
-10.58541159990929
 30
0.0
 10
19.9738841014343
 20
-10.19338726203167
 30
0.0
 10
19.63781869025494
 20
-10.04581072629641
 30
0.0
 10
18.97609339746779
 20
-9.715486042261183
 30
0.0
 10
18.652483823623
 20
-9.533546577635754
 30
0.0
 10
17.71831261823066
 20
-8.94655775500989
 30
0.0
 10
17.13787780568969
 20
-8.49773272455204
 30
0.0
 10
16.33249211225793
 20
-7.736556732504164
 30
0.0
 10
16.07372652366841
 20
-7.466462747950661
 30
0.0
 10
15.58864957012222
 20
-6.906466212273924
 30
0.0
 10
15.36154946546452
 20
-6.616119422219822
 30
0.0
 10
14.72578904211112
 20
-5.714600025350554
 30
0.0
 10
14.36168284386059
 20
-5.072080732302456
 30
0.0
 10
13.76286604497973
 20
-3.706905687137581
 30
0.0
 10
13.53723250361338
 20
-3.005571034554114
 30
0.0
 10
13.30587432962595
 20
-1.926377282774506
 30
0.0
 10
13.24673787499045
 20
-1.562079824500089
 30
0.0
 10
13.16547310134247
 20
-0.8240898610369788
 30
0.0
 10
13.14366358649251
 20
-0.4506821692771397
 30
0.0
 10
13.13540380745723
 20
0.6577387218042928
 30
0.0
 10
13.20436845394472
 20
1.389712197868649
 30
0.0
 10
13.41934395098282
 20
2.477226331615944
 30
0.0
 10
13.5104338400367
 20
2.840060626316482
 30
0.0
 10
13.72774329092048
 20
3.549850410192993
 30
0.0
 10
13.85363463626429
 20
3.896721851918152
 30
0.0
 10
14.28148326415184
 20
4.913964607853896
 30
0.0
 10
14.63312282845899
 20
5.561195028625123
 30
0.0
 10
15.47313020514707
 20
6.791856339189883
 30
0.0
 10
15.95195289141711
 20
7.360724466406655
 30
0.0
 10
16.48580734667259
 20
7.879890748995715
 30
0.0
  0
CIRCLE
  5
DB
330
23
100
AcDbEntity
  8
0
  6
Continuous
 62
     7
370
    25
100
AcDbCircle
 10
24.2
 20
0.0
 30
0.0
 40
3.749999999999918
  0
CIRCLE
  5
DC
330
23
100
AcDbEntity
  8
0
  6
Continuous
 62
     7
370
    25
100
AcDbCircle
 10
140.2
 20
0.0
 30
0.0
 40
3.749999999999871
  0
CIRCLE
  5
DD
330
23
100
AcDbEntity
  8
0
  6
Continuous
 62
     7
370
    25
100
AcDbCircle
 10
140.2
 20
0.0
 30
0.0
 40
4.625555630283168
  0
CIRCLE
  5
DE
330
23
100
AcDbEntity
  8
0
  6
Continuous
 62
     7
370
    25
100
AcDbCircle
 10
24.2
 20
0.0
 30
0.0
 40
4.625555630283219
  0
LINE
  5
E5
330
23
100
AcDbEntity
  8
0
  6
Continuous
 62
     7
370
    25
100
AcDbLine
 10
40.0
 20
66.5
 30
0.0
 11
10.8093928675
 21
60.8321307998
 31
0.0
  0
LINE
  5
E6
330
23
100
AcDbEntity
  8
0
  6
Continuous
 62
     7
370
    25
100
AcDbLine
 10
10.8093928675
 20
-60.8321307998
 30
0.0
 11
40.0
 21
-66.5
 31
0.0
  0
LINE
  5
E7
330
23
100
AcDbEntity
  8
0
  6
Continuous
 62
     7
370
    25
100
AcDbLine
 10
124.2
 20
-66.5
 30
0.0
 11
153.3855113758
 21
-60.8331465412
 31
0.0
  0
LINE
  5
E8
330
23
100
AcDbEntity
  8
0
  6
Continuous
 62
     7
370
    25
100
AcDbLine
 10
153.3855113758
 20
60.8331465412
 30
0.0
 11
124.2
 21
66.5
 31
0.0
  0
LINE
  5
E9
330
23
100
AcDbEntity
  8
0
  6
Continuous
 62
     7
370
    25
100
AcDbLine
 10
40.0
 20
-66.5
 30
0.0
 11
124.2
 21
-66.5
 31
0.0
  0
LINE
  5
EA
330
23
100
AcDbEntity
  8
0
  6
Continuous
 62
     7
370
    25
100
AcDbLine
 10
124.2
 20
66.5
 30
0.0
 11
40.0
 21
66.5
 31
0.0
  0
LINE
  5
EB
330
23
100
AcDbEntity
  8
0
  6
Continuous
 62
     7
370
    25
100
AcDbLine
 10
40.0
 20
-66.5
 30
0.0
 11
40.0
 21
66.5
 31
0.0
  0
LINE
  5
EC
330
23
100
AcDbEntity
  8
0
  6
Continuous
 62
     7
370
    25
100
AcDbLine
 10
124.2
 20
-66.5
 30
0.0
 11
124.2
 21
66.5
 31
0.0
  0
LINE
  5
ED
330
23
100
AcDbEntity
  8
0
  6
Continuous
 62
     7
370
    25
100
AcDbLine
 10
154.2
 20
-59.8505044245
 30
0.0
 11
154.2
 21
59.8505044245
 31
0.0
  0
LINE
  5
EE
330
23
100
AcDbEntity
  8
0
  6
Continuous
 62
     7
370
    25
100
AcDbLine
 10
10.0
 20
-59.8504684181
 30
0.0
 11
10.0
 21
59.8504684181
 31
0.0
  0
LINE
  5
EF
330
23
100
AcDbEntity
  8
0
  6
Continuous
 62
     8
370
    25
100
AcDbLine
 10
10.8093928675
 20
-60.8321307998
 30
0.0
 11
10.8093928675
 21
60.8321307998
 31
0.0
  0
LINE
  5
F0
330
23
100
AcDbEntity
  8
0
  6
Continuous
 62
     8
370
    25
100
AcDbLine
 10
153.3855113758
 20
-60.8331465412
 30
0.0
 11
153.3855113758
 21
60.8331465412
 31
0.0
  0
ARC
  5
F1
330
23
100
AcDbEntity
  8
0
  6
Continuous
 62
     7
370
    25
100
AcDbCircle
 10
153.2
 20
-59.8505044245
 30
0.0
 40
0.9999999999999432
100
AcDbArc
 50
280.6909481766
 51
0.0
  0
ARC
  5
F2
330
23
100
AcDbEntity
  8
0
  6
Continuous
 62
     7
370
    25
100
AcDbCircle
 10
153.2
 20
59.8505044245
 30
0.0
 40
1.000000000000057
100
AcDbArc
 50
0.0
 51
79.3090518234
  0
ARC
  5
F3
330
23
100
AcDbEntity
  8
0
  6
Continuous
 62
     7
370
    25
100
AcDbCircle
 10
11.0
 20
-59.8504684181
 30
0.0
 40
0.9999960552804816
100
AcDbArc
 50
180.0
 51
259.0117382431
  0
ARC
  5
F4
330
23
100
AcDbEntity
  8
0
  6
Continuous
 62
     7
370
    25
100
AcDbCircle
 10
11.0
 20
59.8504684181
 30
0.0
 40
0.9999960552804773
100
AcDbArc
 50
100.9882617569
 51
180.0
  0
VIEWPORT
  5
F7
330
23
100
AcDbEntity
  8
0
100
AcDbViewport
 10
0.0
 20
0.0
 30
0.0
 40
205.6
 41
156.0
 68
     1
 69
     1
 12
82.1
 22
8.0481921425
 13
0.0
 23
0.0
 14
10.0
 24
10.0
 15
10.0
 25
10.0
 16
0.0
 26
0.0
 36
1.0
 17
0.0
 27
0.0
 37
0.0
 42
50.0
 43
0.0
 44
0.0
 45
152.0783119707
 50
0.0
 51
0.0
 72
   100
 90
   557152
  1

281
     0
 71
     1
 74
     0
110
0.0
120
0.0
130
0.0
111
1.0
121
0.0
131
0.0
112
0.0
122
1.0
132
0.0
 79
     0
146
0.0
  0
ENDBLK
  5
25
330
23
100
AcDbEntity
  8
0
100
AcDbBlockEnd
  0
ENDSEC
  0
SECTION
  2
ENTITIES
  0
SPLINE
  5
7F
330
1F
100
AcDbEntity
  8
0
  6
Continuous
 62
     7
370
    25
100
AcDbSpline
210
0.0
220
0.0
230
1.0
 70
     8
 71
     3
 72
    12
 73
     8
 74
     0
 42
0.000000001
 43
0.00000001
 40
0.0
 40
0.0
 40
0.0
 40
0.0
 40
0.0109056963891124
 40
0.2501237407661595
 40
0.5277637557336967
 40
0.8208716054209407
 40
0.9999999999999999
 40
0.9999999999999999
 40
0.9999999999999999
 40
0.9999999999999999
 10
151.076505503586
 20
61.3012548714017
 30
0.0
 10
151.0723319470546
 20
61.302314397482
 30
0.0
 10
150.9766108179589
 20
61.32661478300427
 30
0.0
 10
150.8001013764612
 20
61.4530694846995
 30
0.0
 10
150.5853065051327
 20
61.6882789381369
 30
0.0
 10
150.4578392391776
 20
61.97006617657837
 30
0.0
 10
150.4629657909225
 20
62.15768471854775
 30
0.0
 10
150.464910391734
 20
62.22885208154518
 30
0.0
  0
SPLINE
  5
80
330
1F
100
AcDbEntity
  8
0
  6
Continuous
 62
     7
370
    25
100
AcDbSpline
210
0.0
220
0.0
230
1.0
 70
     8
 71
     3
 72
    14
 73
    10
 74
     0
 42
0.000000001
 43
0.00000001
 40
0.0
 40
0.0
 40
0.0
 40
0.0
 40
0.0149239131200082
 40
0.2491085579588225
 40
0.4836865272729975
 40
0.6691560619097666
 40
0.8245992256594578
 40
0.9554324565398632
 40
1.0
 40
1.0
 40
1.0
 40
1.0
 10
129.9466569443854
 20
66.5802832813214
 30
0.0
 10
129.9477158105466
 20
66.5726873769207
 30
0.0
 10
129.9653903051896
 20
66.44589725314842
 30
0.0
 10
129.8828877672283
 20
66.19589878603419
 30
0.0
 10
129.7037607483202
 20
65.91024883175662
 30
0.0
 10
129.4655187581745
 20
65.72519532597295
 30
0.0
 10
129.2406487643402
 20
65.6322743774077
 30
0.0
 10
129.072260506711
 20
65.5967928461579
 30
0.0
 10
128.982142083587
 20
65.59896699363001
 30
0.0
 10
128.9592439136431
 20
65.59951942227418
 30
0.0
  0
SPLINE
  5
81
330
1F
100
AcDbEntity
  8
0
  6
Continuous
 62
     7
370
    25
100
AcDbSpline
210
0.0
220
0.0
230
1.0
 70
     8
 71
     3
 72
    13
 73
     9
 74
     0
 42
0.000000001
 43
0.00000001
 40
0.0
 40
0.0
 40
0.0
 40
0.0
 40
0.0259668942351302
 40
0.1884700019622504
 40
0.3969124383917403
 40
0.6144559568252571
 40
0.8444170006828228
 40
1.0
 40
1.0
 40
1.0
 40
1.0
 10
35.45927389512388
 20
65.63707856636073
 30
0.0
 10
35.44568983965556
 20
65.63624646743212
 30
0.0
 10
35.34709557044545
 20
65.63020702023123
 30
0.0
 10
35.13932607280262
 20
65.67137448699249
 30
0.0
 10
34.85597764635763
 20
65.80434260965353
 30
0.0
 10
34.61209081354355
 20
66.05368849462742
 30
0.0
 10
34.46499196258645
 20
66.34659459393671
 30
0.0
 10
34.46272684751342
 20
66.55020839040981
 30
0.0
 10
34.46181277970949
 20
66.63237499554467
 30
0.0
  0
SPLINE
  5
82
330
1F
100
AcDbEntity
  8
0
  6
Continuous
 62
     7
370
    25
100
AcDbSpline
210
0.0
220
0.0
230
1.0
 70
     8
 71
     3
 72
    13
 73
     9
 74
     0
 42
0.000000001
 43
0.00000001
 40
0.0
 40
0.0
 40
0.0
 40
0.0
 40
0.0481824603168798
 40
0.3535650308512959
 40
0.5960130236397536
 40
0.7995793406902245
 40
0.9707366462603204
 40
1.0
 40
1.0
 40
1.0
 40
1.0
 10
13.94194053491746
 20
62.26149961851711
 30
0.0
 10
13.9446165679392
 20
62.24291500084795
 30
0.0
 10
13.96425341694338
 20
62.10654025210448
 30
0.0
 10
13.88363043630573
 20
61.87499928739356
 30
0.0
 10
13.73376617764779
 20
61.62401194456803
 30
0.0
 10
13.55400786033009
 20
61.46163776226538
 30
0.0
 10
13.42023700051617
 20
61.3756187470454
 30
0.0
 10
13.34671655365095
 20
61.34975249686858
 30
0.0
 10
13.33598185768137
 20
61.34597577429192
 30
0.0
  0
SPLINE
  5
89
330
1F
100
AcDbEntity
  8
0
  6
Continuous
 62
     7
370
    25
100
AcDbSpline
210
0.0
220
0.0
230
1.0
 70
     8
 71
     3
 72
    26
 73
    22
 74
     0
 42
0.000000001
 43
0.00000001
 40
0.0
 40
0.0
 40
0.0
 40
0.0
 40
0.0472315307866206
 40
0.0962437829230663
 40
0.1466559365723983
 40
0.2131914179373104
 40
0.2682076692107673
 40
0.3248412039044165
 40
0.3800975672861748
 40
0.4369025507134097
 40
0.4926136470690518
 40
0.5499773324980728
 40
0.6041020109399738
 40
0.6598433473083574
 40
0.7122099920805501
 40
0.7660988561395545
 40
0.8178100179322093
 40
0.8710194778108051
 40
0.9227678657190398
 40
0.9760471941166559
 40
1.0
 40
1.0
 40
1.0
 40
1.0
 10
35.62768829978347
 20
65.64889992963585
 30
0.0
 10
35.60820511324366
 20
65.64185059188709
 30
0.0
 10
35.56850418581746
 20
65.62748614253003
 30
0.0
 10
35.14816839625719
 20
65.47698914888832
 30
0.0
 10
34.40710899767527
 20
65.21723283957681
 30
0.0
 10
33.30307063176904
 20
64.84371971592876
 30
0.0
 10
31.86808299918804
 20
64.38582858983601
 30
0.0
 10
30.31127412589749
 20
63.92140589226339
 30
0.0
 10
28.56886848843567
 20
63.44374260692432
 30
0.0
 10
26.71173078360573
 20
62.98447860664352
 30
0.0
 10
24.75564175360561
 20
62.55773372759377
 30
0.0
 10
22.80755649382363
 20
62.192419984541
 30
0.0
 10
20.89575240442619
 20
61.89246028349347
 30
0.0
 10
19.12993366777777
 20
61.66775241099509
 30
0.0
 10
17.51077244543858
 20
61.50616065098855
 30
0.0
 10
16.11601517629027
 20
61.40136564398737
 30
0.0
 10
14.94388712968969
 20
61.33792264143333
 30
0.0
 10
14.04146680984204
 20
61.30464945411941
 30
0.0
 10
13.43796482383087
 20
61.28976429321818
 30
0.0
 10
13.1439757782756
 20
61.28482708306912
 30
0.0
 10
13.1708464040526
 20
61.28527956926354
 30
0.0
 10
13.17918007098014
 20
61.28541990351795
 30
0.0
  0
SPLINE
  5
8C
330
1F
100
AcDbEntity
  8
0
  6
Continuous
 62
     7
370
    25
100
AcDbSpline
210
0.0
220
0.0
230
1.0
 70
     8
 71
     3
 72
    27
 73
    23
 74
     0
 42
0.000000001
 43
0.00000001
 40
0.0
 40
0.0
 40
0.0
 40
0.0
 40
0.0442410779133595
 40
0.0962001126413427
 40
0.149709295225047
 40
0.1875630272272372
 40
0.2259919315015858
 40
0.2780141898819983
 40
0.3315380062366443
 40
0.3837978259539757
 40
0.4375288213682683
 40
0.4900783682852531
 40
0.5440368567613033
 40
0.5978301921386355
 40
0.6530566107258748
 40
0.7082481785096643
 40
0.7650188625071269
 40
0.8199098815243259
 40
0.8765505118878002
 40
0.928834190844788
 40
0.9828444726280151
 40
1.0
 40
1.0
 40
1.0
 40
1.0
 10
151.236106855057
 20
61.24636383055506
 30
0.0
 10
151.2237033281738
 20
61.24653913685957
 30
0.0
 10
151.1967324508898
 20
61.24692033205275
 30
0.0
 10
150.7689427479801
 20
61.25498632132072
 30
0.0
 10
150.1140394964045
 20
61.27371316755671
 30
0.0
 10
149.3143107927449
 20
61.3069014107066
 30
0.0
 10
148.3736537366098
 20
61.35790413221972
 30
0.0
 10
147.1348564411475
 20
61.44630161160108
 30
0.0
 10
145.5855176944815
 20
61.59387979769387
 30
0.0
 10
143.8732996703687
 20
61.80255578077136
 30
0.0
 10
142.0753574063914
 20
62.07256712469516
 30
0.0
 10
140.2135662031033
 20
62.40647414658779
 30
0.0
 10
138.3553538359991
 20
62.79375642535144
 30
0.0
 10
136.5197577040372
 20
63.22849422820473
 30
0.0
 10
134.770222608622
 20
63.69017597830285
 30
0.0
 10
133.1375521916237
 20
64.1617591445416
 30
0.0
 10
131.7012207399442
 20
64.60876913313308
 30
0.0
 10
130.4935735327811
 20
65.00709301700743
 30
0.0
 10
129.58506489569
 20
65.32038731696883
 30
0.0
 10
129.0052321237473
 20
65.52605172047214
 30
0.0
 10
128.7470989215043
 20
65.61914700229876
 30
0.0
 10
128.7828041679529
 20
65.60628276102743
 30
0.0
 10
128.7914114238815
 20
65.60318165326414
 30
0.0
  0
SPLINE
  5
99
330
1F
100
AcDbEntity
  8
0
  6
Continuous
 62
     8
370
    25
100
AcDbSpline
210
0.0
220
0.0
230
1.0
 70
     8
 71
     3
 72
    26
 73
    22
 74
     0
 42
0.000000001
 43
0.00000001
 40
0.0
 40
0.0
 40
0.0
 40
0.0
 40
0.0168989494449758
 40
0.0703292823304514
 40
0.1237722127412618
 40
0.1797782994940444
 40
0.2358050206980902
 40
0.2918872844499794
 40
0.3479773488772813
 40
0.4023771477499136
 40
0.4567710670251251
 40
0.509739738679068
 40
0.562699078090545
 40
0.6153797369397539
 40
0.6680558840460256
 40
0.7206742967351428
 40
0.773293685525699
 40
0.8495378331693334
 40
0.9025340161259873
 40
0.9555307649112217
 40
1.0
 40
1.0
 40
1.0
 40
1.0
 10
129.9795831507329
 20
66.5845610126919
 30
0.0
 10
129.9716428530915
 20
66.58774213245556
 30
0.0
 10
129.9385972820381
 20
66.60098117259321
 30
0.0
 10
130.1746749923707
 20
66.50658038121662
 30
0.0
 10
130.6936091115206
 20
66.3034668504781
 30
0.0
 10
131.5261291323411
 20
65.98614312529949
 30
0.0
 10
132.6162136842547
 20
65.58880082917396
 30
0.0
 10
133.9316162634672
 20
65.13704996379705
 30
0.0
 10
135.4095469840983
 20
64.66526610634423
 30
0.0
 10
137.0115754440735
 20
64.1997305052978
 30
0.0
 10
138.675716689126
 20
63.76458784525194
 30
0.0
 10
140.3772042649298
 20
63.37548136925002
 30
0.0
 10
142.0671140201895
 20
63.04173050571676
 30
0.0
 10
143.7130368288165
 20
62.77224207812262
 30
0.0
 10
145.2689377450988
 20
62.56476684016241
 30
0.0
 10
146.6867466331408
 20
62.419309785576
 30
0.0
 10
148.1137232910083
 20
62.30979632611647
 30
0.0
 10
149.2446618090888
 20
62.257094511982
 30
0.0
 10
149.9994537911747
 20
62.23506684156034
 30
0.0
 10
150.3926123906643
 20
62.22851953537148
 30
0.0
 10
150.4180185150687
 20
62.22800900983308
 30
0.0
 10
150.4296101583675
 20
62.22777608056606
 30
0.0
  0
SPLINE
  5
9A
330
1F
100
AcDbEntity
  8
0
  6
Continuous
 62
     8
370
    25
100
AcDbSpline
210
0.0
220
0.0
230
1.0
 70
     8
 71
     3
 72
    26
 73
    22
 74
     0
 42
0.000000001
 43
0.00000001
 40
0.0
 40
0.0
 40
0.0
 40
0.0
 40
0.0236869019444105
 40
0.0766727733474644
 40
0.1296582796049571
 40
0.1820477018333259
 40
0.2344355487743959
 40
0.2873793108896113
 40
0.3403223428402883
 40
0.3949063160038926
 40
0.449496255999396
 40
0.5057288737848427
 40
0.5619733439123743
 40
0.6179169344208085
 40
0.6738648837861835
 40
0.7298245971310496
 40
0.7857734685207317
 40
0.852600133786864
 40
0.9025734797837651
 40
0.9525347938579243
 40
1.0
 40
1.0
 40
1.0
 40
1.0
 10
13.98643771579898
 20
62.26690588640469
 30
0.0
 10
13.97836716058262
 20
62.26682378823651
 30
0.0
 10
13.95224336219206
 20
62.26655804245613
 30
0.0
 10
14.22143160690946
 20
62.27028575873126
 30
0.0
 10
14.76438682690376
 20
62.28370707052162
 30
0.0
 10
15.59135896121611
 20
62.31480873906985
 30
0.0
 10
16.6478351897125
 20
62.37471979539621
 30
0.0
 10
17.92424202042815
 20
62.47765233538066
 30
0.0
 10
19.38970111532977
 20
62.63472469955843
 30
0.0
 10
21.00732840061035
 20
62.85958111749938
 30
0.0
 10
22.74111379334874
 20
63.1554744181707
 30
0.0
 10
24.52508367245382
 20
63.52340214708745
 30
0.0
 10
26.30135988456593
 20
63.94798372062195
 30
0.0
 10
28.00071687656519
 20
64.41139890031153
 30
0.0
 10
29.58312875425369
 20
64.88874894050787
 30
0.0
 10
31.00663630867759
 20
65.35752152215967
 30
0.0
 10
32.31682648505789
 20
65.8186383081153
 30
0.0
 10
33.32281868296012
 20
66.19479441392807
 30
0.0
 10
33.99767749425006
 20
66.4558381329821
 30
0.0
 10
34.38404417870496
 20
66.60894214784683
 30
0.0
 10
34.42103709715246
 20
66.6235885358959
 30
0.0
 10
34.43905966940498
 20
66.63072410664648
 30
0.0
  0
LINE
  5
9B
330
1F
100
AcDbEntity
  8
0
  6
Continuous
 62
     7
370
    25
100
AcDbLine
 10
13.1778989603
 20
61.292017868
 30
0.0
 11
10.8093928675
 21
60.8321307998
 31
0.0
  0
LINE
  5
9C
330
1F
100
AcDbEntity
  8
0
  6
Continuous
 62
     7
370
    25
100
AcDbLine
 10
40.0
 20
66.5
 30
0.0
 11
35.6272880758
 21
65.6509611594
 31
0.0
  0
LINE
  5
9D
330
1F
100
AcDbEntity
  8
0
  6
Continuous
 62
     7
370
    25
100
AcDbLine
 10
10.8093928675
 20
-60.8321307998
 30
0.0
 11
40.0
 21
-66.5
 31
0.0
  0
LINE
  5
9E
330
1F
100
AcDbEntity
  8
0
  6
Continuous
 62
     7
370
    25
100
AcDbLine
 10
124.2
 20
-66.5
 30
0.0
 11
153.3855113758
 21
-60.8331465412
 31
0.0
  0
LINE
  5
9F
330
1F
100
AcDbEntity
  8
0
  6
Continuous
 62
     7
370
    25
100
AcDbLine
 10
128.79240673
 20
65.6083076933
 30
0.0
 11
124.2
 21
66.5
 31
0.0
  0
LINE
  5
A0
330
1F
100
AcDbEntity
  8
0
  6
Continuous
 62
     7
370
    25
100
AcDbLine
 10
153.3855113758
 20
60.8331465412
 30
0.0
 11
151.2368787726
 21
61.2503393716
 31
0.0
  0
LINE
  5
A1
330
1F
100
AcDbEntity
  8
0
  6
Continuous
 62
     7
370
    25
100
AcDbLine
 10
40.0
 20
-66.5
 30
0.0
 11
124.2
 21
-66.5
 31
0.0
  0
LINE
  5
A2
330
1F
100
AcDbEntity
  8
0
  6
Continuous
 62
     7
370
    25
100
AcDbLine
 10
124.2
 20
66.5
 30
0.0
 11
40.0
 21
66.5
 31
0.0
  0
LINE
  5
A3
330
1F
100
AcDbEntity
  8
0
  6
Continuous
 62
     7
370
    25
100
AcDbLine
 10
13.95
 20
82.596384285
 30
0.0
 11
13.95
 21
62.2669060281
 31
0.0
  0
LINE
  5
A4
330
1F
100
AcDbEntity
  8
0
  6
Continuous
 62
     7
370
    25
100
AcDbLine
 10
34.45
 20
66.6307657723
 30
0.0
 11
34.45
 21
82.596384285
 31
0.0
  0
LINE
  5
A5
330
1F
100
AcDbEntity
  8
0
  6
Continuous
 62
     7
370
    25
100
AcDbLine
 10
129.95
 20
82.596384285
 30
0.0
 11
129.95
 21
66.5844496426
 31
0.0
  0
LINE
  5
A6
330
1F
100
AcDbEntity
  8
0
  6
Continuous
 62
     7
370
    25
100
AcDbLine
 10
150.45
 20
62.2277726892
 30
0.0
 11
150.45
 21
82.596384285
 31
0.0
  0
LINE
  5
A7
330
1F
100
AcDbEntity
  8
0
  6
Continuous
 62
     7
370
    25
100
AcDbLine
 10
40.0
 20
-66.5
 30
0.0
 11
40.0
 21
66.5
 31
0.0
  0
LINE
  5
A8
330
1F
100
AcDbEntity
  8
0
  6
Continuous
 62
     7
370
    25
100
AcDbLine
 10
124.2
 20
-66.5
 30
0.0
 11
124.2
 21
66.5
 31
0.0
  0
LINE
  5
A9
330
1F
100
AcDbEntity
  8
0
  6
Continuous
 62
     7
370
    25
100
AcDbLine
 10
154.2
 20
-59.8505044245
 30
0.0
 11
154.2
 21
59.8505044245
 31
0.0
  0
LINE
  5
AA
330
1F
100
AcDbEntity
  8
0
  6
Continuous
 62
     7
370
    25
100
AcDbLine
 10
10.0
 20
-59.8504684181
 30
0.0
 11
10.0
 21
59.8504684181
 31
0.0
  0
LINE
  5
AB
330
1F
100
AcDbEntity
  8
0
  6
Continuous
 62
     7
370
    25
100
AcDbLine
 10
34.45
 20
82.596384285
 30
0.0
 11
13.95
 21
82.596384285
 31
0.0
  0
LINE
  5
AC
330
1F
100
AcDbEntity
  8
0
  6
Continuous
 62
     7
370
    25
100
AcDbLine
 10
129.95
 20
82.596384285
 30
0.0
 11
150.45
 21
82.596384285
 31
0.0
  0
LINE
  5
AD
330
1F
100
AcDbEntity
  8
0
  6
Continuous
 62
     8
370
    25
100
AcDbLine
 10
10.8093928675
 20
-60.8321307998
 30
0.0
 11
10.8093928675
 21
60.8321307998
 31
0.0
  0
LINE
  5
AE
330
1F
100
AcDbEntity
  8
0
  6
Continuous
 62
     8
370
    25
100
AcDbLine
 10
153.3855113758
 20
-60.8331465412
 30
0.0
 11
153.3855113758
 21
60.8331465412
 31
0.0
  0
ARC
  5
AF
330
1F
100
AcDbEntity
  8
0
  6
Continuous
 62
     7
370
    25
100
AcDbCircle
 10
153.2
 20
-59.8505044245
 30
0.0
 40
0.9999999999999432
100
AcDbArc
 50
280.6909481766
 51
0.0
  0
ARC
  5
B0
330
1F
100
AcDbEntity
  8
0
  6
Continuous
 62
     7
370
    25
100
AcDbCircle
 10
153.2
 20
59.8505044245
 30
0.0
 40
1.000000000000057
100
AcDbArc
 50
0.0
 51
79.3090518234
  0
ARC
  5
B1
330
1F
100
AcDbEntity
  8
0
  6
Continuous
 62
     7
370
    25
100
AcDbCircle
 10
11.0
 20
-59.8504684181
 30
0.0
 40
0.9999960552804446
100
AcDbArc
 50
180.0
 51
259.0117382431
  0
ARC
  5
B2
330
1F
100
AcDbEntity
  8
0
  6
Continuous
 62
     7
370
    25
100
AcDbCircle
 10
11.0
 20
59.8504684181
 30
0.0
 40
0.9999960552804773
100
AcDbArc
 50
100.9882617569
 51
180.0
  0
SPLINE
  5
B3
330
1B
100
AcDbEntity
 67
     1
  8
0
  6
Continuous
 62
     7
370
    25
100
AcDbSpline
210
0.0
220
0.0
230
1.0
 70
     8
 71
     3
 72
    10
 73
     6
 74
     0
 42
0.000000001
 43
0.00000001
 40
0.0
 40
0.0
 40
0.0
 40
0.0
 40
0.0722456937429828
 40
0.6913117372065071
 40
1.0
 40
1.0
 40
1.0
 40
1.0
 10
10.28956808711951
 20
63.26188722035919
 30
0.0
 10
10.29110121281827
 20
63.26004853329049
 30
0.0
 10
10.30577153758443
 20
63.24245432267678
 30
0.0
 10
10.25132631633953
 20
63.30554959632929
 30
0.0
 10
10.25806206474859
 20
63.42555867785435
 30
0.0
 10
10.26030322543196
 20
63.46548885618453
 30
0.0
  0
SPLINE
  5
B4
330
1B
100
AcDbEntity
 67
     1
  8
0
  6
Continuous
 62
     7
370
    25
100
AcDbSpline
210
0.0
220
0.0
230
1.0
 70
     8
 71
     3
 72
    10
 73
     6
 74
     0
 42
0.000000001
 43
0.00000001
 40
0.0
 40
0.0
 40
0.0
 40
0.0
 40
0.3729230770468776
 40
0.9265116338669985
 40
1.0
 40
1.0
 40
1.0
 40
1.0
 10
-10.25997073056556
 20
63.46745789215633
 30
0.0
 10
-10.25935336676765
 20
63.41896885067325
 30
0.0
 10
-10.25781955248718
 20
63.2984998751277
 30
0.0
 10
-10.30587078069582
 20
63.24102256701489
 30
0.0
 10
-10.2930361408194
 20
63.25670945728669
 30
0.0
 10
-10.29153202437069
 20
63.25854783451538
 30
0.0
  0
CIRCLE
  5
B7
330
1B
100
AcDbEntity
 67
     1
  8
0
  6
Continuous
 62
     7
370
    25
100
AcDbCircle
 10
0.0
 20
0.0
 30
0.0
 40
55.2597971855307
  0
CIRCLE
  5
B8
330
1B
100
AcDbEntity
 67
     1
  8
0
  6
Continuous
 62
     7
370
    25
100
AcDbCircle
 10
0.0
 20
0.0
 30
0.0
 40
56.93477488862919
  0
CIRCLE
  5
B9
330
1B
100
AcDbEntity
 67
     1
  8
0
  6
Continuous
 62
     7
370
    25
100
AcDbCircle
 10
0.0
 20
0.0
 30
0.0
 40
59.85046841812765
  0
CIRCLE
  5
BA
330
1B
100
AcDbEntity
 67
     1
  8
0
  6
Continuous
 62
     7
370
    25
100
AcDbCircle
 10
0.0
 20
0.0
 30
0.0
 40
60.83213079980439
  0
CIRCLE
  5
BD
330
1B
100
AcDbEntity
 67
     1
  8
0
  6
Continuous
 62
     7
370
    25
100
AcDbCircle
 10
0.0
 20
0.0
 30
0.0
 40
54.99999999999996
  0
SPLINE
  5
BF
330
1B
100
AcDbEntity
 67
     1
  8
0
  6
Continuous
 62
     8
370
    25
100
AcDbSpline
210
0.0
220
0.0
230
1.0
 70
     8
 71
     3
 72
    15
 73
    11
 74
     0
 42
0.000000001
 43
0.00000001
 40
0.0
 40
0.0
 40
0.0
 40
0.0
 40
0.1195809030600492
 40
0.258322755003621
 40
0.4010272170053543
 40
0.5400342412714861
 40
0.6828272202896806
 40
0.8242555239865186
 40
0.969429650437156
 40
0.9999999999999999
 40
0.9999999999999999
 40
0.9999999999999999
 40
0.9999999999999999
 10
-7.879890748995713
 20
61.43098265883489
 30
0.0
 10
-8.234429147882363
 20
61.46120408869796
 30
0.0
 10
-9.000315118060906
 20
61.52648945469375
 30
0.0
 10
-9.917610522094293
 20
61.68464275449953
 30
0.0
 10
-10.61659525828113
 20
61.90802350299204
 30
0.0
 10
-11.02040663047228
 20
62.19741118639647
 30
0.0
 10
-11.12962602134909
 20
62.54457081272295
 30
0.0
 10
-10.91080094948331
 20
62.94820226915375
 30
0.0
 10
-10.59529368814506
 20
63.27110659315123
 30
0.0
 10
-10.2652507253812
 20
63.45706210973391
 30
0.0
 10
-10.20784050702717
 20
63.4894086464446
 30
0.0
  0
SPLINE
  5
C0
330
1B
100
AcDbEntity
 67
     1
  8
0
  6
Continuous
 62
     8
370
    25
100
AcDbSpline
210
0.0
220
0.0
230
1.0
 70
     8
 71
     3
 72
    24
 73
    20
 74
     0
 42
0.000000001
 43
0.00000001
 40
0.0
 40
0.0
 40
0.0
 40
0.0
 40
0.0030047093747257
 40
0.0682649501835928
 40
0.1322684819961217
 40
0.1981705859827797
 40
0.2603515661664209
 40
0.324389839130069
 40
0.3845511074202594
 40
0.4464611729325894
 40
0.5058693914987965
 40
0.5669989254847541
 40
0.6264499111661074
 40
0.6876597133979322
 40
0.7472480760697785
 40
0.8086193915003429
 40
0.8683999844009466
 40
0.9299579977528859
 40
0.9999999999999999
 40
0.9999999999999999
 40
0.9999999999999999
 40
0.9999999999999999
 10
10.25000000000021
 20
63.47272361589638
 30
0.0
 10
10.26337450345757
 20
63.46537622844581
 30
0.0
 10
10.56723411128765
 20
63.29844859061458
 30
0.0
 10
10.87733002621917
 20
62.98500314956157
 30
0.0
 10
11.13522792647223
 20
62.55758945049745
 30
0.0
 10
11.02231325151267
 20
62.19245665721228
 30
0.0
 10
10.58665222948289
 20
61.89245029386387
 30
0.0
 10
9.850804307136968
 20
61.66775518873363
 30
0.0
 10
8.828595209204432
 20
61.50615902386395
 30
0.0
 10
7.579658390581177
 20
61.40136942752699
 30
0.0
 10
6.106879670202074
 20
61.33790958429523
 30
0.0
 10
4.479359551902963
 20
61.30469907107009
 30
0.0
 10
2.706466213006975
 20
61.28958272744632
 30
0.0
 10
0.8692894203791731
 20
61.28445123683401
 30
0.0
 10
-1.011841031018384
 20
61.28467870471441
 30
0.0
 10
-2.850790316097167
 20
61.29014986068553
 30
0.0
 10
-4.620429162707099
 20
61.30720115228306
 30
0.0
 10
-6.351131906185458
 20
61.34182354796447
 30
0.0
 10
-7.348863875494076
 20
61.40001251327374
 30
0.0
 10
-7.879890748995713
 20
61.43098265883489
 30
0.0
  0
SPLINE
  5
C1
330
1B
100
AcDbEntity
 67
     1
  8
0
  6
Continuous
 62
     8
370
    25
100
AcDbSpline
210
0.0
220
0.0
230
1.0
 70
     8
 71
     3
 72
    21
 73
    17
 74
     0
 42
0.000000001
 43
0.00000001
 40
0.0
 40
0.0
 40
0.0
 40
0.0
 40
0.0817828379666731
 40
0.1528415854407093
 40
0.2239017220906307
 40
0.2949548858262757
 40
0.3660081631737943
 40
0.4371040300421507
 40
0.5081994069621584
 40
0.5784949648048392
 40
0.6487884089441288
 40
0.7198277740273337
 40
0.79086615938369
 40
0.8641063418403643
 40
0.9373545305272865
 40
0.9999999999999999
 40
0.9999999999999999
 40
0.9999999999999999
 40
0.9999999999999999
 10
-7.293251265671023
 20
62.40467119583779
 30
0.0
 10
-6.801638555963881
 20
62.37470621318252
 30
0.0
 10
-5.882877751832067
 20
62.31870552195438
 30
0.0
 10
-4.282772394572971
 20
62.28616991662277
 30
0.0
 10
-2.655403116953573
 20
62.27111534722996
 30
0.0
 10
-0.9471597064079256
 20
62.2660231069873
 30
0.0
 10
0.7865851113080422
 20
62.26630593271935
 30
0.0
 10
2.498197570370825
 20
62.27012807130532
 30
0.0
 10
4.134479549411461
 20
62.28374759706104
 30
0.0
 10
5.645973571255471
 20
62.31480233744262
 30
0.0
 10
7.002840566836033
 20
62.3747050251128
 30
0.0
 10
8.162117481162737
 20
62.47771870964907
 30
0.0
 10
9.109917976399995
 20
62.63447098843544
 30
0.0
 10
9.785633510751596
 20
62.86056153922925
 30
0.0
 10
10.1936612433538
 20
63.13496801262166
 30
0.0
 10
10.21639511899288
 20
63.36412038971784
 30
0.0
 10
10.22687518356419
 20
63.46975709446469
 30
0.0
  0
SPLINE
  5
C2
330
1B
100
AcDbEntity
 67
     1
  8
0
  6
Continuous
 62
     8
370
    25
100
AcDbSpline
210
0.0
220
0.0
230
1.0
 70
     8
 71
     3
 72
    12
 73
     8
 74
     0
 42
0.000000001
 43
0.00000001
 40
0.0
 40
0.0
 40
0.0
 40
0.0
 40
0.1814215453248824
 40
0.393982201908938
 40
0.6064720527523756
 40
0.818953449887377
 40
1.0
 40
1.0
 40
1.0
 40
1.0
 10
-10.23252194969661
 20
63.47031003065154
 30
0.0
 10
-10.22084852378862
 20
63.36902397582748
 30
0.0
 10
-10.19549805047622
 20
63.14906717394494
 30
0.0
 10
-9.82457046724685
 20
62.87833753184265
 30
0.0
 10
-9.180633740997935
 20
62.65504605409712
 30
0.0
 10
-8.333894805774717
 20
62.49812063339797
 30
0.0
 10
-7.621154651042885
 20
62.43411680882265
 30
0.0
 10
-7.293251265671023
 20
62.40467119583779
 30
0.0
  0
LINE
  5
C3
330
1B
100
AcDbEntity
 67
     1
  8
0
  6
Continuous
 62
     7
370
    25
100
AcDbLine
 10
-10.25
 20
82.596384285
 30
0.0
 11
-10.25
 21
63.4653027798
 31
0.0
  0
LINE
  5
C4
330
1B
100
AcDbEntity
 67
     1
  8
0
  6
Continuous
 62
     7
370
    25
100
AcDbLine
 10
10.25
 20
63.4665183249
 30
0.0
 11
10.25
 21
82.596384285
 31
0.0
  0
LINE
  5
C5
330
1B
100
AcDbEntity
 67
     1
  8
0
  6
Continuous
 62
     7
370
    25
100
AcDbLine
 10
10.25
 20
82.596384285
 30
0.0
 11
-10.25
 21
82.596384285
 31
0.0
  0
ARC
  5
C6
330
1B
100
AcDbEntity
 67
     1
  8
0
  6
Continuous
 62
     7
370
    25
100
AcDbCircle
 10
0.0
 20
0.0
 30
0.0
 40
66.5000000000001
100
AcDbArc
 50
98.8666521664
 51
81.1333478336
  0
VIEWPORT
  5
F5
330
1B
100
AcDbEntity
 67
     1
  8
0
100
AcDbViewport
 10
0.0
 20
0.0
 30
0.0
 40
205.6
 41
156.0
 68
     1
 69
     1
 12
82.1
 22
8.0481921425
 13
0.0
 23
0.0
 14
10.0
 24
10.0
 15
10.0
 25
10.0
 16
0.0
 26
0.0
 36
1.0
 17
0.0
 27
0.0
 37
0.0
 42
50.0
 43
0.0
 44
0.0
 45
152.0783119707
 50
0.0
 51
0.0
 72
   100
 90
   557152
  1

281
     0
 71
     1
 74
     0
110
0.0
120
0.0
130
0.0
111
1.0
121
0.0
131
0.0
112
0.0
122
1.0
132
0.0
 79
     0
146
0.0
  0
ENDSEC
  0
SECTION
  2
OBJECTS
  0
DICTIONARY
  5
C
330
0
100
AcDbDictionary
281
     1
  3
ACAD_GROUP
350
D
  3
ACAD_LAYOUT
350
1A
  3
ACAD_MLINESTYLE
350
17
  3
ACAD_PLOTSETTINGS
350
19
  3
ACAD_PLOTSTYLENAME
350
E
  3
ACAD_SCALELIST
350
47
  0
DICTIONARY
  5
D
102
{ACAD_REACTORS
330
C
102
}
330
C
100
AcDbDictionary
281
     1
  0
DICTIONARY
  5
1A
102
{ACAD_REACTORS
330
C
102
}
330
C
100
AcDbDictionary
281
     1
  3
_Left
350
1E
  3
_Top
350
26
  3
Model
350
22
  0
DICTIONARY
  5
17
102
{ACAD_REACTORS
330
C
102
}
330
C
100
AcDbDictionary
281
     1
  3
Standard
350
18
  0
DICTIONARY
  5
19
102
{ACAD_REACTORS
330
C
102
}
330
C
100
AcDbDictionary
281
     1
  0
ACDBDICTIONARYWDFLT
  5
E
102
{ACAD_REACTORS
330
C
102
}
330
C
100
AcDbDictionary
281
     1
  3
Normal
350
F
100
AcDbDictionaryWithDefault
340
F
  0
DICTIONARY
  5
47
102
{ACAD_REACTORS
330
C
102
}
330
C
100
AcDbDictionary
281
     1
  3
A0
350
48
  3
A1
350
49
  3
A2
350
4A
  3
A3
350
4B
  3
A4
350
4C
  3
A5
350
4D
  3
A6
350
4E
  3
A7
350
4F
  3
A8
350
50
  3
A9
350
51
  3
B0
350
52
  3
B1
350
53
  3
B2
350
54
  3
B3
350
55
  3
B4
350
56
  3
B5
350
57
  3
B6
350
58
  3
B7
350
59
  3
B8
350
5A
  3
B9
350
5B
  3
C0
350
5C
  3
C1
350
5D
  3
C2
350
5E
  3
C3
350
5F
  3
C4
350
60
  3
C5
350
61
  3
C6
350
62
  3
C7
350
63
  3
C8
350
64
  3
C9
350
65
  3
D0
350
66
  3
D1
350
67
  3
D2
350
68
  0
LAYOUT
  5
1E
102
{ACAD_REACTORS
330
1A
102
}
330
1A
100
AcDbPlotSettings
  1

  2
none_device
  4
ISO_A4_(210.00_x_297.00_MM)
  6

 40
7.5
 41
20.0
 42
7.5
 43
20.0
 44
210.0
 45
297.0
 46
0.0
 47
0.0
 48
0.0
 49
0.0
140
0.0
141
0.0
142
1.0
143
0.7645968425
 70
   688
 72
     1
 73
     1
 74
     1
  7

 75
     0
147
1.3078787989
148
66.5
149
66.5
100
AcDbLayout
  1
_Left
 70
     1
 71
     1
 10
-81.7919368497
 20
-72.2344763187
 11
145.2933253689
 21
88.3308606036
 12
0.0
 22
0.0
 32
0.0
 14
-66.5
 24
-66.5
 34
0.0
 15
66.5
 25
82.596384285
 35
0.0
146
0.0
 13
0.0
 23
0.0
 33
0.0
 16
1.0
 26
0.0
 36
0.0
 17
0.0
 27
1.0
 37
0.0
 76
     0
330
1B
331
F5
  0
LAYOUT
  5
26
102
{ACAD_REACTORS
330
1A
102
}
330
1A
100
AcDbPlotSettings
  1

  2
none_device
  4
ISO_A4_(210.00_x_297.00_MM)
  6

 40
7.5
 41
20.0
 42
7.5
 43
20.0
 44
210.0
 45
297.0
 46
0.0
 47
0.0
 48
0.0
 49
0.0
140
0.0
141
0.0
142
1.0
143
0.7645968425
 70
   688
 72
     1
 73
     1
 74
     1
  7

 75
     0
147
1.3078787989
148
66.5
149
66.5
100
AcDbLayout
  1
_Top
 70
     1
 71
     2
 10
0.0
 20
0.0
 11
0.0
 21
0.0
 12
0.0
 22
0.0
 32
0.0
 14
0.0
 24
0.0
 34
0.0
 15
0.0
 25
0.0
 35
0.0
146
0.0
 13
0.0
 23
0.0
 33
0.0
 16
1.0
 26
0.0
 36
0.0
 17
0.0
 27
1.0
 37
0.0
 76
     0
330
23
331
F7
  0
LAYOUT
  5
22
102
{ACAD_REACTORS
330
1A
102
}
330
1A
100
AcDbPlotSettings
  1

  2
none_device
  4
ANSI_A_(11.00_x_8.50_Inches)
  6

 40
6.35
 41
19.05
 42
6.35000508
 43
19.05000254
 44
279.4
 45
215.9
 46
15.6534068676
 47
77.3623035339
 48
0.0
 49
0.0
140
0.0
141
0.0
142
0.0564400005
143
1.0
 70
  1696
 72
     0
 73
     0
 74
     0
  7

 75
     0
147
0.0179189148
148
-1300.4909072572
149
0.0
100
AcDbLayout
  1
Model
 70
     1
 71
     0
 10
0.0
 20
0.0
 11
420.0
 21
297.0
 12
0.0
 22
0.0
 32
0.0
 14
10.0
 24
-66.5
 34
0.0
 15
154.2
 25
82.596384285
 35
0.0
146
0.0
 13
0.0
 23
0.0
 33
0.0
 16
1.0
 26
0.0
 36
0.0
 17
0.0
 27
1.0
 37
0.0
 76
     0
330
1F
331
29
  0
MLINESTYLE
  5
18
102
{ACAD_REACTORS
330
17
102
}
330
17
100
AcDbMlineStyle
  2
Standard
 70
     0
  3

 62
   256
 51
90.0
 52
90.0
 71
     2
 49
0.5
 62
   256
  6
BYLAYER
 49
-0.5
 62
   256
  6
BYLAYER
  0
ACDBPLACEHOLDER
  5
F
102
{ACAD_REACTORS
330
E
102
}
330
E
  0
SCALE
  5
48
102
{ACAD_REACTORS
330
47
102
}
330
47
100
AcDbScale
 70
     0
300
1:1
140
1.0
141
1.0
290
     1
  0
SCALE
  5
49
102
{ACAD_REACTORS
330
47
102
}
330
47
100
AcDbScale
 70
     0
300
1:2
140
1.0
141
2.0
290
     0
  0
SCALE
  5
4A
102
{ACAD_REACTORS
330
47
102
}
330
47
100
AcDbScale
 70
     0
300
1:4
140
1.0
141
4.0
290
     0
  0
SCALE
  5
4B
102
{ACAD_REACTORS
330
47
102
}
330
47
100
AcDbScale
 70
     0
300
1:5
140
1.0
141
5.0
290
     0
  0
SCALE
  5
4C
102
{ACAD_REACTORS
330
47
102
}
330
47
100
AcDbScale
 70
     0
300
1:8
140
1.0
141
8.0
290
     0
  0
SCALE
  5
4D
102
{ACAD_REACTORS
330
47
102
}
330
47
100
AcDbScale
 70
     0
300
1:10
140
1.0
141
10.0
290
     0
  0
SCALE
  5
4E
102
{ACAD_REACTORS
330
47
102
}
330
47
100
AcDbScale
 70
     0
300
1:16
140
1.0
141
16.0
290
     0
  0
SCALE
  5
4F
102
{ACAD_REACTORS
330
47
102
}
330
47
100
AcDbScale
 70
     0
300
1:20
140
1.0
141
20.0
290
     0
  0
SCALE
  5
50
102
{ACAD_REACTORS
330
47
102
}
330
47
100
AcDbScale
 70
     0
300
1:30
140
1.0
141
30.0
290
     0
  0
SCALE
  5
51
102
{ACAD_REACTORS
330
47
102
}
330
47
100
AcDbScale
 70
     0
300
1:40
140
1.0
141
40.0
290
     0
  0
SCALE
  5
52
102
{ACAD_REACTORS
330
47
102
}
330
47
100
AcDbScale
 70
     0
300
1:50
140
1.0
141
50.0
290
     0
  0
SCALE
  5
53
102
{ACAD_REACTORS
330
47
102
}
330
47
100
AcDbScale
 70
     0
300
1:100
140
1.0
141
100.0
290
     0
  0
SCALE
  5
54
102
{ACAD_REACTORS
330
47
102
}
330
47
100
AcDbScale
 70
     0
300
2:1
140
2.0
141
1.0
290
     0
  0
SCALE
  5
55
102
{ACAD_REACTORS
330
47
102
}
330
47
100
AcDbScale
 70
     0
300
4:1
140
4.0
141
1.0
290
     0
  0
SCALE
  5
56
102
{ACAD_REACTORS
330
47
102
}
330
47
100
AcDbScale
 70
     0
300
8:1
140
8.0
141
1.0
290
     0
  0
SCALE
  5
57
102
{ACAD_REACTORS
330
47
102
}
330
47
100
AcDbScale
 70
     0
300
10:1
140
10.0
141
1.0
290
     0
  0
SCALE
  5
58
102
{ACAD_REACTORS
330
47
102
}
330
47
100
AcDbScale
 70
     0
300
100:1
140
100.0
141
1.0
290
     0
  0
SCALE
  5
59
102
{ACAD_REACTORS
330
47
102
}
330
47
100
AcDbScale
 70
     0
300
1/128" = 1'-0"
140
0.0078125
141
12.0
290
     0
  0
SCALE
  5
5A
102
{ACAD_REACTORS
330
47
102
}
330
47
100
AcDbScale
 70
     0
300
1/64" = 1'-0"
140
0.015625
141
12.0
290
     0
  0
SCALE
  5
5B
102
{ACAD_REACTORS
330
47
102
}
330
47
100
AcDbScale
 70
     0
300
1/32" = 1'-0"
140
0.03125
141
12.0
290
     0
  0
SCALE
  5
5C
102
{ACAD_REACTORS
330
47
102
}
330
47
100
AcDbScale
 70
     0
300
1/16" = 1'-0"
140
0.0625
141
12.0
290
     0
  0
SCALE
  5
5D
102
{ACAD_REACTORS
330
47
102
}
330
47
100
AcDbScale
 70
     0
300
3/32" = 1'-0"
140
0.09375
141
12.0
290
     0
  0
SCALE
  5
5E
102
{ACAD_REACTORS
330
47
102
}
330
47
100
AcDbScale
 70
     0
300
1/8" = 1'-0"
140
0.125
141
12.0
290
     0
  0
SCALE
  5
5F
102
{ACAD_REACTORS
330
47
102
}
330
47
100
AcDbScale
 70
     0
300
3/16" = 1'-0"
140
0.1875
141
12.0
290
     0
  0
SCALE
  5
60
102
{ACAD_REACTORS
330
47
102
}
330
47
100
AcDbScale
 70
     0
300
1/4" = 1'-0"
140
0.25
141
12.0
290
     0
  0
SCALE
  5
61
102
{ACAD_REACTORS
330
47
102
}
330
47
100
AcDbScale
 70
     0
300
3/8" = 1'-0"
140
0.375
141
12.0
290
     0
  0
SCALE
  5
62
102
{ACAD_REACTORS
330
47
102
}
330
47
100
AcDbScale
 70
     0
300
1/2" = 1'-0"
140
0.5
141
12.0
290
     0
  0
SCALE
  5
63
102
{ACAD_REACTORS
330
47
102
}
330
47
100
AcDbScale
 70
     0
300
3/4" = 1'-0"
140
0.75
141
12.0
290
     0
  0
SCALE
  5
64
102
{ACAD_REACTORS
330
47
102
}
330
47
100
AcDbScale
 70
     0
300
1" = 1'-0"
140
1.0
141
12.0
290
     0
  0
SCALE
  5
65
102
{ACAD_REACTORS
330
47
102
}
330
47
100
AcDbScale
 70
     0
300
1-1/2" = 1'-0"
140
1.5
141
12.0
290
     0
  0
SCALE
  5
66
102
{ACAD_REACTORS
330
47
102
}
330
47
100
AcDbScale
 70
     0
300
3" = 1'-0"
140
3.0
141
12.0
290
     0
  0
SCALE
  5
67
102
{ACAD_REACTORS
330
47
102
}
330
47
100
AcDbScale
 70
     0
300
6" = 1'-0"
140
6.0
141
12.0
290
     0
  0
SCALE
  5
68
102
{ACAD_REACTORS
330
47
102
}
330
47
100
AcDbScale
 70
     0
300
1'-0" = 1'-0"
140
12.0
141
12.0
290
     0
  0
ENDSEC
  0
EOF
