  0
SECTION
  2
HEADER
  9
$ACADVER
  1
AC1015
  9
$ACADMAINTVER
 70
     6
  9
$DWGCODEPAGE
  3
ANSI_1252
  9
$INSBASE
 10
0.0
 20
0.0
 30
0.0
  9
$EXTMIN
 10
-165.0025578104
 20
-86.0
 30
0.0
  9
$EXTMAX
 10
0.0025578104
 20
101.295
 30
0.0
  9
$LIMMIN
 10
0.0
 20
0.0
  9
$LIMMAX
 10
420.0
 20
297.0
  9
$ORTHOMODE
 70
     0
  9
$REGENMODE
 70
     1
  9
$FILLMODE
 70
     1
  9
$QTEXTMODE
 70
     0
  9
$MIRRTEXT
 70
     1
  9
$LTSCALE
 40
1.0
  9
$ATTMODE
 70
     1
  9
$TEXTSIZE
 40
6.35
  9
$TRACEWID
 40
1.0
  9
$TEXTSTYLE
  7
Standard
  9
$CLAYER
  8
0
  9
$CELTYPE
  6
ByLayer
  9
$CECOLOR
 62
   256
  9
$CELTSCALE
 40
1.0
  9
$DISPSILH
 70
     0
  9
$DIMSCALE
 40
1.0
  9
$DIMASZ
 40
5.9944
  9
$DIMEXO
 40
0.9906
  9
$DIMDLI
 40
3.75
  9
$DIMRND
 40
0.0
  9
$DIMDLE
 40
0.0
  9
$DIMEXE
 40
0.9906
  9
$DIMTP
 40
0.0
  9
$DIMTM
 40
0.0
  9
$DIMTXT
 40
6.35
  9
$DIMCEN
 40
2.5
  9
$DIMTSZ
 40
0.0
  9
$DIMTOL
 70
     0
  9
$DIMLIM
 70
     0
  9
$DIMTIH
 70
     1
  9
$DIMTOH
 70
     1
  9
$DIMSE1
 70
     0
  9
$DIMSE2
 70
     0
  9
$DIMTAD
 70
     1
  9
$DIMZIN
 70
     0
  9
$DIMBLK
  1

  9
$DIMASO
 70
     1
  9
$DIMSHO
 70
     1
  9
$DIMPOST
  1

  9
$DIMAPOST
  1

  9
$DIMALT
 70
     0
  9
$DIMALTD
 70
     3
  9
$DIMALTF
 40
0.0393700787
  9
$DIMLFAC
 40
1.0
  9
$DIMTOFL
 70
     1
  9
$DIMTVP
 40
0.0
  9
$DIMTIX
 70
     0
  9
$DIMSOXD
 70
     0
  9
$DIMSAH
 70
     0
  9
$DIMBLK1
  1

  9
$DIMBLK2
  1

  9
$DIMSTYLE
  2
ISO-25
  9
$DIMCLRD
 70
     0
  9
$DIMCLRE
 70
     0
  9
$DIMCLRT
 70
     0
  9
$DIMTFAC
 40
1.0
  9
$DIMGAP
 40
1.524
  9
$DIMJUST
 70
     0
  9
$DIMSD1
 70
     0
  9
$DIMSD2
 70
     0
  9
$DIMTOLJ
 70
     0
  9
$DIMTZIN
 70
     0
  9
$DIMALTZ
 70
     0
  9
$DIMALTTZ
 70
     0
  9
$DIMUPT
 70
     0
  9
$DIMDEC
 70
     2
  9
$DIMTDEC
 70
     2
  9
$DIMALTU
 70
     2
  9
$DIMALTTD
 70
     3
  9
$DIMTXSTY
  7
Standard
  9
$DIMAUNIT
 70
     0
  9
$DIMADEC
 70
     2
  9
$DIMALTRND
 40
0.0
  9
$DIMAZIN
 70
     0
  9
$DIMDSEP
 70
    44
  9
$DIMATFIT
 70
     3
  9
$DIMFRAC
 70
     0
  9
$DIMLDRBLK
  1

  9
$DIMLUNIT
 70
     2
  9
$DIMLWD
 70
    -2
  9
$DIMLWE
 70
    -2
  9
$DIMTMOVE
 70
     0
  9
$LUNITS
 70
     2
  9
$LUPREC
 70
     2
  9
$SKETCHINC
 40
1.0
  9
$FILLETRAD
 40
10.0
  9
$AUNITS
 70
     0
  9
$AUPREC
 70
     2
  9
$MENU
  1
.
  9
$ELEVATION
 40
0.0
  9
$PELEVATION
 40
0.0
  9
$THICKNESS
 40
0.0
  9
$LIMCHECK
 70
     0
  9
$CHAMFERA
 40
0.0
  9
$CHAMFERB
 40
0.0
  9
$CHAMFERC
 40
0.0
  9
$CHAMFERD
 40
0.0
  9
$SKPOLY
 70
     0
  9
$TDCREATE
 40
2458381.639175949
  9
$TDUCREATE
 40
2458381.597509282
  9
$TDUPDATE
 40
2458381.639219827
  9
$TDUUPDATE
 40
2458381.59755316
  9
$TDINDWG
 40
0.0000000116
  9
$TDUSRTIMER
 40
0.0000000116
  9
$USRTIMER
 70
     1
  9
$ANGBASE
 50
0.0
  9
$ANGDIR
 70
     0
  9
$PDMODE
 70
     0
  9
$PDSIZE
 40
-1.0
  9
$PLINEWID
 40
0.0
  9
$SPLFRAME
 70
     0
  9
$SPLINETYPE
 70
     6
  9
$SPLINESEGS
 70
     8
  9
$HANDSEED
  5
FC
  9
$SURFTAB1
 70
     6
  9
$SURFTAB2
 70
     6
  9
$SURFTYPE
 70
     6
  9
$SURFU
 70
     6
  9
$SURFV
 70
     6
  9
$UCSBASE
  2

  9
$UCSNAME
  2

  9
$UCSORG
 10
0.0
 20
0.0
 30
0.0
  9
$UCSXDIR
 10
1.0
 20
0.0
 30
0.0
  9
$UCSYDIR
 10
0.0
 20
1.0
 30
0.0
  9
$UCSORTHOREF
  2

  9
$UCSORTHOVIEW
 70
     0
  9
$UCSORGTOP
 10
0.0
 20
0.0
 30
0.0
  9
$UCSORGBOTTOM
 10
0.0
 20
0.0
 30
0.0
  9
$UCSORGLEFT
 10
0.0
 20
0.0
 30
0.0
  9
$UCSORGRIGHT
 10
0.0
 20
0.0
 30
0.0
  9
$UCSORGFRONT
 10
0.0
 20
0.0
 30
0.0
  9
$UCSORGBACK
 10
0.0
 20
0.0
 30
0.0
  9
$PUCSBASE
  2

  9
$PUCSNAME
  2

  9
$PUCSORG
 10
0.0
 20
0.0
 30
0.0
  9
$PUCSXDIR
 10
1.0
 20
0.0
 30
0.0
  9
$PUCSYDIR
 10
0.0
 20
1.0
 30
0.0
  9
$PUCSORTHOREF
  2

  9
$PUCSORTHOVIEW
 70
     0
  9
$PUCSORGTOP
 10
0.0
 20
0.0
 30
0.0
  9
$PUCSORGBOTTOM
 10
0.0
 20
0.0
 30
0.0
  9
$PUCSORGLEFT
 10
0.0
 20
0.0
 30
0.0
  9
$PUCSORGRIGHT
 10
0.0
 20
0.0
 30
0.0
  9
$PUCSORGFRONT
 10
0.0
 20
0.0
 30
0.0
  9
$PUCSORGBACK
 10
0.0
 20
0.0
 30
0.0
  9
$USERI1
 70
     0
  9
$USERI2
 70
     0
  9
$USERI3
 70
     0
  9
$USERI4
 70
     0
  9
$USERI5
 70
     0
  9
$USERR1
 40
0.0
  9
$USERR2
 40
0.0
  9
$USERR3
 40
0.0
  9
$USERR4
 40
0.0
  9
$USERR5
 40
0.0
  9
$WORLDVIEW
 70
     1
  9
$SHADEDGE
 70
     3
  9
$SHADEDIF
 70
    70
  9
$TILEMODE
 70
     1
  9
$MAXACTVP
 70
    64
  9
$PINSBASE
 10
0.0
 20
0.0
 30
0.0
  9
$PLIMCHECK
 70
     0
  9
$PEXTMIN
 10
-86.0
 20
-86.0
 30
0.0
  9
$PEXTMAX
 10
86.0
 20
101.295
 30
0.0
  9
$PLIMMIN
 10
-105.2097435897
 20
-93.2036538462
  9
$PLIMMAX
 10
180.0549487179
 20
108.4986538462
  9
$UNITMODE
 70
     0
  9
$VISRETAIN
 70
     1
  9
$PLINEGEN
 70
     0
  9
$PSLTSCALE
 70
     1
  9
$TREEDEPTH
 70
  3020
  9
$CMLSTYLE
  2
Standard
  9
$CMLJUST
 70
     0
  9
$CMLSCALE
 40
20.0
  9
$PROXYGRAPHICS
 70
     1
  9
$MEASUREMENT
 70
     1
  9
$CELWEIGHT
370
    -1
  9
$ENDCAPS
280
     0
  9
$JOINSTYLE
280
     0
  9
$LWDISPLAY
290
     1
  9
$INSUNITS
 70
     4
  9
$HYPERLINKBASE
  1

  9
$STYLESHEET
  1

  9
$XEDIT
290
     1
  9
$CEPSNTYPE
380
     0
  9
$PSTYLEMODE
290
     1
  9
$FINGERPRINTGUID
  2
{E7689D59-1FD7-4B44-86C6-7F746F935EA8}
  9
$VERSIONGUID
  2
{FAEB1C32-E019-11D5-929B-00C0DF256EC4}
  9
$EXTNAMES
290
     1
  9
$PSVPSCALE
 40
0.0
  9
$OLESTARTUP
290
     0
  0
ENDSEC
  0
SECTION
  2
CLASSES
  0
CLASS
  1
ACDBDICTIONARYWDFLT
  2
AcDbDictionaryWithDefault
  3
ObjectDBX Classes
 90
        0
280
     0
281
     0
  0
CLASS
  1
VISUALSTYLE
  2
AcDbVisualStyle
  3
ObjectDBX Classes
 90
     4095
280
     0
281
     0
  0
CLASS
  1
MATERIAL
  2
AcDbMaterial
  3
ObjectDBX Classes
 90
     1153
280
     0
281
     0
  0
CLASS
  1
SCALE
  2
AcDbScale
  3
ObjectDBX Classes
 90
     1153
280
     0
281
     0
  0
CLASS
  1
TABLESTYLE
  2
AcDbTableStyle
  3
ObjectDBX Classes
 90
     4095
280
     0
281
     0
  0
CLASS
  1
MLEADERSTYLE
  2
AcDbMLeaderStyle
  3
ACDB_MLEADERSTYLE_CLASS
 90
     4095
280
     0
281
     0
  0
CLASS
  1
SUN
  2
AcDbSun
  3
SCENEOE
 90
     1153
280
     0
281
     0
  0
CLASS
  1
ACDBPLACEHOLDER
  2
AcDbPlaceHolder
  3
ObjectDBX Classes
 90
        0
280
     0
281
     0
  0
CLASS
  1
LAYOUT
  2
AcDbLayout
  3
ObjectDBX Classes
 90
        0
280
     0
281
     0
  0
ENDSEC
  0
SECTION
  2
TABLES
  0
TABLE
  2
VPORT
  5
8
330
0
100
AcDbSymbolTable
 70
     1
  0
VPORT
  5
29
330
8
100
AcDbSymbolTableRecord
100
AcDbViewportTableRecord
  2
*Active
 70
     0
 10
0.0
 20
0.0
 11
1.0
 21
1.0
 12
-82.5
 22
7.6475
 13
0.0
 23
0.0
 14
10.0
 24
10.0
 15
10.0
 25
10.0
 16
0.0
 26
0.0
 36
1.0
 17
0.0
 27
0.0
 37
0.0
 40
191.0409
 41
0.8809904996
 42
50.0
 43
0.0
 44
0.0
 50
0.0
 51
0.0
 71
     0
 72
   100
 73
     1
 74
     3
 75
     0
 76
     0
 77
     0
 78
     0
281
     0
 65
     1
110
0.0
120
0.0
130
0.0
111
1.0
121
0.0
131
0.0
112
0.0
122
1.0
132
0.0
 79
     0
146
0.0
  0
ENDTAB
  0
TABLE
  2
LTYPE
  5
5
330
0
100
AcDbSymbolTable
 70
     6
  0
LTYPE
  5
14
330
5
100
AcDbSymbolTableRecord
100
AcDbLinetypeTableRecord
  2
ByBlock
 70
     0
  3

 72
    65
 73
     0
 40
0.0
  0
LTYPE
  5
15
330
5
100
AcDbSymbolTableRecord
100
AcDbLinetypeTableRecord
  2
ByLayer
 70
     0
  3

 72
    65
 73
     0
 40
0.0
  0
LTYPE
  5
16
330
5
100
AcDbSymbolTableRecord
100
AcDbLinetypeTableRecord
  2
Continuous
 70
     0
  3
Solid line
 72
    65
 73
     0
 40
0.0
  0
LTYPE
  5
6E
330
5
100
AcDbSymbolTableRecord
100
AcDbLinetypeTableRecord
  2
HIDDEN
 70
     0
  3
Hidden __ __ __ __ __ __ __ __ __ __ __ __ __ __
 72
    65
 73
     2
 40
1.905
 49
1.27
 74
     0
 49
-0.635
 74
     0
  0
LTYPE
  5
6F
330
5
100
AcDbSymbolTableRecord
100
AcDbLinetypeTableRecord
  2
PHANTOM
 70
     0
  3
Phantom ______  __  __  ______  __  __  ______
 72
    65
 73
     6
 40
12.7
 49
6.35
 74
     0
 49
-1.27
 74
     0
 49
1.27
 74
     0
 49
-1.27
 74
     0
 49
1.27
 74
     0
 49
-1.27
 74
     0
  0
LTYPE
  5
70
330
5
100
AcDbSymbolTableRecord
100
AcDbLinetypeTableRecord
  2
CENTER
 70
     0
  3
Center ____ _ ____ _ ____ _ ____ _ ____ _ ____
 72
    65
 73
     4
 40
10.16
 49
6.35
 74
     0
 49
-1.27
 74
     0
 49
1.27
 74
     0
 49
-1.27
 74
     0
  0
LTYPE
  5
71
330
5
100
AcDbSymbolTableRecord
100
AcDbLinetypeTableRecord
  2
CENTERX2
 70
     0
  3
Center (2x) ________  __  ________  __  _____
 72
    65
 73
     4
 40
20.32
 49
12.7
 74
     0
 49
-2.54
 74
     0
 49
2.54
 74
     0
 49
-2.54
 74
     0
  0
LTYPE
  5
72
330
5
100
AcDbSymbolTableRecord
100
AcDbLinetypeTableRecord
  2
DOT2
 70
     0
  3
Dot (.5x) ........................................
 72
    65
 73
     2
 40
0.635
 49
0.0
 74
     0
 49
-0.635
 74
     0
  0
ENDTAB
  0
TABLE
  2
LAYER
  5
2
330
0
100
AcDbSymbolTable
 70
     1
  0
LAYER
  5
10
330
2
100
AcDbSymbolTableRecord
100
AcDbLayerTableRecord
  2
0
 70
     0
 62
     7
  6
Continuous
370
    -3
390
F
  0
ENDTAB
  0
TABLE
  2
STYLE
  5
3
330
0
100
AcDbSymbolTable
 70
     1
  0
STYLE
  5
11
330
3
100
AcDbSymbolTableRecord
100
AcDbTextStyleTableRecord
  2
Standard
 70
     0
 40
0.0
 41
1.0
 50
0.0
 71
     0
 42
6.35
  3
txt
  4

  0
ENDTAB
  0
TABLE
  2
VIEW
  5
6
330
0
100
AcDbSymbolTable
 70
     0
  0
ENDTAB
  0
TABLE
  2
UCS
  5
7
330
0
100
AcDbSymbolTable
 70
     0
  0
ENDTAB
  0
TABLE
  2
APPID
  5
9
330
0
100
AcDbSymbolTable
 70
     1
  0
APPID
  5
12
330
9
100
AcDbSymbolTableRecord
100
AcDbRegAppTableRecord
  2
ACAD
 70
     0
  0
ENDTAB
  0
TABLE
  2
DIMSTYLE
  5
A
330
0
100
AcDbSymbolTable
 70
     1
100
AcDbDimStyleTable
  0
DIMSTYLE
105
27
330
A
100
AcDbSymbolTableRecord
100
AcDbDimStyleTableRecord
  2
ISO-25
 70
     0
 41
2.5
 42
0.625
 43
3.75
 44
1.25
 73
     0
 74
     0
 77
     1
 78
     8
140
2.5
141
2.5
143
0.0393700787
147
0.625
171
     3
172
     1
178
     0
271
     2
272
     2
274
     3
278
    44
283
     0
284
     8
340
11
  0
ENDTAB
  0
TABLE
  2
BLOCK_RECORD
  5
1
330
0
100
AcDbSymbolTable
 70
     1
  0
BLOCK_RECORD
  5
1F
330
1
100
AcDbSymbolTableRecord
100
AcDbBlockTableRecord
  2
*Model_Space
340
22
  0
BLOCK_RECORD
  5
1B
330
1
100
AcDbSymbolTableRecord
100
AcDbBlockTableRecord
  2
*Paper_Space
340
1E
  0
BLOCK_RECORD
  5
23
330
1
100
AcDbSymbolTableRecord
100
AcDbBlockTableRecord
  2
*Paper_Space0
340
26
  0
ENDTAB
  0
ENDSEC
  0
SECTION
  2
BLOCKS
  0
BLOCK
  5
20
330
1F
100
AcDbEntity
  8
0
100
AcDbBlockBegin
  2
*Model_Space
 70
     0
 10
0.0
 20
0.0
 30
0.0
  3
*Model_Space
  1

  0
ENDBLK
  5
21
330
1F
100
AcDbEntity
  8
0
100
AcDbBlockEnd
  0
BLOCK
  5
1C
330
1B
100
AcDbEntity
 67
     1
  8
0
100
AcDbBlockBegin
  2
*Paper_Space
 70
     0
 10
0.0
 20
0.0
 30
0.0
  3
*Paper_Space
  1

  0
ENDBLK
  5
1D
330
1B
100
AcDbEntity
 67
     1
  8
0
100
AcDbBlockEnd
  0
BLOCK
  5
24
330
23
100
AcDbEntity
  8
0
100
AcDbBlockBegin
  2
*Paper_Space0
 70
     0
 10
0.0
 20
0.0
 30
0.0
  3
*Paper_Space0
  1

  0
CIRCLE
  5
CA
330
23
100
AcDbEntity
  8
0
  6
Continuous
 62
     7
370
    25
100
AcDbCircle
 10
-17.9974422528
 20
0.0
 30
0.0
 40
6.25000000000009
  0
CIRCLE
  5
CB
330
23
100
AcDbEntity
  8
0
  6
Continuous
 62
     7
370
    25
100
AcDbCircle
 10
-17.9974422528
 20
0.0
 30
0.0
 40
10.00000000000001
  0
CIRCLE
  5
CC
330
23
100
AcDbEntity
  8
0
  6
Continuous
 62
     7
370
    25
100
AcDbCircle
 10
-146.9974421896
 20
0.0
 30
0.0
 40
6.250000000000079
  0
CIRCLE
  5
CD
330
23
100
AcDbEntity
  8
0
  6
Continuous
 62
     7
370
    25
100
AcDbCircle
 10
-146.9974421896
 20
0.0
 30
0.0
 40
10.00000000000001
  0
CIRCLE
  5
CE
330
23
100
AcDbEntity
  8
0
  6
Continuous
 62
     7
370
    25
100
AcDbCircle
 10
-146.9974421896
 20
0.0
 30
0.0
 40
1.916987298108004
  0
CIRCLE
  5
CF
330
23
100
AcDbEntity
  8
0
  6
Continuous
 62
     7
370
    25
100
AcDbCircle
 10
-146.9974421896
 20
0.0
 30
0.0
 40
2.350000000000073
  0
CIRCLE
  5
D0
330
23
100
AcDbEntity
  8
0
  6
Continuous
 62
     7
370
    25
100
AcDbCircle
 10
-17.9974422528
 20
0.0
 30
0.0
 40
1.916987298107967
  0
CIRCLE
  5
D1
330
23
100
AcDbEntity
  8
0
  6
Continuous
 62
     7
370
    25
100
AcDbCircle
 10
-17.9974422528
 20
0.0
 30
0.0
 40
2.350000000000068
  0
SPLINE
  5
D2
330
23
100
AcDbEntity
  8
0
  6
Continuous
 62
     7
370
    25
100
AcDbSpline
210
0.0
220
0.0
230
1.0
 70
     8
 71
     3
 72
    14
 73
    10
 74
     0
 42
0.000000001
 43
0.00000001
 40
0.0
 40
0.0
 40
0.0
 40
0.0
 40
0.25
 40
0.25
 40
0.5
 40
0.5
 40
0.75
 40
0.75
 40
1.0
 40
1.0
 40
1.0
 40
1.0
 10
-27.39278472511056
 20
-5.655042571213941
 30
0.0
 10
-27.28254594242011
 20
-5.587540227215329
 30
0.0
 10
-27.1734249826245
 20
-5.524699936389618
 30
0.0
 10
-26.96653031763957
 20
-5.413404085740813
 30
0.0
 10
-26.8705173446876
 20
-5.365977160408507
 30
0.0
 10
-26.7066712062001
 20
-5.293959608560589
 30
0.0
 10
-26.63832800373865
 20
-5.269203084073396
 30
0.0
 10
-26.54044004639488
 20
-5.246253298616284
 30
0.0
 10
-26.50975356157712
 20
-5.247937873753723
 30
0.0
 10
-26.50070341329552
 20
-5.262561128950985
 30
0.0
  0
SPLINE
  5
D3
330
23
100
AcDbEntity
  8
0
  6
Continuous
 62
     7
370
    25
100
AcDbSpline
210
0.0
220
0.0
230
1.0
 70
     8
 71
     3
 72
    20
 73
    16
 74
     0
 42
0.000000001
 43
0.00000001
 40
0.0
 40
0.0
 40
0.0
 40
0.0
 40
0.1250000000000001
 40
0.1250000000000001
 40
0.2500000000000001
 40
0.2500000000000001
 40
0.3750000000000001
 40
0.3750000000000001
 40
0.5000000000000001
 40
0.5000000000000001
 40
0.75
 40
0.75
 40
0.8750000000000001
 40
0.8750000000000001
 40
1.0
 40
1.0
 40
1.0
 40
1.0
 10
-27.39278472511056
 20
-5.655042571213941
 30
0.0
 10
-27.65445273785144
 20
-5.230241336821458
 30
0.0
 10
-27.88521581686293
 20
-4.789968571509935
 30
0.0
 10
-28.28300845067539
 20
-3.886182064326013
 30
0.0
 10
-28.45069213747291
 20
-3.421623831477156
 30
0.0
 10
-28.72242188327708
 20
-2.46663488018713
 30
0.0
 10
-28.82595032141536
 20
-1.975914194097206
 30
0.0
 10
-28.96303055909549
 20
-0.992462272532073
 30
0.0
 10
-28.99758319637173
 20
-0.4967099796733614
 30
0.0
 10
-28.99715907532824
 20
1.002541906199802
 30
0.0
 10
-28.86006511822947
 20
1.978219072525044
 30
0.0
 10
-28.45546267254613
 20
3.40714497621932
 30
0.0
 10
-28.28583096930641
 20
3.879286938060892
 30
0.0
 10
-27.8857824197442
 20
4.78915953235574
 30
0.0
 10
-27.65445610723345
 20
5.230235866845871
 30
0.0
 10
-27.39278472511056
 20
5.655042571213943
 30
0.0
  0
SPLINE
  5
D4
330
23
100
AcDbEntity
  8
0
  6
Continuous
 62
     7
370
    25
100
AcDbSpline
210
0.0
220
0.0
230
1.0
 70
     8
 71
     3
 72
    14
 73
    10
 74
     0
 42
0.000000001
 43
0.00000001
 40
0.0
 40
0.0
 40
0.0
 40
0.0
 40
0.25
 40
0.25
 40
0.5
 40
0.5
 40
0.75
 40
0.75
 40
1.0
 40
1.0
 40
1.0
 40
1.0
 10
-27.39278472511055
 20
5.655042571213944
 30
0.0
 10
-27.2825459424236
 20
5.587540227217476
 30
0.0
 10
-27.17342498263163
 20
5.52469993639376
 30
0.0
 10
-26.96653031765207
 20
5.413404085747322
 30
0.0
 10
-26.87051734470248
 20
5.365977160415729
 30
0.0
 10
-26.70667120621638
 20
5.293959608567126
 30
0.0
 10
-26.63832800375467
 20
5.26920308407875
 30
0.0
 10
-26.54044004640685
 20
5.246253298617477
 30
0.0
 10
-26.50975356160458
 20
5.247937873721063
 30
0.0
 10
-26.50070341329694
 20
5.262561128948697
 30
0.0
  0
SPLINE
  5
D5
330
23
100
AcDbEntity
  8
0
  6
Continuous
 62
     7
370
    25
100
AcDbSpline
210
0.0
220
0.0
230
1.0
 70
     8
 71
     3
 72
    14
 73
    10
 74
     0
 42
0.000000001
 43
0.00000001
 40
0.0
 40
0.0
 40
0.0
 40
0.0
 40
0.25
 40
0.25
 40
0.5
 40
0.5
 40
0.75
 40
0.75
 40
1.0
 40
1.0
 40
1.0
 40
1.0
 10
-137.6070983031543
 20
5.663149485231544
 30
0.0
 10
-137.7172717278867
 20
5.59555625380627
 30
0.0
 10
-137.8263310943815
 20
5.532630373303841
 30
0.0
 10
-138.0331184613665
 20
5.421178958350572
 30
0.0
 10
-138.1290855080729
 20
5.373684098177085
 30
0.0
 10
-138.2928657821033
 20
5.301557397889836
 30
0.0
 10
-138.3611878017727
 20
5.27675986523491
 30
0.0
 10
-138.4590634980773
 20
5.253760734026312
 30
0.0
 10
-138.4897584679054
 20
5.255436622260462
 30
0.0
 10
-138.4988315370553
 20
5.270068023938377
 30
0.0
  0
SPLINE
  5
D6
330
23
100
AcDbEntity
  8
0
  6
Continuous
 62
     7
370
    25
100
AcDbSpline
210
0.0
220
0.0
230
1.0
 70
     8
 71
     3
 72
    20
 73
    16
 74
     0
 42
0.000000001
 43
0.00000001
 40
0.0
 40
0.0
 40
0.0
 40
0.0
 40
0.125
 40
0.125
 40
0.2499999999999999
 40
0.2499999999999999
 40
0.3749999999999999
 40
0.3749999999999999
 40
0.4999999999999999
 40
0.4999999999999999
 40
0.7499999999999998
 40
0.7499999999999998
 40
0.8749999999999999
 40
0.8749999999999999
 40
1.0
 40
1.0
 40
1.0
 40
1.0
 10
-137.6070983031543
 20
5.663149485231544
 30
0.0
 10
-137.3446349335159
 20
5.237893368586103
 30
0.0
 10
-137.1131697634589
 20
4.797102892976373
 30
0.0
 10
-136.7141567546293
 20
3.892172436067348
 30
0.0
 10
-136.5459524463554
 20
3.426986055471301
 30
0.0
 10
-136.2733658404177
 20
2.47062518829783
 30
0.0
 10
-136.1694975803972
 20
1.979130590263478
 30
0.0
 10
-136.0319702876478
 20
0.9941193330065823
 30
0.0
 10
-135.997302980859
 20
0.4975468560009825
 30
0.0
 10
-135.9977218615636
 20
-1.004088649451031
 30
0.0
 10
-136.1352397976326
 20
-1.981302958725289
 30
0.0
 10
-136.5411519755138
 20
-3.412450301939803
 30
0.0
 10
-136.7113259866544
 20
-3.885269253311288
 30
0.0
 10
-137.1126002941145
 20
-4.796290526519515
 30
0.0
 10
-137.3446314295319
 20
-5.237887691258011
 30
0.0
 10
-137.6070983031543
 20
-5.663149485231516
 30
0.0
  0
SPLINE
  5
D7
330
23
100
AcDbEntity
  8
0
  6
Continuous
 62
     7
370
    25
100
AcDbSpline
210
0.0
220
0.0
230
1.0
 70
     8
 71
     3
 72
    14
 73
    10
 74
     0
 42
0.000000001
 43
0.00000001
 40
0.0
 40
0.0
 40
0.0
 40
0.0
 40
0.25
 40
0.25
 40
0.5
 40
0.5
 40
0.75
 40
0.75
 40
1.0
 40
1.0
 40
1.0
 40
1.0
 10
-137.6070983031543
 20
-5.663149485231514
 30
0.0
 10
-137.7172717278866
 20
-5.595556253806287
 30
0.0
 10
-137.8263310943813
 20
-5.532630373303885
 30
0.0
 10
-138.0331184613663
 20
-5.421178958350676
 30
0.0
 10
-138.1290855080726
 20
-5.373684098177176
 30
0.0
 10
-138.292865782103
 20
-5.301557397889922
 30
0.0
 10
-138.3611878017722
 20
-5.276759865234754
 30
0.0
 10
-138.4590634980768
 20
-5.253760734026057
 30
0.0
 10
-138.489758467935
 20
-5.255436622308451
 30
0.0
 10
-138.4988315370552
 20
-5.270068023938289
 30
0.0
  0
SPLINE
  5
D8
330
23
100
AcDbEntity
  8
0
  6
Continuous
 62
     7
370
    25
100
AcDbSpline
210
0.0
220
0.0
230
1.0
 70
     8
 71
     3
 72
    10
 73
     6
 74
     0
 42
0.000000001
 43
0.00000001
 40
0.0
 40
0.0
 40
0.0
 40
0.0
 40
0.5
 40
0.5
 40
1.0
 40
1.0
 40
1.0
 40
1.0
 10
-27.49999725000007
 20
-5.946827951025462
 30
0.0
 10
-27.49999725000007
 20
-5.892772112502847
 30
0.0
 10
-27.49569250966269
 20
-5.838243934235637
 30
0.0
 10
-27.46665357200853
 20
-5.735032599881326
 30
0.0
 10
-27.4395097363703
 20
-5.683653625368618
 30
0.0
 10
-27.39278472512165
 20
-5.655042571202256
 30
0.0
  0
SPLINE
  5
D9
330
23
100
AcDbEntity
  8
0
  6
Continuous
 62
     7
370
    25
100
AcDbSpline
210
0.0
220
0.0
230
1.0
 70
     8
 71
     3
 72
    10
 73
     6
 74
     0
 42
0.000000001
 43
0.00000001
 40
0.0
 40
0.0
 40
0.0
 40
0.0
 40
0.5
 40
0.5
 40
1.0
 40
1.0
 40
1.0
 40
1.0
 10
-27.39278472511055
 20
5.655042571213944
 30
0.0
 10
-27.43956391088825
 20
5.683686797984911
 30
0.0
 10
-27.46661277147269
 20
5.734838588990218
 30
0.0
 10
-27.49578390936976
 20
5.838617871699994
 30
0.0
 10
-27.49999725000007
 20
5.892733493863347
 30
0.0
 10
-27.49999725000007
 20
5.946827951025456
 30
0.0
  0
SPLINE
  5
DA
330
23
100
AcDbEntity
  8
0
  6
Continuous
 62
     7
370
    25
100
AcDbSpline
210
0.0
220
0.0
230
1.0
 70
     8
 71
     3
 72
    86
 73
    82
 74
     0
 42
0.000000001
 43
0.00000001
 40
0.0
 40
0.0
 40
0.0
 40
0.0
 40
0.0312499999999997
 40
0.0312499999999997
 40
0.0624999999999994
 40
0.0624999999999994
 40
0.0781249999999993
 40
0.0781249999999993
 40
0.0937499999999991
 40
0.0937499999999991
 40
0.1249999999999992
 40
0.1249999999999992
 40
0.1562499999999992
 40
0.1562499999999992
 40
0.1874999999999993
 40
0.1874999999999993
 40
0.2031249999999994
 40
0.2031249999999994
 40
0.2187499999999995
 40
0.2187499999999995
 40
0.2499999999999995
 40
0.2499999999999995
 40
0.2812499999999995
 40
0.2812499999999995
 40
0.3124999999999995
 40
0.3124999999999995
 40
0.3437499999999995
 40
0.3437499999999995
 40
0.3593749999999994
 40
0.3593749999999994
 40
0.3749999999999994
 40
0.3749999999999994
 40
0.4062499999999994
 40
0.4062499999999994
 40
0.4218749999999993
 40
0.4218749999999993
 40
0.4374999999999993
 40
0.4374999999999993
 40
0.4687499999999993
 40
0.4687499999999993
 40
0.4843749999999992
 40
0.4843749999999992
 40
0.4999999999999992
 40
0.4999999999999992
 40
0.5312499999999991
 40
0.5312499999999991
 40
0.5624999999999991
 40
0.5624999999999991
 40
0.593749999999999
 40
0.593749999999999
 40
0.624999999999999
 40
0.624999999999999
 40
0.6562499999999989
 40
0.6562499999999989
 40
0.687499999999999
 40
0.687499999999999
 40
0.7031249999999991
 40
0.7031249999999991
 40
0.7187499999999991
 40
0.7187499999999991
 40
0.7499999999999993
 40
0.7499999999999993
 40
0.7656249999999996
 40
0.7656249999999996
 40
0.7812499999999997
 40
0.7812499999999997
 40
0.8125000000000001
 40
0.8125000000000001
 40
0.8281250000000002
 40
0.8281250000000002
 40
0.8437500000000002
 40
0.8437500000000002
 40
0.8750000000000002
 40
0.8750000000000002
 40
0.9062500000000001
 40
0.9062500000000001
 40
0.9375000000000001
 40
0.9375000000000001
 40
0.96875
 40
0.96875
 40
1.0
 40
1.0
 40
1.0
 40
1.0
 10
-27.49999725000007
 20
5.946827951025456
 30
0.0
 10
-27.17428650020602
 20
6.440209811730257
 30
0.0
 10
-26.81114550493285
 20
6.902305166225213
 30
0.0
 10
-26.02726294004751
 20
7.75273844625189
 30
0.0
 10
-25.60494084123904
 20
8.143557024921973
 30
0.0
 10
-24.92616780155253
 20
8.67928296731836
 30
0.0
 10
-24.69142177734532
 20
8.849939875581063
 30
0.0
 10
-24.21327993476197
 20
9.16962352600969
 30
0.0
 10
-23.96944281556801
 20
9.319107851172781
 30
0.0
 10
-23.22393978654274
 20
9.737473452403778
 30
0.0
 10
-22.70836623059933
 20
9.976454938829882
 30
0.0
 10
-21.63957795896866
 20
10.37497797048518
 30
0.0
 10
-21.0836494679132
 20
10.53441401553086
 30
0.0
 10
-19.96743284868278
 20
10.76311602588498
 30
0.0
 10
-19.40332406047922
 20
10.83422094618088
 30
0.0
 10
-18.54792629722719
 20
10.87572176787434
 30
0.0
 10
-18.261249433594
 20
10.87864674296953
 30
0.0
 10
-17.68470168599284
 20
10.86200771911641
 30
0.0
 10
-17.39422399066985
 20
10.84228229719854
 30
0.0
 10
-16.53262760414964
 20
10.74984171161162
 30
0.0
 10
-15.96665360687014
 20
10.6441364368473
 30
0.0
 10
-14.85174147192333
 20
10.34469068509973
 30
0.0
 10
-14.30212652149215
 20
10.15068452202256
 30
0.0
 10
-13.2243632137771
 20
9.669347012129176
 30
0.0
 10
-12.70988038989607
 20
9.388216339212477
 30
0.0
 10
-11.72928667284609
 20
8.746633116096525
 30
0.0
 10
-11.26316245745847
 20
8.386198018008844
 30
0.0
 10
-10.6027719746022
 20
7.782759584804173
 30
0.0
 10
-10.38951861204203
 20
7.571243677788719
 30
0.0
 10
-9.984362247350914
 20
7.135091806525605
 30
0.0
 10
-9.791383159913847
 20
6.909511886024439
 30
0.0
 10
-9.241056053505226
 20
6.210496559212635
 30
0.0
 10
-8.912122517497705
 20
5.714937806031328
 30
0.0
 10
-8.478286909727226
 20
4.925574203305805
 30
0.0
 10
-8.343424927958393
 20
4.653952234349382
 30
0.0
 10
-8.099072828941623
 20
4.105380527261459
 30
0.0
 10
-7.988876653472476
 20
3.827292140975902
 30
0.0
 10
-7.693685020290636
 20
2.981815789206886
 30
0.0
 10
-7.543843666218228
 20
2.403294892102826
 30
0.0
 10
-7.391672790759723
 20
1.51259406756119
 30
0.0
 10
-7.353112292359701
 20
1.210947373108569
 30
0.0
 10
-7.301941259856878
 20
0.6090817582572683
 30
0.0
 10
-7.289094959014836
 20
0.3079211197112288
 30
0.0
 10
-7.288544934899291
 20
-0.5962400280525095
 30
0.0
 10
-7.339775590723755
 20
-1.204198815991815
 30
0.0
 10
-7.540387253346478
 20
-2.387584044171762
 30
0.0
 10
-7.689046982827533
 20
-2.965931745811247
 30
0.0
 10
-8.081875207482728
 20
-4.096189467641408
 30
0.0
 10
-8.329104587113681
 20
-4.652612643386981
 30
0.0
 10
-8.90403363541052
 20
-5.701711348414899
 30
0.0
 10
-9.231914891646708
 20
-6.1976249845888
 30
0.0
 10
-9.966512955289359
 20
-7.133189581093643
 30
0.0
 10
-10.37746098273984
 20
-7.576101898356014
 30
0.0
 10
-11.25283411680494
 20
-8.377524250580878
 30
0.0
 10
-11.71813465155487
 20
-8.73859626545399
 30
0.0
 10
-12.45588233721395
 20
-9.222389801643082
 30
0.0
 10
-12.70846367846058
 20
-9.373972764572665
 30
0.0
 10
-13.22707161056237
 20
-9.657504945442646
 30
0.0
 10
-13.49243141702859
 20
-9.788961043628529
 30
0.0
 10
-14.29479079545388
 20
-10.14762096269759
 30
0.0
 10
-14.84223489457288
 20
-10.34170779126016
 30
0.0
 10
-15.68123305125217
 20
-10.56768793754775
 30
0.0
 10
-15.96388699535635
 20
-10.63210528983447
 30
0.0
 10
-16.53519369532366
 20
-10.73891617926569
 30
0.0
 10
-16.82420774045427
 20
-10.78124259158518
 30
0.0
 10
-17.68615784787925
 20
-10.87336651771823
 30
0.0
 10
-18.25863258066936
 20
-10.88954933673884
 30
0.0
 10
-19.11423242017178
 20
-10.8483494961645
 30
0.0
 10
-19.39891307224607
 20
-10.8236518845549
 30
0.0
 10
-19.96724988819745
 20
-10.75210764635472
 30
0.0
 10
-20.25203371847867
 20
-10.70500167060245
 30
0.0
 10
-21.09487806864876
 20
-10.53171019700085
 30
0.0
 10
-21.64136334700629
 20
-10.37426175684418
 30
0.0
 10
-22.70485278980698
 20
-9.977815415911698
 30
0.0
 10
-23.22185932836815
 20
-9.738831331372012
 30
0.0
 10
-24.22558488724808
 20
-9.175173183318979
 30
0.0
 10
-24.70288340838367
 20
-8.85543820666264
 30
0.0
 10
-25.6002330698427
 20
-8.147345911053737
 30
0.0
 10
-26.02192326416322
 20
-7.758099101108066
 30
0.0
 10
-26.8090479215333
 20
-6.905009118232366
 30
0.0
 10
-27.17422108020988
 20
-6.440308908979696
 30
0.0
 10
-27.49999725000008
 20
-5.946827951025446
 30
0.0
  0
SPLINE
  5
DB
330
23
100
AcDbEntity
  8
0
  6
Continuous
 62
     7
370
    25
100
AcDbSpline
210
0.0
220
0.0
230
1.0
 70
     8
 71
     3
 72
    10
 73
     6
 74
     0
 42
0.000000001
 43
0.00000001
 40
0.0
 40
0.0
 40
0.0
 40
0.0
 40
0.5
 40
0.5
 40
1.0
 40
1.0
 40
1.0
 40
1.0
 10
-137.50000275
 20
5.954570918726457
 30
0.0
 10
-137.5000027499999
 20
5.900583827557075
 30
0.0
 10
-137.5043091355194
 20
5.846124590952585
 30
0.0
 10
-137.533334698363
 20
5.743053011598255
 30
0.0
 10
-137.5604573165872
 20
5.69176450745429
 30
0.0
 10
-137.6070983031434
 20
5.663149485220066
 30
0.0
  0
SPLINE
  5
DC
330
23
100
AcDbEntity
  8
0
  6
Continuous
 62
     7
370
    25
100
AcDbSpline
210
0.0
220
0.0
230
1.0
 70
     8
 71
     3
 72
    10
 73
     6
 74
     0
 42
0.000000001
 43
0.00000001
 40
0.0
 40
0.0
 40
0.0
 40
0.0
 40
0.5
 40
0.5
 40
1.0
 40
1.0
 40
1.0
 40
1.0
 10
-137.6070983031543
 20
-5.663149485231514
 30
0.0
 10
-137.5604035817778
 20
-5.691797474671827
 30
0.0
 10
-137.5333759838714
 20
-5.742856197577214
 30
0.0
 10
-137.5042159354475
 20
-5.84650584622927
 30
0.0
 10
-137.50000275
 20
-5.900545375699282
 30
0.0
 10
-137.50000275
 20
-5.954570918726475
 30
0.0
  0
SPLINE
  5
DD
330
23
100
AcDbEntity
  8
0
  6
Continuous
 62
     7
370
    25
100
AcDbSpline
210
0.0
220
0.0
230
1.0
 70
     8
 71
     3
 72
    86
 73
    82
 74
     0
 42
0.000000001
 43
0.00000001
 40
0.0
 40
0.0
 40
0.0
 40
0.0
 40
0.0312500000000001
 40
0.0312500000000001
 40
0.0625000000000001
 40
0.0625000000000001
 40
0.0781250000000006
 40
0.0781250000000006
 40
0.093750000000001
 40
0.093750000000001
 40
0.1250000000000017
 40
0.1250000000000017
 40
0.1562500000000024
 40
0.1562500000000024
 40
0.1875000000000031
 40
0.1875000000000031
 40
0.2031250000000033
 40
0.2031250000000033
 40
0.2187500000000036
 40
0.2187500000000036
 40
0.2500000000000043
 40
0.2500000000000043
 40
0.2812500000000049
 40
0.2812500000000049
 40
0.3125000000000056
 40
0.3125000000000056
 40
0.3437500000000063
 40
0.3437500000000063
 40
0.3593750000000066
 40
0.3593750000000066
 40
0.3750000000000069
 40
0.3750000000000069
 40
0.4062500000000066
 40
0.4062500000000066
 40
0.4218750000000064
 40
0.4218750000000064
 40
0.4375000000000062
 40
0.4375000000000062
 40
0.4687500000000059
 40
0.4687500000000059
 40
0.4843750000000058
 40
0.4843750000000058
 40
0.5000000000000057
 40
0.5000000000000057
 40
0.5312500000000054
 40
0.5312500000000054
 40
0.5625000000000051
 40
0.5625000000000051
 40
0.5937500000000049
 40
0.5937500000000049
 40
0.6250000000000046
 40
0.6250000000000046
 40
0.6562500000000043
 40
0.6562500000000043
 40
0.687500000000004
 40
0.687500000000004
 40
0.7031250000000032
 40
0.7031250000000032
 40
0.7187500000000026
 40
0.7187500000000026
 40
0.7500000000000023
 40
0.7500000000000023
 40
0.7656250000000022
 40
0.7656250000000022
 40
0.7812500000000022
 40
0.7812500000000022
 40
0.8125000000000008
 40
0.8125000000000008
 40
0.8281250000000002
 40
0.8281250000000002
 40
0.8437499999999997
 40
0.8437499999999997
 40
0.8749999999999998
 40
0.8749999999999998
 40
0.9062499999999998
 40
0.9062499999999998
 40
0.9374999999999999
 40
0.9374999999999999
 40
0.9687499999999999
 40
0.9687499999999999
 40
1.0
 40
1.0
 40
1.0
 40
1.0
 10
-137.50000275
 20
-5.954570918726475
 30
0.0
 10
-137.8260106912633
 20
-6.447486669756969
 30
0.0
 10
-138.1892358307674
 20
-6.908914782138663
 30
0.0
 10
-138.9733941791171
 20
-7.758348789796543
 30
0.0
 10
-139.3958762188526
 20
-8.148761643457435
 30
0.0
 10
-140.0749740157496
 20
-8.683957757170573
 30
0.0
 10
-140.3097812355619
 20
-8.854400250563694
 30
0.0
 10
-140.7878311157114
 20
-9.1735482574735
 30
0.0
 10
-141.0316317004674
 20
-9.322790345485595
 30
0.0
 10
-141.7770604225102
 20
-9.740486127494203
 30
0.0
 10
-142.2926312098509
 20
-9.979096647984406
 30
0.0
 10
-143.3615465771985
 20
-10.37694243327874
 30
0.0
 10
-143.9173126668692
 20
-10.5359726668952
 30
0.0
 10
-145.0330848703829
 20
-10.76395801998966
 30
0.0
 10
-145.5970401499604
 20
-10.83476561098325
 30
0.0
 10
-146.4523202278272
 20
-10.87584399655177
 30
0.0
 10
-146.7389767050238
 20
-10.87863218325441
 30
0.0
 10
-147.3155241275698
 20
-10.86171604165291
 30
0.0
 10
-147.605842590782
 20
-10.84185856653139
 30
0.0
 10
-148.4668741812113
 20
-10.74908534241308
 30
0.0
 10
-149.0325649855617
 20
-10.64320414460585
 30
0.0
 10
-150.1470788591211
 20
-10.34340464556589
 30
0.0
 10
-150.6969727341006
 20
-10.1490429838901
 30
0.0
 10
-151.77380117282
 20
-9.667644028054498
 30
0.0
 10
-152.2879345367473
 20
-9.386503217711516
 30
0.0
 10
-153.2680088960742
 20
-8.744854257142402
 30
0.0
 10
-153.7339638321268
 20
-8.384364627799954
 30
0.0
 10
-154.3942028012417
 20
-7.780743873403572
 30
0.0
 10
-154.6072330777928
 20
-7.569334964604053
 30
0.0
 10
-155.0120613192664
 20
-7.133336029612991
 30
0.0
 10
-155.2049031713524
 20
-6.907823932744916
 30
0.0
 10
-155.7548833649511
 20
-6.208974724999546
 30
0.0
 10
-156.0836720351334
 20
-5.713477503198554
 30
0.0
 10
-156.5173644181326
 20
-4.924082397702653
 30
0.0
 10
-156.6521196337349
 20
-4.65256425554265
 30
0.0
 10
-156.8962621866682
 20
-4.10427657181528
 30
0.0
 10
-157.0063772118364
 20
-3.826312603984646
 30
0.0
 10
-157.301377093058
 20
-2.981151876681914
 30
0.0
 10
-157.4511595987977
 20
-2.402765083653428
 30
0.0
 10
-157.6032776863704
 20
-1.512125204121057
 30
0.0
 10
-157.6418113223428
 20
-1.210567791034863
 30
0.0
 10
-157.6929453451621
 20
-0.6089754684926347
 30
0.0
 10
-157.7057867934459
 20
-0.3079276863691656
 30
0.0
 10
-157.7063447048925
 20
0.5959661775479865
 30
0.0
 10
-157.6551450008854
 20
1.203729916414313
 30
0.0
 10
-157.4547171336889
 20
2.386542751515352
 30
0.0
 10
-157.3061807202769
 20
2.964710472621365
 30
0.0
 10
-156.9135753917506
 20
4.09479520561295
 30
0.0
 10
-156.6664766509564
 20
4.651119701919217
 30
0.0
 10
-156.092013654888
 20
5.699812556516354
 30
0.0
 10
-155.7643586520564
 20
6.195631314384357
 30
0.0
 10
-155.030133435945
 20
7.131172211230184
 30
0.0
 10
-154.6193774743238
 20
7.574088085419299
 30
0.0
 10
-153.7446396555441
 20
8.375380948815343
 30
0.0
 10
-153.2796157180493
 20
8.73648290296841
 30
0.0
 10
-152.5421924511566
 20
9.22041656931252
 30
0.0
 10
-152.2897041805003
 20
9.37206229078828
 30
0.0
 10
-151.7712469403014
 20
9.655745528941926
 30
0.0
 10
-151.5061060934387
 20
9.787208191937637
 30
0.0
 10
-150.7042450774551
 20
10.14600900214349
 30
0.0
 10
-150.1570681753919
 20
10.34026075034761
 30
0.0
 10
-149.3183647253546
 20
10.5665487006095
 30
0.0
 10
-149.0357912940877
 20
10.63107889083515
 30
0.0
 10
-148.4646080195936
 20
10.73812938387262
 30
0.0
 10
-148.1757421916934
 20
10.78056547444126
 30
0.0
 10
-147.3142251679244
 20
10.87305353327114
 30
0.0
 10
-146.7419607389223
 20
10.88952433565683
 30
0.0
 10
-145.8865651342301
 20
10.84878532749388
 30
0.0
 10
-145.6019339332875
 20
10.82424627322473
 30
0.0
 10
-145.0336587821893
 20
10.75302343890154
 30
0.0
 10
-144.7488880392982
 20
10.70607815093794
 30
0.0
 10
-143.9063570957588
 20
10.53334682177824
 30
0.0
 10
-143.3599926972508
 20
10.37629384546401
 30
0.0
 10
-142.2965902460127
 20
9.980640266093802
 30
0.0
 10
-141.7795496630527
 20
9.742053989009854
 30
0.0
 10
-140.7756083370302
 20
9.179155533754326
 30
0.0
 10
-140.2984742474312
 20
8.860004616699179
 30
0.0
 10
-139.4009519451203
 20
8.152854977227019
 30
0.0
 10
-138.9790906305392
 20
7.764059043039893
 30
0.0
 10
-138.1914716834472
 20
6.911792526653552
 30
0.0
 10
-137.8260733588802
 20
6.447581421606674
 30
0.0
 10
-137.50000275
 20
5.954570918726464
 30
0.0
  0
LINE
  5
E6
330
23
100
AcDbEntity
  8
0
  6
Continuous
 62
     7
370
    25
100
AcDbLine
 10
-27.49999725
 20
-86.0
 30
0.0
 11
-0.8060780429
 21
-77.8664404761
 31
0.0
  0
LINE
  5
E7
330
23
100
AcDbEntity
  8
0
  6
Continuous
 62
     7
370
    25
100
AcDbLine
 10
-0.8060780429
 20
77.8664404761
 30
0.0
 11
-27.49999725
 21
86.0
 31
0.0
  0
LINE
  5
E8
330
23
100
AcDbEntity
  8
0
  6
Continuous
 62
     7
370
    25
100
AcDbLine
 10
-137.50000275
 20
86.0
 30
0.0
 11
-164.193921945
 21
77.8664404141
 31
0.0
  0
LINE
  5
E9
330
23
100
AcDbEntity
  8
0
  6
Continuous
 62
     7
370
    25
100
AcDbLine
 10
-164.193921945
 20
-77.8664404141
 30
0.0
 11
-137.50000275
 21
-86.0
 31
0.0
  0
LINE
  5
EA
330
23
100
AcDbEntity
  8
0
  6
Continuous
 62
     7
370
    25
100
AcDbLine
 10
-27.49999725
 20
86.0
 30
0.0
 11
-137.50000275
 21
86.0
 31
0.0
  0
LINE
  5
EB
330
23
100
AcDbEntity
  8
0
  6
Continuous
 62
     7
370
    25
100
AcDbLine
 10
-137.50000275
 20
-86.0
 30
0.0
 11
-27.49999725
 21
-86.0
 31
0.0
  0
LINE
  5
EC
330
23
100
AcDbEntity
  8
0
  6
Continuous
 62
     7
370
    25
100
AcDbLine
 10
-27.49999725
 20
-5.946827951
 30
0.0
 11
-27.49999725
 21
-86.0
 31
0.0
  0
LINE
  5
ED
330
23
100
AcDbEntity
  8
0
  6
Continuous
 62
     7
370
    25
100
AcDbLine
 10
-27.49999725
 20
86.0
 30
0.0
 11
-27.49999725
 21
5.946827951
 31
0.0
  0
LINE
  5
EE
330
23
100
AcDbEntity
  8
0
  6
Continuous
 62
     7
370
    25
100
AcDbLine
 10
-0.8060780429
 20
77.8664404761
 30
0.0
 11
-0.8060780429
 21
-77.8664404761
 31
0.0
  0
LINE
  5
EF
330
23
100
AcDbEntity
  8
0
  6
Continuous
 62
     7
370
    25
100
AcDbLine
 10
-137.50000275
 20
-5.9545709187
 30
0.0
 11
-137.50000275
 21
-86.0
 31
0.0
  0
LINE
  5
F0
330
23
100
AcDbEntity
  8
0
  6
Continuous
 62
     7
370
    25
100
AcDbLine
 10
-137.50000275
 20
86.0
 30
0.0
 11
-137.50000275
 21
5.9545709187
 31
0.0
  0
LINE
  5
F1
330
23
100
AcDbEntity
  8
0
  6
Continuous
 62
     7
370
    25
100
AcDbLine
 10
-164.193921945
 20
77.8664404141
 30
0.0
 11
-164.193921945
 21
-77.8664404141
 31
0.0
  0
LINE
  5
F2
330
23
100
AcDbEntity
  8
0
  6
Continuous
 62
     7
370
    25
100
AcDbLine
 10
0.0025578104
 20
76.8849213538
 30
0.0
 11
0.0025578104
 21
-76.8849213511
 31
0.0
  0
LINE
  5
F3
330
23
100
AcDbEntity
  8
0
  6
Continuous
 62
     7
370
    25
100
AcDbLine
 10
-165.0025577472
 20
76.8849213538
 30
0.0
 11
-165.0025577472
 21
-76.8849213511
 31
0.0
  0
ARC
  5
F4
330
23
100
AcDbEntity
  8
0
  6
Continuous
 62
     7
370
    25
100
AcDbCircle
 10
-0.9974421264
 20
76.8849213538
 30
0.0
 40
0.9999999367986722
100
AcDbArc
 50
0.0
 51
78.9675987438
  0
ARC
  5
F5
330
23
100
AcDbEntity
  8
0
  6
Continuous
 62
     7
370
    25
100
AcDbCircle
 10
-0.9974421264
 20
-76.8849213538
 30
0.0
 40
0.9999999367986394
100
AcDbArc
 50
281.0324012562
 51
0.0
  0
ARC
  5
F6
330
23
100
AcDbEntity
  8
0
  6
Continuous
 62
     7
370
    25
100
AcDbCircle
 10
-164.0025578736
 20
76.8849213538
 30
0.0
 40
0.9999999367985901
100
AcDbArc
 50
101.0324012562
 51
180.0
  0
ARC
  5
F7
330
23
100
AcDbEntity
  8
0
  6
Continuous
 62
     7
370
    25
100
AcDbCircle
 10
-164.0025578736
 20
-76.8849213538
 30
0.0
 40
0.999999936798531
100
AcDbArc
 50
180.0
 51
258.9675987438
  0
VIEWPORT
  5
FA
330
23
100
AcDbEntity
  8
0
100
AcDbViewport
 10
0.0
 20
0.0
 30
0.0
 40
205.6
 41
156.0
 68
     1
 69
     1
 12
-82.5
 22
7.6475
 13
0.0
 23
0.0
 14
10.0
 24
10.0
 15
10.0
 25
10.0
 16
0.0
 26
0.0
 36
1.0
 17
0.0
 27
0.0
 37
0.0
 42
50.0
 43
0.0
 44
0.0
 45
191.0409
 50
0.0
 51
0.0
 72
   100
 90
   557152
  1

281
     0
 71
     1
 74
     0
110
0.0
120
0.0
130
0.0
111
1.0
121
0.0
131
0.0
112
0.0
122
1.0
132
0.0
 79
     0
146
0.0
  0
ENDBLK
  5
25
330
23
100
AcDbEntity
  8
0
100
AcDbBlockEnd
  0
ENDSEC
  0
SECTION
  2
ENTITIES
  0
SPLINE
  5
7D
330
1F
100
AcDbEntity
  8
0
  6
Continuous
 62
     7
370
    25
100
AcDbSpline
210
0.0
220
0.0
230
1.0
 70
     8
 71
     3
 72
    11
 73
     7
 74
     0
 42
0.000000001
 43
0.00000001
 40
0.0
 40
0.0
 40
0.0
 40
0.0
 40
0.2499999999987279
 40
0.4999999999980491
 40
0.7499999999983722
 40
1.0
 40
1.0
 40
1.0
 40
1.0
 10
-156.9974421895284
 20
80.79987981572394
 30
0.0
 10
-157.0072733120617
 20
80.69353575217426
 30
0.0
 10
-157.0269355571281
 20
80.48084762507459
 30
0.0
 10
-157.1817182698748
 20
80.19567886858577
 30
0.0
 10
-157.4093911064201
 20
79.96449931208815
 30
0.0
 10
-157.6071135754449
 20
79.88369913552101
 30
0.0
 10
-157.7059748099575
 20
79.84329904723732
 30
0.0
  0
SPLINE
  5
7E
330
1F
100
AcDbEntity
  8
0
  6
Continuous
 62
     7
370
    25
100
AcDbSpline
210
0.0
220
0.0
230
1.0
 70
     8
 71
     3
 72
    11
 73
     7
 74
     0
 42
0.000000001
 43
0.00000001
 40
0.0
 40
0.0
 40
0.0
 40
0.0
 40
0.2729139850467512
 40
0.6035949858032419
 40
0.9510464943512915
 40
1.0
 40
1.0
 40
1.0
 40
1.0
 10
-7.532707639563638
 20
79.95511559548548
 30
0.0
 10
-7.606829952547675
 20
80.01001161678803
 30
0.0
 10
-7.770763861781521
 20
80.13142336193212
 30
0.0
 10
-7.932028763521462
 20
80.40971144824215
 30
0.0
 10
-8.012970972530647
 20
80.65268150856421
 30
0.0
 10
-7.992465520404127
 20
80.78399773817769
 30
0.0
 10
-7.9899332270916
 20
80.80021445985861
 30
0.0
  0
SPLINE
  5
85
330
1F
100
AcDbEntity
  8
0
  6
Continuous
 62
     7
370
    25
100
AcDbSpline
210
0.0
220
0.0
230
1.0
 70
     8
 71
     3
 72
    10
 73
     6
 74
     0
 42
0.000000001
 43
0.00000001
 40
0.0
 40
0.0
 40
0.0
 40
0.0
 40
0.5
 40
0.5
 40
1.0
 40
1.0
 40
1.0
 40
1.0
 10
-137.6070983031543
 20
85.81333659698764
 30
0.0
 10
-137.5604035817778
 20
85.81144600686395
 30
0.0
 10
-137.5333759838714
 20
85.80805498760428
 30
0.0
 10
-137.5042159354475
 20
85.8010551651422
 30
0.0
 10
-137.50000275
 20
85.79735716843916
 30
0.0
 10
-137.50000275
 20
85.79360748432154
 30
0.0
  0
SPLINE
  5
86
330
1F
100
AcDbEntity
  8
0
  6
Continuous
 62
     7
370
    25
100
AcDbSpline
210
0.0
220
0.0
230
1.0
 70
     8
 71
     3
 72
    11
 73
     7
 74
     0
 42
0.000000001
 43
0.00000001
 40
0.0
 40
0.0
 40
0.0
 40
0.0
 40
0.3014642571616762
 40
0.6121577144210559
 40
0.965189230820732
 40
1.0
 40
1.0
 40
1.0
 40
1.0
 10
-135.9975612239568
 20
85.9999852224843
 30
0.0
 10
-136.0265813059399
 20
85.9963310676448
 30
0.0
 10
-136.0855099073813
 20
85.98891088756861
 30
0.0
 10
-136.5874185369858
 20
85.92744102163317
 30
0.0
 10
-137.1711927640936
 20
85.86012427287002
 30
0.0
 10
-137.5711960260185
 20
85.81719014771262
 30
0.0
 10
-137.6070983031543
 20
85.81333659698764
 30
0.0
  0
SPLINE
  5
88
330
1F
100
AcDbEntity
  8
0
  6
Continuous
 62
     7
370
    25
100
AcDbSpline
210
0.0
220
0.0
230
1.0
 70
     8
 71
     3
 72
    11
 73
     7
 74
     0
 42
0.000000001
 43
0.00000001
 40
0.0
 40
0.0
 40
0.0
 40
0.0
 40
0.0349621418421039
 40
0.3066732585677184
 40
0.5847327008690991
 40
1.0
 40
1.0
 40
1.0
 40
1.0
 10
-27.39278472511056
 20
85.81387121857244
 30
0.0
 10
-27.42873181091947
 20
85.81773152391612
 30
0.0
 10
-27.74404458525742
 20
85.85159250486417
 30
0.0
 10
-28.25301364263157
 20
85.90935339698892
 30
0.0
 10
-28.85428611561996
 20
85.9818476055376
 30
0.0
 10
-28.94379833209833
 20
85.9931979426257
 30
0.0
 10
-28.99741157698689
 20
85.99999621470309
 30
0.0
  0
SPLINE
  5
89
330
1F
100
AcDbEntity
  8
0
  6
Continuous
 62
     7
370
    25
100
AcDbSpline
210
0.0
220
0.0
230
1.0
 70
     8
 71
     3
 72
    10
 73
     6
 74
     0
 42
0.000000001
 43
0.00000001
 40
0.0
 40
0.0
 40
0.0
 40
0.0
 40
0.5
 40
0.5
 40
1.0
 40
1.0
 40
1.0
 40
1.0
 10
-27.49999725000007
 20
85.79414453982788
 30
0.0
 10
-27.49999725000007
 20
85.79789142457358
 30
0.0
 10
-27.49569250966269
 20
85.80161760142623
 30
0.0
 10
-27.46665357200853
 20
85.80857810461207
 30
0.0
 10
-27.4395097363703
 20
85.81198578062452
 30
0.0
 10
-27.39278472512165
 20
85.8138712185732
 30
0.0
  0
SPLINE
  5
8C
330
1F
100
AcDbEntity
  8
0
  6
Continuous
 62
     7
370
    25
100
AcDbSpline
210
0.0
220
0.0
230
1.0
 70
     8
 71
     3
 72
    23
 73
    19
 74
     0
 42
0.000000001
 43
0.00000001
 40
0.0
 40
0.0
 40
0.0
 40
0.0
 40
0.0347325081900224
 40
0.096697507568537
 40
0.1605046136362704
 40
0.2226753598086152
 40
0.2866549347560202
 40
0.3493267365650802
 40
0.4137495804390799
 40
0.4776643658334623
 40
0.5432849164123641
 40
0.609434832275493
 40
0.6773148025063209
 40
0.7461133738344295
 40
0.8167935884738513
 40
0.8866614788396239
 40
0.9586695554053851
 40
1.0
 40
1.0
 40
1.0
 40
1.0
 10
-7.352949566007114
 20
79.85266726945214
 30
0.0
 10
-7.33677955402734
 20
79.84990306429081
 30
0.0
 10
-7.291761214227546
 20
79.84220734165406
 30
0.0
 10
-7.617581751430929
 20
79.8978837961597
 30
0.0
 10
-8.211924146139845
 20
80.00316222083158
 30
0.0
 10
-9.110829434477456
 20
80.1710570188151
 30
0.0
 10
-10.24428373381332
 20
80.39776388555072
 30
0.0
 10
-11.60403596639464
 20
80.69157901168572
 30
0.0
 10
-13.1323690951257
 20
81.04986087883273
 30
0.0
 10
-14.80988222641362
 20
81.47693977968203
 30
0.0
 10
-16.58175940231681
 20
81.96574140590357
 30
0.0
 10
-18.42201463571595
 20
82.51379927971861
 30
0.0
 10
-20.27718767504616
 20
83.10711662264883
 30
0.0
 10
-22.11060432560313
 20
83.7329122018746
 30
0.0
 10
-23.85149948148485
 20
84.36283565207778
 30
0.0
 10
-25.4527414182366
 20
84.97213285738556
 30
0.0
 10
-26.66479663665416
 20
85.45296558191227
 30
0.0
 10
-27.27681600283273
 20
85.70297513200161
 30
0.0
 10
-27.49999725000007
 20
85.79414453982788
 30
0.0
  0
SPLINE
  5
90
330
1F
100
AcDbEntity
  8
0
  6
Continuous
 62
     7
370
    25
100
AcDbSpline
210
0.0
220
0.0
230
1.0
 70
     8
 71
     3
 72
    14
 73
    10
 74
     0
 42
0.000000001
 43
0.00000001
 40
0.0
 40
0.0
 40
0.0
 40
0.0
 40
0.25
 40
0.25
 40
0.5
 40
0.5
 40
0.75
 40
0.75
 40
1.0
 40
1.0
 40
1.0
 40
1.0
 10
-137.6070983031543
 20
85.81333659698764
 30
0.0
 10
-137.7172717278866
 20
85.81779733221752
 30
0.0
 10
-137.8263310943813
 20
85.84687432625128
 30
0.0
 10
-138.0331184613663
 20
85.9507621374433
 30
0.0
 10
-138.1290855080726
 20
86.02519753349443
 30
0.0
 10
-138.292865782103
 20
86.20779949701928
 30
0.0
 10
-138.3611878017722
 20
86.31690250162987
 30
0.0
 10
-138.4590634980768
 20
86.55133401081723
 30
0.0
 10
-138.489758467935
 20
86.68031588115583
 30
0.0
 10
-138.4988315370552
 20
86.80664677003543
 30
0.0
  0
SPLINE
  5
91
330
1F
100
AcDbEntity
  8
0
  6
Continuous
 62
     7
370
    25
100
AcDbSpline
210
0.0
220
0.0
230
1.0
 70
     8
 71
     3
 72
    14
 73
    10
 74
     0
 42
0.000000001
 43
0.00000001
 40
0.0
 40
0.0
 40
0.0
 40
0.0
 40
0.25
 40
0.25
 40
0.5
 40
0.5
 40
0.75
 40
0.75
 40
1.0
 40
1.0
 40
1.0
 40
1.0
 10
-27.39278472511056
 20
85.81387121857244
 30
0.0
 10
-27.28254594242011
 20
85.81831955103371
 30
0.0
 10
-27.1734249826245
 20
85.84738793495514
 30
0.0
 10
-26.96653031763957
 20
85.95126557674969
 30
0.0
 10
-26.8705173446876
 20
86.02570029809549
 30
0.0
 10
-26.7066712062001
 20
86.20830673571562
 30
0.0
 10
-26.63832800373865
 20
86.31741615133562
 30
0.0
 10
-26.54044004639488
 20
86.55186364457039
 30
0.0
 10
-26.50975356157712
 20
86.68085658439804
 30
0.0
 10
-26.50070341329552
 20
86.80719782909983
 30
0.0
  0
SPLINE
  5
94
330
1F
100
AcDbEntity
  8
0
  6
Continuous
 62
     8
370
    25
100
AcDbSpline
210
0.0
220
0.0
230
1.0
 70
     8
 71
     3
 72
    23
 73
    19
 74
     0
 42
0.000000001
 43
0.00000001
 40
0.0
 40
0.0
 40
0.0
 40
0.0
 40
0.0166802721712004
 40
0.0784994295341468
 40
0.1418797253575533
 40
0.2084982629029064
 40
0.2768552882735275
 40
0.3467681862999121
 40
0.4186730698253492
 40
0.4882881098109264
 40
0.5600346645561055
 40
0.626730781763189
 40
0.6954913937169451
 40
0.7593409287357086
 40
0.8251262586395056
 40
0.8874700516652729
 40
0.9516791748091952
 40
0.9999999999999999
 40
0.9999999999999999
 40
0.9999999999999999
 40
0.9999999999999999
 10
-137.50000275
 20
85.79360748432154
 30
0.0
 10
-137.5877987878658
 20
85.75765204226184
 30
0.0
 10
-138.0009778305748
 20
85.58844127271524
 30
0.0
 10
-138.8651006039397
 20
85.24061666698405
 30
0.0
 10
-140.2132729455142
 20
84.71558416708183
 30
0.0
 10
-141.7734890782959
 20
84.1328873105458
 30
0.0
 10
-143.5182486581121
 20
83.51375413606277
 30
0.0
 10
-145.4036976183249
 20
82.8839539346838
 30
0.0
 10
-147.3496491025442
 20
82.2781794512429
 30
0.0
 10
-149.3060146748985
 20
81.71506895819208
 30
0.0
 10
-151.1524307307262
 20
81.22705828047995
 30
0.0
 10
-152.8684112684118
 20
80.81165016220282
 30
0.0
 10
-154.3507311811754
 20
80.48297143178615
 30
0.0
 10
-155.6075034450114
 20
80.22623629121203
 30
0.0
 10
-156.5822855314684
 20
80.04128403109766
 30
0.0
 10
-157.2643516018902
 20
79.91905218068611
 30
0.0
 10
-157.6700193422559
 20
79.84937925410996
 30
0.0
 10
-157.6506163701066
 20
79.85272861711344
 30
0.0
 10
-157.6422846536233
 20
79.85416684743868
 30
0.0
  0
SPLINE
  5
95
330
1F
100
AcDbEntity
  8
0
  6
Continuous
 62
     8
370
    25
100
AcDbSpline
210
0.0
220
0.0
230
1.0
 70
     8
 71
     3
 72
    23
 73
    19
 74
     0
 42
0.000000001
 43
0.00000001
 40
0.0
 40
0.0
 40
0.0
 40
0.0
 40
0.0480124306866968
 40
0.1098449987514658
 40
0.1735064838599451
 40
0.2366728970963969
 40
0.3017671069216415
 40
0.3676139162977859
 40
0.4355538442763003
 40
0.5043100936793417
 40
0.5752412262387389
 40
0.6444811062402679
 40
0.7157214051324408
 40
0.781879260126053
 40
0.8497354903048583
 40
0.9111837126903644
 40
0.9741329130808863
 40
1.0
 40
1.0
 40
1.0
 40
1.0
 10
-156.9395686599371
 20
80.81064038713886
 30
0.0
 10
-156.9472523155959
 20
80.80919462087313
 30
0.0
 10
-156.9648313286592
 20
80.805886931773
 30
0.0
 10
-156.6009971403139
 20
80.87399115559643
 30
0.0
 10
-155.9913715598469
 20
80.99301850989502
 30
0.0
 10
-155.1009292796193
 20
81.17740157671903
 30
0.0
 10
-153.9732289304155
 20
81.42895434020818
 30
0.0
 10
-152.6154919462108
 20
81.75829668505625
 30
0.0
 10
-151.0724072069562
 20
82.16736861207038
 30
0.0
 10
-149.3783886489456
 20
82.65844026841953
 30
0.0
 10
-147.6154855420919
 20
83.21560222586784
 30
0.0
 10
-145.8289028482133
 20
83.82697098588028
 30
0.0
 10
-144.1273754904833
 20
84.45233772717859
 30
0.0
 10
-142.5257291221759
 20
85.07810218689939
 30
0.0
 10
-141.1164300265393
 20
85.65801249239537
 30
0.0
 10
-139.8792227525545
 20
86.18903989092826
 30
0.0
 10
-139.0381157833699
 20
86.56233615826055
 30
0.0
 10
-138.6204682831603
 20
86.75154197500783
 30
0.0
 10
-138.4988315370553
 20
86.80664677003647
 30
0.0
  0
SPLINE
  5
96
330
1F
100
AcDbEntity
  8
0
  6
Continuous
 62
     8
370
    25
100
AcDbSpline
210
0.0
220
0.0
230
1.0
 70
     8
 71
     3
 72
    23
 73
    19
 74
     0
 42
0.000000001
 43
0.00000001
 40
0.0
 40
0.0
 40
0.0
 40
0.0
 40
0.0503581401366538
 40
0.1197669101049007
 40
0.1913419888979181
 40
0.2596199692891208
 40
0.3297630971506975
 40
0.3952503747555064
 40
0.462439738361452
 40
0.5255857140284238
 40
0.5904144709010282
 40
0.6523319180849274
 40
0.7159791098316891
 40
0.777524450684217
 40
0.8408471029448894
 40
0.9023290102023964
 40
0.9656083282942084
 40
1.0
 40
1.0
 40
1.0
 40
1.0
 10
-26.50070341329552
 20
86.80719782909988
 30
0.0
 10
-26.25763237374742
 20
86.69733477028905
 30
0.0
 10
-25.67953581848026
 20
86.43604714027052
 30
0.0
 10
-24.5240096562589
 20
85.93022949648007
 30
0.0
 10
-23.08433437222647
 20
85.32574685128067
 30
0.0
 10
-21.48794495144743
 20
84.68872950625871
 30
0.0
 10
-19.83617213769766
 20
84.06714224694284
 30
0.0
 10
-18.13469394355783
 20
83.46763357984179
 30
0.0
 10
-16.47526214310301
 20
82.92352571412462
 30
0.0
 10
-14.84938244763542
 20
82.4301382378581
 30
0.0
 10
-13.33575839826617
 20
82.00673933581787
 30
0.0
 10
-11.93215420987846
 20
81.64557408719394
 30
0.0
 10
-10.70439113055878
 20
81.35488645335218
 30
0.0
 10
-9.662009891470937
 20
81.12666451447922
 30
0.0
 10
-8.849020296822788
 20
80.96080132094522
 30
0.0
 10
-8.299988337444427
 20
80.85462950557589
 30
0.0
 10
-7.999625189943307
 20
80.79870785380979
 30
0.0
 10
-8.041038453923191
 20
80.80642165563417
 30
0.0
 10
-8.055620791851902
 20
80.80913782079737
 30
0.0
  0
SPLINE
  5
97
330
1F
100
AcDbEntity
  8
0
  6
Continuous
 62
     8
370
    25
100
AcDbSpline
210
0.0
220
0.0
230
1.0
 70
     8
 71
     3
 72
    10
 73
     6
 74
     0
 42
0.000000001
 43
0.00000001
 40
0.0
 40
0.0
 40
0.0
 40
0.0
 40
0.3953611465489411
 40
0.6934503709934497
 40
1.0
 40
1.0
 40
1.0
 40
1.0
 10
-138.4988315370553
 20
86.80664677003645
 30
0.0
 10
-138.1537318306011
 20
86.84918911565643
 30
0.0
 10
-137.5484383626941
 20
86.92380698241094
 30
0.0
 10
-137.0836133617058
 20
86.98812446776526
 30
0.0
 10
-137.0265060088152
 20
86.99599459916465
 30
0.0
 10
-136.9975527952693
 20
86.99998472624125
 30
0.0
  0
SPLINE
  5
98
330
1F
100
AcDbEntity
  8
0
  6
Continuous
 62
     8
370
    25
100
AcDbSpline
210
0.0
220
0.0
230
1.0
 70
     8
 71
     3
 72
    10
 73
     6
 74
     0
 42
0.000000001
 43
0.00000001
 40
0.0
 40
0.0
 40
0.0
 40
0.0
 40
0.4102082834639616
 40
0.7011209380947033
 40
1.0
 40
1.0
 40
1.0
 40
1.0
 10
-27.99741471966634
 20
86.99999621929352
 30
0.0
 10
-27.94703742791772
 20
86.99298327490092
 30
0.0
 10
-27.86093342789317
 20
86.9809968710433
 30
0.0
 10
-27.29323391921114
 20
86.90400329076458
 30
0.0
 10
-26.76724843748868
 20
86.8397555842006
 30
0.0
 10
-26.50070341329552
 20
86.80719782909988
 30
0.0
  0
LINE
  5
99
330
1F
100
AcDbEntity
  8
0
  6
Continuous
 62
     7
370
    25
100
AcDbLine
 10
-28.997411577
 20
86.0
 30
0.0
 11
-135.997561224
 21
86.0
 31
0.0
  0
LINE
  5
9A
330
1F
100
AcDbEntity
  8
0
  6
Continuous
 62
     7
370
    25
100
AcDbLine
 10
-137.50000275
 20
-86.0
 30
0.0
 11
-27.49999725
 21
-86.0
 31
0.0
  0
LINE
  5
9B
330
1F
100
AcDbEntity
  8
0
  6
Continuous
 62
     7
370
    25
100
AcDbLine
 10
-157.6446652643
 20
79.8619798876
 30
0.0
 11
-164.193921945
 21
77.8664404141
 31
0.0
  0
LINE
  5
9C
330
1F
100
AcDbEntity
  8
0
  6
Continuous
 62
     7
370
    25
100
AcDbLine
 10
-164.193921945
 20
-77.8664404141
 30
0.0
 11
-137.50000275
 21
-86.0
 31
0.0
  0
LINE
  5
9D
330
1F
100
AcDbEntity
  8
0
  6
Continuous
 62
     7
370
    25
100
AcDbLine
 10
-27.49999725
 20
-86.0
 30
0.0
 11
-0.8060780429
 21
-77.8664404761
 31
0.0
  0
LINE
  5
9E
330
1F
100
AcDbEntity
  8
0
  6
Continuous
 62
     7
370
    25
100
AcDbLine
 10
-0.8060780429
 20
77.8664404761
 30
0.0
 11
-7.3505557095
 21
79.8605237818
 31
0.0
  0
LINE
  5
9F
330
1F
100
AcDbEntity
  8
0
  6
Continuous
 62
     7
370
    25
100
AcDbLine
 10
-136.9974421896
 20
86.9999847262
 30
0.0
 11
-136.9974421896
 21
101.295
 31
0.0
  0
LINE
  5
A0
330
1F
100
AcDbEntity
  8
0
  6
Continuous
 62
     7
370
    25
100
AcDbLine
 10
-156.9974421896
 20
101.295
 30
0.0
 11
-156.9974421896
 21
80.8106415293
 31
0.0
  0
LINE
  5
A1
330
1F
100
AcDbEntity
  8
0
  6
Continuous
 62
     7
370
    25
100
AcDbLine
 10
-7.9974422528
 20
80.8091420579
 30
0.0
 11
-7.9974422528
 21
101.295
 31
0.0
  0
LINE
  5
A2
330
1F
100
AcDbEntity
  8
0
  6
Continuous
 62
     7
370
    25
100
AcDbLine
 10
-27.9974422528
 20
101.295
 30
0.0
 11
-27.9974422528
 21
86.9999962193
 31
0.0
  0
LINE
  5
A3
330
1F
100
AcDbEntity
  8
0
  6
Continuous
 62
     7
370
    25
100
AcDbLine
 10
-137.50000275
 20
85.7936074843
 30
0.0
 11
-137.50000275
 21
-86.0
 31
0.0
  0
LINE
  5
A4
330
1F
100
AcDbEntity
  8
0
  6
Continuous
 62
     7
370
    25
100
AcDbLine
 10
-27.49999725
 20
85.7941445398
 30
0.0
 11
-27.49999725
 21
-86.0
 31
0.0
  0
LINE
  5
A5
330
1F
100
AcDbEntity
  8
0
  6
Continuous
 62
     7
370
    25
100
AcDbLine
 10
-164.193921945
 20
77.8664404141
 30
0.0
 11
-164.193921945
 21
-77.8664404141
 31
0.0
  0
LINE
  5
A6
330
1F
100
AcDbEntity
  8
0
  6
Continuous
 62
     7
370
    25
100
AcDbLine
 10
-0.8060780429
 20
77.8664404761
 30
0.0
 11
-0.8060780429
 21
-77.8664404761
 31
0.0
  0
LINE
  5
A7
330
1F
100
AcDbEntity
  8
0
  6
Continuous
 62
     7
370
    25
100
AcDbLine
 10
0.0025578104
 20
76.8849213538
 30
0.0
 11
0.0025578104
 21
-76.8849213538
 31
0.0
  0
LINE
  5
A8
330
1F
100
AcDbEntity
  8
0
  6
Continuous
 62
     7
370
    25
100
AcDbLine
 10
-165.0025577472
 20
76.8849213538
 30
0.0
 11
-165.0025577472
 21
-76.8849213538
 31
0.0
  0
LINE
  5
A9
330
1F
100
AcDbEntity
  8
0
  6
Continuous
 62
     7
370
    25
100
AcDbLine
 10
-156.9974421896
 20
101.295
 30
0.0
 11
-136.9974421896
 21
101.295
 31
0.0
  0
LINE
  5
AA
330
1F
100
AcDbEntity
  8
0
  6
Continuous
 62
     7
370
    25
100
AcDbLine
 10
-7.9974422528
 20
101.295
 30
0.0
 11
-27.9974422528
 21
101.295
 31
0.0
  0
ARC
  5
AB
330
1F
100
AcDbEntity
  8
0
  6
Continuous
 62
     7
370
    25
100
AcDbCircle
 10
-0.9974421264
 20
76.8849213538
 30
0.0
 40
0.9999999367986722
100
AcDbArc
 50
0.0
 51
78.9675987438
  0
ARC
  5
AC
330
1F
100
AcDbEntity
  8
0
  6
Continuous
 62
     7
370
    25
100
AcDbCircle
 10
-0.9974421264
 20
-76.8849213538
 30
0.0
 40
0.9999999367986394
100
AcDbArc
 50
281.0324012562
 51
0.0
  0
ARC
  5
AD
330
1F
100
AcDbEntity
  8
0
  6
Continuous
 62
     7
370
    25
100
AcDbCircle
 10
-164.0025578736
 20
76.8849213538
 30
0.0
 40
0.9999999367985901
100
AcDbArc
 50
101.0324012562
 51
180.0
  0
ARC
  5
AE
330
1F
100
AcDbEntity
  8
0
  6
Continuous
 62
     7
370
    25
100
AcDbCircle
 10
-164.0025578736
 20
-76.8849213538
 30
0.0
 40
0.999999936798531
100
AcDbArc
 50
180.0
 51
258.9675987438
  0
ARC
  5
AF
330
1F
100
AcDbEntity
  8
0
  6
Continuous
 62
     7
370
    25
100
AcDbCircle
 10
-135.9974421896
 20
87.0
 30
0.0
 40
0.9999999999985637
100
AcDbArc
 50
180.0108022975
 51
270.0044162035
  0
ARC
  5
B0
330
1F
100
AcDbEntity
  8
0
  6
Continuous
 62
     7
370
    25
100
AcDbCircle
 10
-28.9974422528
 20
87.0
 30
0.0
 40
0.9999999999999647
100
AcDbArc
 50
269.9747556009
 51
359.9610519823
  0
CIRCLE
  5
B3
330
1B
100
AcDbEntity
 67
     1
  8
0
  6
Continuous
 62
     7
370
    25
100
AcDbCircle
 10
0.0
 20
0.0
 30
0.0
 40
71.73144047613161
  0
CIRCLE
  5
B4
330
1B
100
AcDbEntity
 67
     1
  8
0
  6
Continuous
 62
     7
370
    25
100
AcDbCircle
 10
0.0
 20
0.0
 30
0.0
 40
76.8849213537689
  0
CIRCLE
  5
B5
330
1B
100
AcDbEntity
 67
     1
  8
0
  6
Continuous
 62
     7
370
    25
100
AcDbCircle
 10
0.0
 20
0.0
 30
0.0
 40
77.86644041409849
  0
CIRCLE
  5
B6
330
1B
100
AcDbEntity
 67
     1
  8
0
  6
Continuous
 62
     7
370
    25
100
AcDbCircle
 10
0.0
 20
0.0
 30
0.0
 40
70.5064404761314
  0
CIRCLE
  5
B7
330
1B
100
AcDbEntity
 67
     1
  8
0
  6
Continuous
 62
     7
370
    25
100
AcDbCircle
 10
0.0
 20
0.0
 30
0.0
 40
70.00000000000006
  0
SPLINE
  5
BA
330
1B
100
AcDbEntity
 67
     1
  8
0
  6
Continuous
 62
     8
370
    25
100
AcDbSpline
210
0.0
220
0.0
230
1.0
 70
     8
 71
     3
 72
    31
 73
    27
 74
     0
 42
0.000000001
 43
0.00000001
 40
0.0
 40
0.0
 40
0.0
 40
0.0
 40
0.0268134509964832
 40
0.0725420171432583
 40
0.1195734993931889
 40
0.1651072428176063
 40
0.2120351655197946
 40
0.2556597025299205
 40
0.3006345824273813
 40
0.3423972294920828
 40
0.3854260395531091
 40
0.4262038122345355
 40
0.4682016583802521
 40
0.5220915941714707
 40
0.5626378351259284
 40
0.6043894628753066
 40
0.6450699287834899
 40
0.6869341365094569
 40
0.7279412699996756
 40
0.7700944220052578
 40
0.8119117215197209
 40
0.8548452912210368
 40
0.8981218559496534
 40
0.9425302155612715
 40
0.9875412406123525
 40
1.0
 40
1.0
 40
1.0
 40
1.0
 10
10.00000000000012
 20
83.88867933509493
 30
0.0
 10
10.14636652404881
 20
83.765543518445
 30
0.0
 10
10.54235146825206
 20
83.4324077156891
 30
0.0
 10
10.84772482297479
 20
82.88373676046922
 30
0.0
 10
10.91566760828809
 20
82.2782363920713
 30
0.0
 10
10.62487739491282
 20
81.71505267226961
 30
0.0
 10
10.00740430833193
 20
81.22706495205965
 30
0.0
 10
9.072693905463112
 20
80.81163941287257
 30
0.0
 10
7.892272624412869
 20
80.48300811024258
 30
0.0
 10
6.474375409254346
 20
80.22610957902278
 30
0.0
 10
4.90840439843718
 20
80.04176301156907
 30
0.0
 10
3.193609485268284
 20
79.91734860419164
 30
0.0
 10
1.227248202078576
 20
79.84317648975096
 30
0.0
 10
-0.7922594072574781
 20
79.8366693380577
 30
0.0
 10
-2.767525480084279
 20
79.89621210933308
 30
0.0
 10
-4.472394140578601
 20
80.00385838029382
 30
0.0
 10
-6.064086361044732
 20
80.1703126432048
 30
0.0
 10
-7.472910850765194
 20
80.39654469627558
 30
0.0
 10
-8.683869882458534
 20
80.68958115964074
 30
0.0
 10
-9.650442294332064
 20
81.04714420883245
 30
0.0
 10
-10.36118717971546
 20
81.47351828497743
 30
0.0
 10
-10.78908981892816
 20
81.96159945809866
 30
0.0
 10
-10.92928163900457
 20
82.50927777894654
 30
0.0
 10
-10.73952601339767
 20
83.101393843732
 30
0.0
 10
-10.42427271065493
 20
83.57339276196419
 30
0.0
 10
-10.07559018574626
 20
83.83546080131187
 30
0.0
 10
-10.00000000000012
 20
83.8922740063258
 30
0.0
  0
SPLINE
  5
BB
330
1B
100
AcDbEntity
 67
     1
  8
0
  6
Continuous
 62
     8
370
    25
100
AcDbSpline
210
0.0
220
0.0
230
1.0
 70
     8
 71
     3
 72
    26
 73
    22
 74
     0
 42
0.000000001
 43
0.00000001
 40
0.0
 40
0.0
 40
0.0
 40
0.0
 40
0.0529862801904614
 40
0.1056759326992755
 40
0.1597700608056964
 40
0.2114391529153294
 40
0.264552020590475
 40
0.3159124567015845
 40
0.3687562057008029
 40
0.4200639771621203
 40
0.4728716946775373
 40
0.541096420821057
 40
0.5926831463027281
 40
0.6457957317707383
 40
0.6984952802655919
 40
0.7528031836537178
 40
0.8077389785825803
 40
0.8644210560631868
 40
0.9217841880519577
 40
0.9809618185138329
 40
1.0
 40
1.0
 40
1.0
 40
1.0
 10
-9.992403953623304
 20
83.44321055059986
 30
0.0
 10
-9.972705999654401
 20
83.26459236043715
 30
0.0
 10
-9.933420364760828
 20
82.908355920086
 30
0.0
 10
-9.529911582137098
 20
82.42719324790126
 30
0.0
 10
-8.890769252647116
 20
82.00389943837098
 30
0.0
 10
-7.996242418420842
 20
81.64361755723692
 30
0.0
 10
-6.895600621416947
 20
81.35366198213725
 30
0.0
 10
-5.590753655475568
 20
81.1259373007791
 30
0.0
 10
-4.141994886289632
 20
80.96150240797003
 30
0.0
 10
-2.561184665033943
 20
80.85303483604514
 30
0.0
 10
-0.7445515023832147
 20
80.79325317394579
 30
0.0
 10
1.11190153620817
 20
80.79969696128383
 30
0.0
 10
2.920948327056405
 20
80.87227044568012
 30
0.0
 10
4.484230167966837
 20
80.99347884431694
 30
0.0
 10
5.94051489654609
 20
81.17728151312255
 30
0.0
 10
7.234773021903809
 20
81.42896005275256
 30
0.0
 10
8.333506817911054
 20
81.75839915534466
 30
0.0
 10
9.19287110694377
 20
82.16693557500926
 30
0.0
 10
9.754179460982078
 20
82.66010767079324
 30
0.0
 10
10.01142371166207
 20
83.08721983418552
 30
0.0
 10
9.975005474944224
 20
83.35898801500441
 30
0.0
 10
9.966141065270882
 20
83.42513796371342
 30
0.0
  0
LINE
  5
BC
330
1B
100
AcDbEntity
 67
     1
  8
0
  6
Continuous
 62
     7
370
    25
100
AcDbLine
 10
10.0
 20
83.4341749633
 30
0.0
 11
10.0
 21
101.295
 31
0.0
  0
LINE
  5
BD
330
1B
100
AcDbEntity
 67
     1
  8
0
  6
Continuous
 62
     7
370
    25
100
AcDbLine
 10
-10.0
 20
101.295
 30
0.0
 11
-10.0
 21
83.4312427309
 31
0.0
  0
LINE
  5
BE
330
1B
100
AcDbEntity
 67
     1
  8
0
  6
Continuous
 62
     7
370
    25
100
AcDbLine
 10
-10.0
 20
101.295
 30
0.0
 11
10.0
 21
101.295
 31
0.0
  0
ARC
  5
BF
330
1B
100
AcDbEntity
 67
     1
  8
0
  6
Continuous
 62
     7
370
    25
100
AcDbCircle
 10
0.0
 20
0.0
 30
0.0
 40
85.9999999999999
100
AcDbArc
 50
96.6774053272
 51
83.3225946728
  0
VIEWPORT
  5
F8
330
1B
100
AcDbEntity
 67
     1
  8
0
100
AcDbViewport
 10
0.0
 20
0.0
 30
0.0
 40
205.6
 41
156.0
 68
     1
 69
     1
 12
-82.5
 22
7.6475
 13
0.0
 23
0.0
 14
10.0
 24
10.0
 15
10.0
 25
10.0
 16
0.0
 26
0.0
 36
1.0
 17
0.0
 27
0.0
 37
0.0
 42
50.0
 43
0.0
 44
0.0
 45
191.0409
 50
0.0
 51
0.0
 72
   100
 90
   557152
  1

281
     0
 71
     1
 74
     0
110
0.0
120
0.0
130
0.0
111
1.0
121
0.0
131
0.0
112
0.0
122
1.0
132
0.0
 79
     0
146
0.0
  0
ENDSEC
  0
SECTION
  2
OBJECTS
  0
DICTIONARY
  5
C
330
0
100
AcDbDictionary
281
     1
  3
ACAD_GROUP
350
D
  3
ACAD_LAYOUT
350
1A
  3
ACAD_MLINESTYLE
350
17
  3
ACAD_PLOTSETTINGS
350
19
  3
ACAD_PLOTSTYLENAME
350
E
  3
ACAD_SCALELIST
350
47
  0
DICTIONARY
  5
D
102
{ACAD_REACTORS
330
C
102
}
330
C
100
AcDbDictionary
281
     1
  0
DICTIONARY
  5
1A
102
{ACAD_REACTORS
330
C
102
}
330
C
100
AcDbDictionary
281
     1
  3
_Left
350
1E
  3
_Top
350
26
  3
Model
350
22
  0
DICTIONARY
  5
17
102
{ACAD_REACTORS
330
C
102
}
330
C
100
AcDbDictionary
281
     1
  3
Standard
350
18
  0
DICTIONARY
  5
19
102
{ACAD_REACTORS
330
C
102
}
330
C
100
AcDbDictionary
281
     1
  0
ACDBDICTIONARYWDFLT
  5
E
102
{ACAD_REACTORS
330
C
102
}
330
C
100
AcDbDictionary
281
     1
  3
Normal
350
F
100
AcDbDictionaryWithDefault
340
F
  0
DICTIONARY
  5
47
102
{ACAD_REACTORS
330
C
102
}
330
C
100
AcDbDictionary
281
     1
  3
A0
350
48
  3
A1
350
49
  3
A2
350
4A
  3
A3
350
4B
  3
A4
350
4C
  3
A5
350
4D
  3
A6
350
4E
  3
A7
350
4F
  3
A8
350
50
  3
A9
350
51
  3
B0
350
52
  3
B1
350
53
  3
B2
350
54
  3
B3
350
55
  3
B4
350
56
  3
B5
350
57
  3
B6
350
58
  3
B7
350
59
  3
B8
350
5A
  3
B9
350
5B
  3
C0
350
5C
  3
C1
350
5D
  3
C2
350
5E
  3
C3
350
5F
  3
C4
350
60
  3
C5
350
61
  3
C6
350
62
  3
C7
350
63
  3
C8
350
64
  3
C9
350
65
  3
D0
350
66
  3
D1
350
67
  3
D2
350
68
  0
LAYOUT
  5
1E
102
{ACAD_REACTORS
330
1A
102
}
330
1A
100
AcDbPlotSettings
  1

  2
none_device
  4
ISO_A4_(210.00_x_297.00_MM)
  6

 40
7.5
 41
20.0
 42
7.5
 43
20.0
 44
210.0
 45
297.0
 46
0.0
 47
0.0
 48
0.0
 49
0.0
140
0.0
141
0.0
142
1.0
143
0.9604871795
 70
   688
 72
     1
 73
     1
 74
     1
  7

 75
     0
147
1.0411383112
148
86.0
149
86.0
100
AcDbLayout
  1
_Left
 70
     1
 71
     1
 10
-105.2097435897
 20
-93.2036538462
 11
180.0549487179
 21
108.4986538462
 12
0.0
 22
0.0
 32
0.0
 14
-86.0
 24
-86.0
 34
0.0
 15
86.0
 25
101.295
 35
0.0
146
0.0
 13
0.0
 23
0.0
 33
0.0
 16
1.0
 26
0.0
 36
0.0
 17
0.0
 27
1.0
 37
0.0
 76
     0
330
1B
331
F8
  0
LAYOUT
  5
26
102
{ACAD_REACTORS
330
1A
102
}
330
1A
100
AcDbPlotSettings
  1

  2
none_device
  4
ISO_A4_(210.00_x_297.00_MM)
  6

 40
7.5
 41
20.0
 42
7.5
 43
20.0
 44
210.0
 45
297.0
 46
0.0
 47
0.0
 48
0.0
 49
0.0
140
0.0
141
0.0
142
1.0
143
0.9604871795
 70
   688
 72
     1
 73
     1
 74
     1
  7

 75
     0
147
1.0411383112
148
86.0
149
86.0
100
AcDbLayout
  1
_Top
 70
     1
 71
     2
 10
0.0
 20
0.0
 11
0.0
 21
0.0
 12
0.0
 22
0.0
 32
0.0
 14
0.0
 24
0.0
 34
0.0
 15
0.0
 25
0.0
 35
0.0
146
0.0
 13
0.0
 23
0.0
 33
0.0
 16
1.0
 26
0.0
 36
0.0
 17
0.0
 27
1.0
 37
0.0
 76
     0
330
23
331
FA
  0
LAYOUT
  5
22
102
{ACAD_REACTORS
330
1A
102
}
330
1A
100
AcDbPlotSettings
  1

  2
none_device
  4
ANSI_A_(11.00_x_8.50_Inches)
  6

 40
6.35
 41
19.05
 42
6.35000508
 43
19.05000254
 44
279.4
 45
215.9
 46
227.498973674
 47
80.1726739349
 48
0.0
 49
0.0
140
0.0
141
0.0
142
0.0449291225
143
1.0
 70
  1696
 72
     0
 73
     0
 74
     0
  7

 75
     0
147
0.0179189148
148
-1300.4909072572
149
0.0
100
AcDbLayout
  1
Model
 70
     1
 71
     0
 10
0.0
 20
0.0
 11
420.0
 21
297.0
 12
0.0
 22
0.0
 32
0.0
 14
-165.0025578104
 24
-86.0
 34
0.0
 15
0.0025578104
 25
101.295
 35
0.0
146
0.0
 13
0.0
 23
0.0
 33
0.0
 16
1.0
 26
0.0
 36
0.0
 17
0.0
 27
1.0
 37
0.0
 76
     0
330
1F
331
29
  0
MLINESTYLE
  5
18
102
{ACAD_REACTORS
330
17
102
}
330
17
100
AcDbMlineStyle
  2
Standard
 70
     0
  3

 62
   256
 51
90.0
 52
90.0
 71
     2
 49
0.5
 62
   256
  6
BYLAYER
 49
-0.5
 62
   256
  6
BYLAYER
  0
ACDBPLACEHOLDER
  5
F
102
{ACAD_REACTORS
330
E
102
}
330
E
  0
SCALE
  5
48
102
{ACAD_REACTORS
330
47
102
}
330
47
100
AcDbScale
 70
     0
300
1:1
140
1.0
141
1.0
290
     1
  0
SCALE
  5
49
102
{ACAD_REACTORS
330
47
102
}
330
47
100
AcDbScale
 70
     0
300
1:2
140
1.0
141
2.0
290
     0
  0
SCALE
  5
4A
102
{ACAD_REACTORS
330
47
102
}
330
47
100
AcDbScale
 70
     0
300
1:4
140
1.0
141
4.0
290
     0
  0
SCALE
  5
4B
102
{ACAD_REACTORS
330
47
102
}
330
47
100
AcDbScale
 70
     0
300
1:5
140
1.0
141
5.0
290
     0
  0
SCALE
  5
4C
102
{ACAD_REACTORS
330
47
102
}
330
47
100
AcDbScale
 70
     0
300
1:8
140
1.0
141
8.0
290
     0
  0
SCALE
  5
4D
102
{ACAD_REACTORS
330
47
102
}
330
47
100
AcDbScale
 70
     0
300
1:10
140
1.0
141
10.0
290
     0
  0
SCALE
  5
4E
102
{ACAD_REACTORS
330
47
102
}
330
47
100
AcDbScale
 70
     0
300
1:16
140
1.0
141
16.0
290
     0
  0
SCALE
  5
4F
102
{ACAD_REACTORS
330
47
102
}
330
47
100
AcDbScale
 70
     0
300
1:20
140
1.0
141
20.0
290
     0
  0
SCALE
  5
50
102
{ACAD_REACTORS
330
47
102
}
330
47
100
AcDbScale
 70
     0
300
1:30
140
1.0
141
30.0
290
     0
  0
SCALE
  5
51
102
{ACAD_REACTORS
330
47
102
}
330
47
100
AcDbScale
 70
     0
300
1:40
140
1.0
141
40.0
290
     0
  0
SCALE
  5
52
102
{ACAD_REACTORS
330
47
102
}
330
47
100
AcDbScale
 70
     0
300
1:50
140
1.0
141
50.0
290
     0
  0
SCALE
  5
53
102
{ACAD_REACTORS
330
47
102
}
330
47
100
AcDbScale
 70
     0
300
1:100
140
1.0
141
100.0
290
     0
  0
SCALE
  5
54
102
{ACAD_REACTORS
330
47
102
}
330
47
100
AcDbScale
 70
     0
300
2:1
140
2.0
141
1.0
290
     0
  0
SCALE
  5
55
102
{ACAD_REACTORS
330
47
102
}
330
47
100
AcDbScale
 70
     0
300
4:1
140
4.0
141
1.0
290
     0
  0
SCALE
  5
56
102
{ACAD_REACTORS
330
47
102
}
330
47
100
AcDbScale
 70
     0
300
8:1
140
8.0
141
1.0
290
     0
  0
SCALE
  5
57
102
{ACAD_REACTORS
330
47
102
}
330
47
100
AcDbScale
 70
     0
300
10:1
140
10.0
141
1.0
290
     0
  0
SCALE
  5
58
102
{ACAD_REACTORS
330
47
102
}
330
47
100
AcDbScale
 70
     0
300
100:1
140
100.0
141
1.0
290
     0
  0
SCALE
  5
59
102
{ACAD_REACTORS
330
47
102
}
330
47
100
AcDbScale
 70
     0
300
1/128" = 1'-0"
140
0.0078125
141
12.0
290
     0
  0
SCALE
  5
5A
102
{ACAD_REACTORS
330
47
102
}
330
47
100
AcDbScale
 70
     0
300
1/64" = 1'-0"
140
0.015625
141
12.0
290
     0
  0
SCALE
  5
5B
102
{ACAD_REACTORS
330
47
102
}
330
47
100
AcDbScale
 70
     0
300
1/32" = 1'-0"
140
0.03125
141
12.0
290
     0
  0
SCALE
  5
5C
102
{ACAD_REACTORS
330
47
102
}
330
47
100
AcDbScale
 70
     0
300
1/16" = 1'-0"
140
0.0625
141
12.0
290
     0
  0
SCALE
  5
5D
102
{ACAD_REACTORS
330
47
102
}
330
47
100
AcDbScale
 70
     0
300
3/32" = 1'-0"
140
0.09375
141
12.0
290
     0
  0
SCALE
  5
5E
102
{ACAD_REACTORS
330
47
102
}
330
47
100
AcDbScale
 70
     0
300
1/8" = 1'-0"
140
0.125
141
12.0
290
     0
  0
SCALE
  5
5F
102
{ACAD_REACTORS
330
47
102
}
330
47
100
AcDbScale
 70
     0
300
3/16" = 1'-0"
140
0.1875
141
12.0
290
     0
  0
SCALE
  5
60
102
{ACAD_REACTORS
330
47
102
}
330
47
100
AcDbScale
 70
     0
300
1/4" = 1'-0"
140
0.25
141
12.0
290
     0
  0
SCALE
  5
61
102
{ACAD_REACTORS
330
47
102
}
330
47
100
AcDbScale
 70
     0
300
3/8" = 1'-0"
140
0.375
141
12.0
290
     0
  0
SCALE
  5
62
102
{ACAD_REACTORS
330
47
102
}
330
47
100
AcDbScale
 70
     0
300
1/2" = 1'-0"
140
0.5
141
12.0
290
     0
  0
SCALE
  5
63
102
{ACAD_REACTORS
330
47
102
}
330
47
100
AcDbScale
 70
     0
300
3/4" = 1'-0"
140
0.75
141
12.0
290
     0
  0
SCALE
  5
64
102
{ACAD_REACTORS
330
47
102
}
330
47
100
AcDbScale
 70
     0
300
1" = 1'-0"
140
1.0
141
12.0
290
     0
  0
SCALE
  5
65
102
{ACAD_REACTORS
330
47
102
}
330
47
100
AcDbScale
 70
     0
300
1-1/2" = 1'-0"
140
1.5
141
12.0
290
     0
  0
SCALE
  5
66
102
{ACAD_REACTORS
330
47
102
}
330
47
100
AcDbScale
 70
     0
300
3" = 1'-0"
140
3.0
141
12.0
290
     0
  0
SCALE
  5
67
102
{ACAD_REACTORS
330
47
102
}
330
47
100
AcDbScale
 70
     0
300
6" = 1'-0"
140
6.0
141
12.0
290
     0
  0
SCALE
  5
68
102
{ACAD_REACTORS
330
47
102
}
330
47
100
AcDbScale
 70
     0
300
1'-0" = 1'-0"
140
12.0
141
12.0
290
     0
  0
ENDSEC
  0
EOF
