  0
SECTION
  2
HEADER
  9
$ACADVER
  1
AC1015
  9
$ACADMAINTVER
 70
     6
  9
$DWGCODEPAGE
  3
ANSI_1252
  9
$INSBASE
 10
0.0
 20
0.0
 30
0.0
  9
$EXTMIN
 10
-39.25
 20
-39.25
 30
0.0
  9
$EXTMAX
 10
71.3287921532
 20
56.4
 30
0.0
  9
$LIMMIN
 10
0.0
 20
0.0
  9
$LIMMAX
 10
420.0
 20
297.0
  9
$ORTHOMODE
 70
     0
  9
$REGENMODE
 70
     1
  9
$FILLMODE
 70
     1
  9
$QTEXTMODE
 70
     0
  9
$MIRRTEXT
 70
     1
  9
$LTSCALE
 40
1.0
  9
$ATTMODE
 70
     1
  9
$TEXTSIZE
 40
6.35
  9
$TRACEWID
 40
1.0
  9
$TEXTSTYLE
  7
Standard
  9
$CLAYER
  8
0
  9
$CELTYPE
  6
ByLayer
  9
$CECOLOR
 62
   256
  9
$CELTSCALE
 40
1.0
  9
$DISPSILH
 70
     0
  9
$DIMSCALE
 40
1.0
  9
$DIMASZ
 40
5.9944
  9
$DIMEXO
 40
0.9906
  9
$DIMDLI
 40
3.75
  9
$DIMRND
 40
0.0
  9
$DIMDLE
 40
0.0
  9
$DIMEXE
 40
0.9906
  9
$DIMTP
 40
0.0
  9
$DIMTM
 40
0.0
  9
$DIMTXT
 40
6.35
  9
$DIMCEN
 40
2.5
  9
$DIMTSZ
 40
0.0
  9
$DIMTOL
 70
     0
  9
$DIMLIM
 70
     0
  9
$DIMTIH
 70
     1
  9
$DIMTOH
 70
     1
  9
$DIMSE1
 70
     0
  9
$DIMSE2
 70
     0
  9
$DIMTAD
 70
     1
  9
$DIMZIN
 70
     0
  9
$DIMBLK
  1

  9
$DIMASO
 70
     1
  9
$DIMSHO
 70
     1
  9
$DIMPOST
  1

  9
$DIMAPOST
  1

  9
$DIMALT
 70
     0
  9
$DIMALTD
 70
     3
  9
$DIMALTF
 40
0.0393700787
  9
$DIMLFAC
 40
1.0
  9
$DIMTOFL
 70
     1
  9
$DIMTVP
 40
0.0
  9
$DIMTIX
 70
     0
  9
$DIMSOXD
 70
     0
  9
$DIMSAH
 70
     0
  9
$DIMBLK1
  1

  9
$DIMBLK2
  1

  9
$DIMSTYLE
  2
ISO-25
  9
$DIMCLRD
 70
     0
  9
$DIMCLRE
 70
     0
  9
$DIMCLRT
 70
     0
  9
$DIMTFAC
 40
1.0
  9
$DIMGAP
 40
1.524
  9
$DIMJUST
 70
     0
  9
$DIMSD1
 70
     0
  9
$DIMSD2
 70
     0
  9
$DIMTOLJ
 70
     0
  9
$DIMTZIN
 70
     0
  9
$DIMALTZ
 70
     0
  9
$DIMALTTZ
 70
     0
  9
$DIMUPT
 70
     0
  9
$DIMDEC
 70
     2
  9
$DIMTDEC
 70
     2
  9
$DIMALTU
 70
     2
  9
$DIMALTTD
 70
     3
  9
$DIMTXSTY
  7
Standard
  9
$DIMAUNIT
 70
     0
  9
$DIMADEC
 70
     2
  9
$DIMALTRND
 40
0.0
  9
$DIMAZIN
 70
     0
  9
$DIMDSEP
 70
    44
  9
$DIMATFIT
 70
     3
  9
$DIMFRAC
 70
     0
  9
$DIMLDRBLK
  1

  9
$DIMLUNIT
 70
     2
  9
$DIMLWD
 70
    -2
  9
$DIMLWE
 70
    -2
  9
$DIMTMOVE
 70
     0
  9
$LUNITS
 70
     2
  9
$LUPREC
 70
     2
  9
$SKETCHINC
 40
1.0
  9
$FILLETRAD
 40
10.0
  9
$AUNITS
 70
     0
  9
$AUPREC
 70
     2
  9
$MENU
  1
.
  9
$ELEVATION
 40
0.0
  9
$PELEVATION
 40
0.0
  9
$THICKNESS
 40
0.0
  9
$LIMCHECK
 70
     0
  9
$CHAMFERA
 40
0.0
  9
$CHAMFERB
 40
0.0
  9
$CHAMFERC
 40
0.0
  9
$CHAMFERD
 40
0.0
  9
$SKPOLY
 70
     0
  9
$TDCREATE
 40
2458382.568134236
  9
$TDUCREATE
 40
2458382.52646757
  9
$TDUPDATE
 40
2458382.568189664
  9
$TDUUPDATE
 40
2458382.526522998
  9
$TDINDWG
 40
0.0000000116
  9
$TDUSRTIMER
 40
0.0000000116
  9
$USRTIMER
 70
     1
  9
$ANGBASE
 50
0.0
  9
$ANGDIR
 70
     0
  9
$PDMODE
 70
     0
  9
$PDSIZE
 40
-1.0
  9
$PLINEWID
 40
0.0
  9
$SPLFRAME
 70
     0
  9
$SPLINETYPE
 70
     6
  9
$SPLINESEGS
 70
     8
  9
$HANDSEED
  5
152
  9
$SURFTAB1
 70
     6
  9
$SURFTAB2
 70
     6
  9
$SURFTYPE
 70
     6
  9
$SURFU
 70
     6
  9
$SURFV
 70
     6
  9
$UCSBASE
  2

  9
$UCSNAME
  2

  9
$UCSORG
 10
0.0
 20
0.0
 30
0.0
  9
$UCSXDIR
 10
1.0
 20
0.0
 30
0.0
  9
$UCSYDIR
 10
0.0
 20
1.0
 30
0.0
  9
$UCSORTHOREF
  2

  9
$UCSORTHOVIEW
 70
     0
  9
$UCSORGTOP
 10
0.0
 20
0.0
 30
0.0
  9
$UCSORGBOTTOM
 10
0.0
 20
0.0
 30
0.0
  9
$UCSORGLEFT
 10
0.0
 20
0.0
 30
0.0
  9
$UCSORGRIGHT
 10
0.0
 20
0.0
 30
0.0
  9
$UCSORGFRONT
 10
0.0
 20
0.0
 30
0.0
  9
$UCSORGBACK
 10
0.0
 20
0.0
 30
0.0
  9
$PUCSBASE
  2

  9
$PUCSNAME
  2

  9
$PUCSORG
 10
0.0
 20
0.0
 30
0.0
  9
$PUCSXDIR
 10
1.0
 20
0.0
 30
0.0
  9
$PUCSYDIR
 10
0.0
 20
1.0
 30
0.0
  9
$PUCSORTHOREF
  2

  9
$PUCSORTHOVIEW
 70
     0
  9
$PUCSORGTOP
 10
0.0
 20
0.0
 30
0.0
  9
$PUCSORGBOTTOM
 10
0.0
 20
0.0
 30
0.0
  9
$PUCSORGLEFT
 10
0.0
 20
0.0
 30
0.0
  9
$PUCSORGRIGHT
 10
0.0
 20
0.0
 30
0.0
  9
$PUCSORGFRONT
 10
0.0
 20
0.0
 30
0.0
  9
$PUCSORGBACK
 10
0.0
 20
0.0
 30
0.0
  9
$USERI1
 70
     0
  9
$USERI2
 70
     0
  9
$USERI3
 70
     0
  9
$USERI4
 70
     0
  9
$USERI5
 70
     0
  9
$USERR1
 40
0.0
  9
$USERR2
 40
0.0
  9
$USERR3
 40
0.0
  9
$USERR4
 40
0.0
  9
$USERR5
 40
0.0
  9
$WORLDVIEW
 70
     1
  9
$SHADEDGE
 70
     3
  9
$SHADEDIF
 70
    70
  9
$TILEMODE
 70
     1
  9
$MAXACTVP
 70
    64
  9
$PINSBASE
 10
0.0
 20
0.0
 30
0.0
  9
$PLIMCHECK
 70
     0
  9
$PEXTMIN
 10
-39.25
 20
-71.3287921532
 30
0.0
  9
$PEXTMAX
 10
71.3287921532
 20
63.45
 30
0.0
  9
$PLIMMIN
 10
-53.0734658619
 20
-76.5125918514
  9
$PLIMMAX
 10
152.2050021868
 20
68.6337996982
  9
$UNITMODE
 70
     0
  9
$VISRETAIN
 70
     1
  9
$PLINEGEN
 70
     0
  9
$PSLTSCALE
 70
     1
  9
$TREEDEPTH
 70
  3020
  9
$CMLSTYLE
  2
Standard
  9
$CMLJUST
 70
     0
  9
$CMLSCALE
 40
20.0
  9
$PROXYGRAPHICS
 70
     1
  9
$MEASUREMENT
 70
     1
  9
$CELWEIGHT
370
    -1
  9
$ENDCAPS
280
     0
  9
$JOINSTYLE
280
     0
  9
$LWDISPLAY
290
     1
  9
$INSUNITS
 70
     4
  9
$HYPERLINKBASE
  1

  9
$STYLESHEET
  1

  9
$XEDIT
290
     1
  9
$CEPSNTYPE
380
     0
  9
$PSTYLEMODE
290
     1
  9
$FINGERPRINTGUID
  2
{4A7F6035-FFFF-4CD2-9FA6-188CCC77CDBE}
  9
$VERSIONGUID
  2
{FAEB1C32-E019-11D5-929B-00C0DF256EC4}
  9
$EXTNAMES
290
     1
  9
$PSVPSCALE
 40
0.0
  9
$OLESTARTUP
290
     0
  0
ENDSEC
  0
SECTION
  2
CLASSES
  0
CLASS
  1
ACDBDICTIONARYWDFLT
  2
AcDbDictionaryWithDefault
  3
ObjectDBX Classes
 90
        0
280
     0
281
     0
  0
CLASS
  1
VISUALSTYLE
  2
AcDbVisualStyle
  3
ObjectDBX Classes
 90
     4095
280
     0
281
     0
  0
CLASS
  1
MATERIAL
  2
AcDbMaterial
  3
ObjectDBX Classes
 90
     1153
280
     0
281
     0
  0
CLASS
  1
SCALE
  2
AcDbScale
  3
ObjectDBX Classes
 90
     1153
280
     0
281
     0
  0
CLASS
  1
TABLESTYLE
  2
AcDbTableStyle
  3
ObjectDBX Classes
 90
     4095
280
     0
281
     0
  0
CLASS
  1
MLEADERSTYLE
  2
AcDbMLeaderStyle
  3
ACDB_MLEADERSTYLE_CLASS
 90
     4095
280
     0
281
     0
  0
CLASS
  1
SUN
  2
AcDbSun
  3
SCENEOE
 90
     1153
280
     0
281
     0
  0
CLASS
  1
ACDBPLACEHOLDER
  2
AcDbPlaceHolder
  3
ObjectDBX Classes
 90
        0
280
     0
281
     0
  0
CLASS
  1
LAYOUT
  2
AcDbLayout
  3
ObjectDBX Classes
 90
        0
280
     0
281
     0
  0
ENDSEC
  0
SECTION
  2
TABLES
  0
TABLE
  2
VPORT
  5
8
330
0
100
AcDbSymbolTable
 70
     1
  0
VPORT
  5
29
330
8
100
AcDbSymbolTableRecord
100
AcDbViewportTableRecord
  2
*Active
 70
     0
 10
0.0
 20
0.0
 11
1.0
 21
1.0
 12
16.0393960766
 22
8.575
 13
0.0
 23
0.0
 14
10.0
 24
10.0
 15
10.0
 25
10.0
 16
0.0
 26
0.0
 36
1.0
 17
0.0
 27
0.0
 37
0.0
 40
97.563
 41
1.1560772834
 42
50.0
 43
0.0
 44
0.0
 50
0.0
 51
0.0
 71
     0
 72
   100
 73
     1
 74
     3
 75
     0
 76
     0
 77
     0
 78
     0
281
     0
 65
     1
110
0.0
120
0.0
130
0.0
111
1.0
121
0.0
131
0.0
112
0.0
122
1.0
132
0.0
 79
     0
146
0.0
  0
ENDTAB
  0
TABLE
  2
LTYPE
  5
5
330
0
100
AcDbSymbolTable
 70
     6
  0
LTYPE
  5
14
330
5
100
AcDbSymbolTableRecord
100
AcDbLinetypeTableRecord
  2
ByBlock
 70
     0
  3

 72
    65
 73
     0
 40
0.0
  0
LTYPE
  5
15
330
5
100
AcDbSymbolTableRecord
100
AcDbLinetypeTableRecord
  2
ByLayer
 70
     0
  3

 72
    65
 73
     0
 40
0.0
  0
LTYPE
  5
16
330
5
100
AcDbSymbolTableRecord
100
AcDbLinetypeTableRecord
  2
Continuous
 70
     0
  3
Solid line
 72
    65
 73
     0
 40
0.0
  0
LTYPE
  5
6E
330
5
100
AcDbSymbolTableRecord
100
AcDbLinetypeTableRecord
  2
HIDDEN
 70
     0
  3
Hidden __ __ __ __ __ __ __ __ __ __ __ __ __ __
 72
    65
 73
     2
 40
1.905
 49
1.27
 74
     0
 49
-0.635
 74
     0
  0
LTYPE
  5
6F
330
5
100
AcDbSymbolTableRecord
100
AcDbLinetypeTableRecord
  2
PHANTOM
 70
     0
  3
Phantom ______  __  __  ______  __  __  ______
 72
    65
 73
     6
 40
12.7
 49
6.35
 74
     0
 49
-1.27
 74
     0
 49
1.27
 74
     0
 49
-1.27
 74
     0
 49
1.27
 74
     0
 49
-1.27
 74
     0
  0
LTYPE
  5
70
330
5
100
AcDbSymbolTableRecord
100
AcDbLinetypeTableRecord
  2
CENTER
 70
     0
  3
Center ____ _ ____ _ ____ _ ____ _ ____ _ ____
 72
    65
 73
     4
 40
10.16
 49
6.35
 74
     0
 49
-1.27
 74
     0
 49
1.27
 74
     0
 49
-1.27
 74
     0
  0
LTYPE
  5
71
330
5
100
AcDbSymbolTableRecord
100
AcDbLinetypeTableRecord
  2
CENTERX2
 70
     0
  3
Center (2x) ________  __  ________  __  _____
 72
    65
 73
     4
 40
20.32
 49
12.7
 74
     0
 49
-2.54
 74
     0
 49
2.54
 74
     0
 49
-2.54
 74
     0
  0
LTYPE
  5
72
330
5
100
AcDbSymbolTableRecord
100
AcDbLinetypeTableRecord
  2
DOT2
 70
     0
  3
Dot (.5x) ........................................
 72
    65
 73
     2
 40
0.635
 49
0.0
 74
     0
 49
-0.635
 74
     0
  0
ENDTAB
  0
TABLE
  2
LAYER
  5
2
330
0
100
AcDbSymbolTable
 70
     1
  0
LAYER
  5
10
330
2
100
AcDbSymbolTableRecord
100
AcDbLayerTableRecord
  2
0
 70
     0
 62
     7
  6
Continuous
370
    -3
390
F
  0
ENDTAB
  0
TABLE
  2
STYLE
  5
3
330
0
100
AcDbSymbolTable
 70
     1
  0
STYLE
  5
11
330
3
100
AcDbSymbolTableRecord
100
AcDbTextStyleTableRecord
  2
Standard
 70
     0
 40
0.0
 41
1.0
 50
0.0
 71
     0
 42
6.35
  3
txt
  4

  0
ENDTAB
  0
TABLE
  2
VIEW
  5
6
330
0
100
AcDbSymbolTable
 70
     0
  0
ENDTAB
  0
TABLE
  2
UCS
  5
7
330
0
100
AcDbSymbolTable
 70
     0
  0
ENDTAB
  0
TABLE
  2
APPID
  5
9
330
0
100
AcDbSymbolTable
 70
     1
  0
APPID
  5
12
330
9
100
AcDbSymbolTableRecord
100
AcDbRegAppTableRecord
  2
ACAD
 70
     0
  0
ENDTAB
  0
TABLE
  2
DIMSTYLE
  5
A
330
0
100
AcDbSymbolTable
 70
     1
100
AcDbDimStyleTable
  0
DIMSTYLE
105
27
330
A
100
AcDbSymbolTableRecord
100
AcDbDimStyleTableRecord
  2
ISO-25
 70
     0
 41
2.5
 42
0.625
 43
3.75
 44
1.25
 73
     0
 74
     0
 77
     1
 78
     8
140
2.5
141
2.5
143
0.0393700787
147
0.625
171
     3
172
     1
178
     0
271
     2
272
     2
274
     3
278
    44
283
     0
284
     8
340
11
  0
ENDTAB
  0
TABLE
  2
BLOCK_RECORD
  5
1
330
0
100
AcDbSymbolTable
 70
     1
  0
BLOCK_RECORD
  5
1F
330
1
100
AcDbSymbolTableRecord
100
AcDbBlockTableRecord
  2
*Model_Space
340
22
  0
BLOCK_RECORD
  5
1B
330
1
100
AcDbSymbolTableRecord
100
AcDbBlockTableRecord
  2
*Paper_Space
340
1E
  0
BLOCK_RECORD
  5
23
330
1
100
AcDbSymbolTableRecord
100
AcDbBlockTableRecord
  2
*Paper_Space0
340
26
  0
ENDTAB
  0
ENDSEC
  0
SECTION
  2
BLOCKS
  0
BLOCK
  5
20
330
1F
100
AcDbEntity
  8
0
100
AcDbBlockBegin
  2
*Model_Space
 70
     0
 10
0.0
 20
0.0
 30
0.0
  3
*Model_Space
  1

  0
ENDBLK
  5
21
330
1F
100
AcDbEntity
  8
0
100
AcDbBlockEnd
  0
BLOCK
  5
1C
330
1B
100
AcDbEntity
 67
     1
  8
0
100
AcDbBlockBegin
  2
*Paper_Space
 70
     0
 10
0.0
 20
0.0
 30
0.0
  3
*Paper_Space
  1

  0
ENDBLK
  5
1D
330
1B
100
AcDbEntity
 67
     1
  8
0
100
AcDbBlockEnd
  0
BLOCK
  5
24
330
23
100
AcDbEntity
  8
0
100
AcDbBlockBegin
  2
*Paper_Space0
 70
     0
 10
0.0
 20
0.0
 30
0.0
  3
*Paper_Space0
  1

  0
SPLINE
  5
112
330
23
100
AcDbEntity
  8
0
  6
Continuous
 62
     7
370
    25
100
AcDbSpline
210
0.0
220
0.0
230
1.0
 70
     8
 71
     3
 72
    14
 73
    10
 74
     0
 42
0.000000001
 43
0.00000001
 40
0.0
 40
0.0
 40
0.0
 40
0.0
 40
0.1178954504569916
 40
0.3469795462866995
 40
0.5339126192807792
 40
0.6938698188919784
 40
0.8307484436033806
 40
0.9445176027846421
 40
0.9999999999999999
 40
0.9999999999999999
 40
0.9999999999999999
 40
0.9999999999999999
 10
-61.46367502057107
 20
38.76442632265132
 30
0.0
 10
-61.46130125397564
 20
38.70689168055353
 30
0.0
 10
-61.45431499239319
 20
38.53756076970429
 30
0.0
 10
-61.55649032612878
 20
38.28864834672864
 30
0.0
 10
-61.7236653529723
 20
38.06284087942596
 30
0.0
 10
-61.91002075351765
 20
37.91513835100766
 30
0.0
 10
-62.0903262786046
 20
37.82807919615507
 30
0.0
 10
-62.23394005764213
 20
37.78549472267316
 30
0.0
 10
-62.31573229838346
 20
37.77699733495483
 30
0.0
 10
-62.34254463433214
 20
37.77421180405208
 30
0.0
  0
SPLINE
  5
113
330
23
100
AcDbEntity
  8
0
  6
Continuous
 62
     7
370
    25
100
AcDbSpline
210
0.0
220
0.0
230
1.0
 70
     8
 71
     3
 72
    12
 73
     8
 74
     0
 42
0.000000001
 43
0.00000001
 40
0.0
 40
0.0
 40
0.0
 40
0.0
 40
0.1573917648538595
 40
0.3714994677459193
 40
0.5952619968810823
 40
0.79690422851795
 40
1.0
 40
1.0
 40
1.0
 40
1.0
 10
-47.38945160169794
 20
39.08335958296702
 30
0.0
 10
-47.47493329141939
 20
39.08343516009499
 30
0.0
 10
-47.67669989758858
 20
39.08361354848046
 30
0.0
 10
-47.98382072765985
 20
39.20872394190545
 30
0.0
 10
-48.24547728853314
 20
39.44137400160271
 30
0.0
 10
-48.41893507266973
 20
39.74503047920244
 30
0.0
 10
-48.43613844090243
 20
39.96527796868419
 30
0.0
 10
-48.44477101633737
 20
40.07579720198717
 30
0.0
  0
SPLINE
  5
119
330
23
100
AcDbEntity
  8
0
  6
Continuous
 62
     7
370
    25
100
AcDbSpline
210
0.0
220
0.0
230
1.0
 70
     8
 71
     3
 72
    50
 73
    46
 74
     0
 42
0.000000001
 43
0.00000001
 40
0.0
 40
0.0
 40
0.0
 40
0.0
 40
0.0032625192264003
 40
0.0273470812876269
 40
0.0514497510179986
 40
0.0755689393031743
 40
0.0997025236472122
 40
0.1238481328953722
 40
0.1480033769231776
 40
0.1721660111282461
 40
0.1963340388295132
 40
0.2205057621834522
 40
0.2446797948961394
 40
0.2688550494713924
 40
0.2930305786399511
 40
0.3172057849217723
 40
0.3413803480303143
 40
0.3655541015644224
 40
0.3897270027811999
 40
0.4138991064659944
 40
0.4380705427675964
 40
0.4622414985630384
 40
0.4864122017514961
 40
0.5105829078054317
 40
0.5347538878860837
 40
0.558925329673036
 40
0.5830975028441969
 40
0.6072706668832246
 40
0.6314450555164692
 40
0.6556208629305793
 40
0.6797982275809366
 40
0.7039772128758317
 40
0.7281577840778904
 40
0.7523397809107008
 40
0.7765228856585271
 40
0.8007065165119743
 40
0.8248897014509536
 40
0.8490713287787812
 40
0.8732499703541842
 40
0.8974238628400718
 40
0.9215909136096623
 40
0.9457487444959153
 40
0.9698947876181063
 40
0.9940264453693178
 40
1.0
 40
1.0
 40
1.0
 40
1.0
 10
54.75287979671909
 20
-34.85614502577523
 30
0.0
 10
54.81738160039052
 20
-34.82121508130299
 30
0.0
 10
55.35804847337857
 20
-34.52842537967454
 30
0.0
 10
56.34283664024676
 20
-33.86949353478252
 30
0.0
 10
57.69956247355994
 20
-32.87521652370381
 30
0.0
 10
59.01019934991425
 20
-31.76266927861217
 30
0.0
 10
60.27453937393999
 20
-30.54956415576736
 30
0.0
 10
61.48730207998256
 20
-29.23609039060891
 30
0.0
 10
62.64478916504373
 20
-27.82757964269636
 30
0.0
 10
63.74312338981565
 20
-26.32839926517352
 30
0.0
 10
64.77873944606466
 20
-24.74356081869579
 30
0.0
 10
65.74826673172711
 20
-23.07825999451806
 30
0.0
 10
66.64857198831491
 20
-21.3379721159141
 30
0.0
 10
67.47675540110924
 20
-19.5284030995709
 30
0.0
 10
68.23016077513486
 20
-17.65547545225092
 30
0.0
 10
68.90638094224946
 20
-15.72530420250564
 30
0.0
 10
69.50326316194842
 20
-13.74417424105822
 30
0.0
 10
70.01891171863137
 20
-11.71852355485024
 30
0.0
 10
70.4516912705261
 20
-9.654925975450954
 30
0.0
 10
70.80023071116487
 20
-7.560071197115568
 30
0.0
 10
71.06342654613272
 20
-5.440744418412405
 30
0.0
 10
71.24044569157682
 20
-3.303805607773623
 30
0.0
 10
71.33072761806663
 20
-1.156168448294838
 30
0.0
 10
71.33398577629681
 20
0.995220965288428
 30
0.0
 10
71.25020836023019
 20
3.143402978708555
 30
0.0
 10
71.079658549686
 20
5.28142856143228
 30
0.0
 10
70.82287354216767
 20
7.402381119801455
 30
0.0
 10
70.48066217246797
 20
9.499400519005926
 30
0.0
 10
70.05410241514917
 20
11.56570164361945
 30
0.0
 10
69.54453809732509
 20
13.59459500536661
 30
0.0
 10
68.95357494691824
 20
15.5795070006749
 30
0.0
 10
68.28307607956204
 20
17.51399965323938
 30
0.0
 10
67.53515702007678
 20
19.39178973050009
 30
0.0
 10
66.71218045440177
 20
21.20676743037949
 30
0.0
 10
65.81675149220202
 20
22.9530121660052
 30
0.0
 10
64.8517151932028
 20
24.62480870321389
 30
0.0
 10
63.82014835309202
 20
26.21666175588107
 30
0.0
 10
62.72536113725462
 20
27.7233411860506
 30
0.0
 10
61.57086072799191
 20
29.13980573064588
 30
0.0
 10
60.36045380955872
 20
30.46158028809303
 30
0.0
 10
59.09784342431929
 20
31.68342624869905
 30
0.0
 10
57.78809950448465
 20
32.80439761142107
 30
0.0
 10
56.43213112517557
 20
33.80908524600375
 30
0.0
 10
55.39429044075718
 20
34.50496806239869
 30
0.0
 10
54.79944028049921
 20
34.82860463877468
 30
0.0
 10
54.68140856279214
 20
34.8928214509647
 30
0.0
  0
SPLINE
  5
11A
330
23
100
AcDbEntity
  8
0
  6
Continuous
 62
     7
370
    25
100
AcDbSpline
210
0.0
220
0.0
230
1.0
 70
     8
 71
     3
 72
    13
 73
     9
 74
     0
 42
0.000000001
 43
0.00000001
 40
0.0
 40
0.0
 40
0.0
 40
0.0
 40
0.1598995144027002
 40
0.3174714940161324
 40
0.4700670031274676
 40
0.643473569736583
 40
0.8340056905165293
 40
0.9999999999999999
 40
0.9999999999999999
 40
0.9999999999999999
 40
0.9999999999999999
 10
45.99325184383975
 20
37.67889042218053
 30
0.0
 10
45.98002030614091
 20
37.68295651202722
 30
0.0
 10
45.95374983210554
 20
37.69102950476427
 30
0.0
 10
45.84255128247057
 20
37.74043634839043
 30
0.0
 10
45.67477440993249
 20
37.85536445604518
 30
0.0
 10
45.50123712919133
 20
38.05410082571766
 30
0.0
 10
45.3742736849846
 20
38.31523651964844
 30
0.0
 10
45.36661505961089
 20
38.50989464830287
 30
0.0
 10
45.36304929807796
 20
38.60052507260959
 30
0.0
  0
SPLINE
  5
11B
330
23
100
AcDbEntity
  8
0
  6
Continuous
 62
     7
370
    25
100
AcDbSpline
210
0.0
220
0.0
230
1.0
 70
     8
 71
     3
 72
     9
 73
     5
 74
     0
 42
0.000000001
 43
0.00000001
 40
0.0
 40
0.0
 40
0.0
 40
0.0
 40
0.7507941918617708
 40
1.0
 40
1.0
 40
1.0
 40
1.0
 10
32.34313381505429
 20
39.53309273530655
 30
0.0
 10
32.34487129684813
 20
39.45109581419251
 30
0.0
 10
32.34718548869017
 20
39.3418822347551
 30
0.0
 10
32.30470069413473
 20
39.26440317798952
 30
0.0
 10
32.29411323657396
 20
39.24509494703446
 30
0.0
  0
LWPOLYLINE
  5
121
330
23
100
AcDbEntity
  8
0
  6
Continuous
 62
     7
370
    25
100
AcDbPolyline
 90
       54
 70
   128
 43
0.0
 10
0.0
 20
39.25
 10
1.6441609009
 20
39.1810664717
 10
3.2825466267
 20
38.9745080185
 10
4.9094022878
 20
38.6310501844
 10
6.5190134943
 20
38.1518993777
 10
8.1057264281
 20
37.5387386329
 10
9.6639677022
 20
36.7937216995
 10
11.1882639373
 20
35.9194654768
 10
12.6732609873
 20
34.9190408215
 10
14.1137427458
 20
33.7959617619
 10
15.5046494682
 20
32.5541731539
 10
16.8410955439
 20
31.1980368255
 10
18.1183866572
 20
29.7323162548
 10
19.3320362766
 20
28.162159839
 10
20.4777814136
 20
26.4930828096
 10
21.5515975964
 20
24.7309478606
 10
22.5497130067
 20
22.8819445552
 10
23.4686217277
 20
20.9525675851
 10
24.3050960588
 20
18.9495939572
 10
25.0561978537
 20
16.8800591894
 10
25.7192888397
 20
14.751232598
 10
26.2920398857
 20
12.5705917641
 10
26.7724391826
 20
10.3457962682
 10
27.1587993106
 20
8.0846607856
 10
27.4497631654
 20
5.7951276371
 10
27.6443087259
 20
3.4852388914
 10
27.7417526439
 20
1.163108117
 10
27.7417526439
 20
-1.163108117
 10
27.6443087259
 20
-3.4852388914
 10
27.4497631654
 20
-5.7951276371
 10
27.1587993106
 20
-8.0846607856
 10
26.7724391826
 20
-10.3457962682
 10
26.2920398857
 20
-12.5705917641
 10
25.7192888397
 20
-14.751232598
 10
25.0561978537
 20
-16.8800591894
 10
24.3050960588
 20
-18.9495939572
 10
23.4686217277
 20
-20.9525675851
 10
22.5497130067
 20
-22.8819445552
 10
21.5515975964
 20
-24.7309478606
 10
20.4777814136
 20
-26.4930828096
 10
19.3320362766
 20
-28.162159839
 10
18.1183866572
 20
-29.7323162548
 10
16.8410955439
 20
-31.1980368255
 10
15.5046494682
 20
-32.5541731539
 10
14.1137427458
 20
-33.7959617619
 10
12.6732609873
 20
-34.9190408215
 10
11.1882639373
 20
-35.9194654768
 10
9.6639677022
 20
-36.7937216995
 10
8.1057264281
 20
-37.5387386329
 10
6.5190134943
 20
-38.1518993777
 10
4.9094022878
 20
-38.6310501844
 10
3.2825466267
 20
-38.9745080185
 10
1.6441609009
 20
-39.1810664717
 10
0.0
 20
-39.25
  0
LWPOLYLINE
  5
123
330
23
100
AcDbEntity
  8
0
  6
Continuous
 62
     7
370
    25
100
AcDbPolyline
 90
       55
 70
   128
 43
0.0
 10
32.1380032049
 20
-39.25
 10
32.9604448417
 20
-39.232762833
 10
34.6024392591
 20
-39.0949563226
 10
36.235777255
 20
-38.8198273524
 10
37.85472167
 20
-38.4083423228
 10
39.453585903
 20
-37.8619465899
 10
41.0267538849
 20
-37.1825593888
 10
42.5686998058
 20
-36.3725670917
 10
44.0740075246
 20
-35.4348148262
 10
45.5373895928
 20
-34.3725964812
 10
46.9537058276
 20
-33.1896431374
 10
48.3179813667
 20
-31.8901099617
 10
49.6254241423
 20
-30.4785616117
 10
50.8714417141
 20
-28.9599562024
 10
52.0516573999
 20
-27.3396278907
 10
53.1619256491
 20
-25.623268139
 10
54.1983466039
 20
-23.8169057234
 10
55.157279798
 20
-21.9268855578
 10
56.0353569435
 20
-19.959846407
 10
56.8294937624
 20
-17.9226975677
 10
57.5369008202
 20
-15.8225945996
 10
58.1550933237
 20
-13.6669141908
 10
58.6818998494
 20
-11.4632282475
 10
59.11546997
 20
-9.2192772969
 10
59.4542807547
 20
-6.9429432986
 10
59.6971421182
 20
-4.6422219587
 10
59.8432010012
 20
-2.3251946448
 10
59.8919443665
 20
0.0
 10
59.8432010012
 20
2.3251946448
 10
59.6971421182
 20
4.6422219587
 10
59.4542807547
 20
6.9429432986
 10
59.11546997
 20
9.2192772969
 10
58.6818998494
 20
11.4632282475
 10
58.1550933237
 20
13.6669141908
 10
57.5369008202
 20
15.8225945996
 10
56.8294937624
 20
17.9226975677
 10
56.0353569435
 20
19.959846407
 10
55.157279798
 20
21.9268855578
 10
54.1983466039
 20
23.8169057234
 10
53.1619256491
 20
25.623268139
 10
52.0516573999
 20
27.3396278907
 10
50.8714417141
 20
28.9599562024
 10
49.6254241423
 20
30.4785616117
 10
48.3179813667
 20
31.8901099617
 10
46.9537058276
 20
33.1896431374
 10
45.5373895928
 20
34.3725964812
 10
44.0740075245
 20
35.4348148262
 10
42.5686998058
 20
36.3725670917
 10
41.0267538849
 20
37.1825593888
 10
39.453585903
 20
37.8619465899
 10
37.85472167
 20
38.4083423228
 10
36.235777255
 20
38.8198273524
 10
34.6024392591
 20
39.0949563226
 10
32.9604448417
 20
39.232762833
 10
32.1380032049
 20
39.25
  0
SPLINE
  5
127
330
23
100
AcDbEntity
  8
0
  6
Continuous
 62
     7
370
    25
100
AcDbSpline
210
0.0
220
0.0
230
1.0
 70
     8
 71
     3
 72
    12
 73
     8
 74
     0
 42
0.000000001
 43
0.00000001
 40
0.0
 40
0.0
 40
0.0
 40
0.0
 40
0.1593979089986582
 40
0.3917628833385124
 40
0.6180648768386017
 40
0.8511567849695088
 40
1.0
 40
1.0
 40
1.0
 40
1.0
 10
43.66355760909479
 20
37.76589452287045
 30
0.0
 10
43.87972711979958
 20
37.76804238225071
 30
0.0
 10
44.41102135907528
 20
37.77332131965395
 30
0.0
 10
45.07775586148848
 20
37.75694192745722
 30
0.0
 10
45.65450598202236
 20
37.72288429320363
 30
0.0
 10
46.01266396543155
 20
37.68112021114496
 30
0.0
 10
46.09206791899924
 20
37.65486038017596
 30
0.0
 10
46.12301228367909
 20
37.64462671107731
 30
0.0
  0
SPLINE
  5
128
330
23
100
AcDbEntity
  8
0
  6
Continuous
 62
     7
370
    25
100
AcDbSpline
210
0.0
220
0.0
230
1.0
 70
     8
 71
     3
 72
    16
 73
    12
 74
     0
 42
0.000000001
 43
0.00000001
 40
0.0
 40
0.0
 40
0.0
 40
0.0
 40
0.1145547094570143
 40
0.2323194795731811
 40
0.346218195756914
 40
0.4631744359899196
 40
0.5781942136753404
 40
0.6963065996821411
 40
0.812911144698596
 40
0.9328912336089181
 40
0.9999999999999999
 40
0.9999999999999999
 40
0.9999999999999999
 40
0.9999999999999999
 10
45.47114852563471
 20
37.57917050743945
 30
0.0
 10
45.27770421482887
 20
37.59183342553369
 30
0.0
 10
44.8853948822329
 20
37.6175141029626
 30
0.0
 10
44.08613967352222
 20
37.70593256933736
 30
0.0
 10
43.15183998334872
 20
37.8317297013937
 30
0.0
 10
42.10490115704749
 20
37.99121773191924
 30
0.0
 10
40.95612690462091
 20
38.17779284397297
 30
0.0
 10
39.74535190687439
 20
38.37852201391412
 30
0.0
 10
38.48803807822298
 20
38.58002575943946
 30
0.0
 10
37.4034489587486
 20
38.74476516656692
 30
0.0
 10
36.76538976399782
 20
38.8230115621425
 30
0.0
 10
36.53651795132235
 20
38.85107854172376
 30
0.0
  0
SPLINE
  5
12B
330
23
100
AcDbEntity
  8
0
  6
Continuous
 62
     8
370
    25
100
AcDbSpline
210
0.0
220
0.0
230
1.0
 70
     8
 71
     3
 72
    13
 73
     9
 74
     0
 42
0.000000001
 43
0.00000001
 40
0.0
 40
0.0
 40
0.0
 40
0.0
 40
0.0906767493324989
 40
0.299604225186975
 40
0.5146269646582063
 40
0.7233259075600976
 40
0.938408205052444
 40
1.0
 40
1.0
 40
1.0
 40
1.0
 10
-60.12078572177062
 20
37.60708684691777
 30
0.0
 10
-60.24525461862316
 20
37.61299879519954
 30
0.0
 10
-60.6565111719943
 20
37.6325324099061
 30
0.0
 10
-61.26147904637187
 20
37.67258584941004
 30
0.0
 10
-61.83932996909769
 20
37.71992437655899
 30
0.0
 10
-62.20874689821412
 20
37.75473943753452
 30
0.0
 10
-62.37524673712124
 20
37.77156282733208
 30
0.0
 10
-62.34754490646014
 20
37.76877958473055
 30
0.0
 10
-62.3413780642426
 20
37.7681599932607
 30
0.0
  0
SPLINE
  5
12C
330
23
100
AcDbEntity
  8
0
  6
Continuous
 62
     8
370
    25
100
AcDbSpline
210
0.0
220
0.0
230
1.0
 70
     8
 71
     3
 72
    21
 73
    17
 74
     0
 42
0.000000001
 43
0.00000001
 40
0.0
 40
0.0
 40
0.0
 40
0.0
 40
0.034979506373719
 40
0.1021470818048283
 40
0.1713251435703369
 40
0.2394630987997994
 40
0.3095076508237024
 40
0.3803422176495124
 40
0.453135839505351
 40
0.5258735368827855
 40
0.6006868002206364
 40
0.6728108669229882
 40
0.7470151723381842
 40
0.8173030118151589
 40
0.8895648644018344
 40
1.0
 40
1.0
 40
1.0
 40
1.0
 10
-47.38991410570021
 20
39.07534813149179
 30
0.0
 10
-47.38450862566677
 20
39.07680393844588
 30
0.0
 10
-47.36872355410884
 20
39.08105518288721
 30
0.0
 10
-47.56367470975324
 20
39.02855117371347
 30
0.0
 10
-47.94791044344134
 20
38.92772639694874
 30
0.0
 10
-48.52984003644367
 20
38.78148122233692
 30
0.0
 10
-49.27797802403936
 20
38.60507808804836
 30
0.0
 10
-50.19158366401564
 20
38.40760394790244
 30
0.0
 10
-51.24329568608571
 20
38.20516815459906
 30
0.0
 10
-52.41594024975713
 20
38.01133676456957
 30
0.0
 10
-53.65680980829321
 20
37.84361526215012
 30
0.0
 10
-54.94261232490866
 20
37.71074271119294
 30
0.0
 10
-56.20500520270684
 20
37.62128318491106
 30
0.0
 10
-57.42988998053863
 20
37.57369666840878
 30
0.0
 10
-58.79474113597208
 20
37.56068580652494
 30
0.0
 10
-59.62120924495201
 20
37.58960563359476
 30
0.0
 10
-60.12078572177062
 20
37.60708684691777
 30
0.0
  0
SPLINE
  5
12D
330
23
100
AcDbEntity
  8
0
  6
Continuous
 62
     8
370
    25
100
AcDbSpline
210
0.0
220
0.0
230
1.0
 70
     8
 71
     3
 72
    22
 73
    18
 74
     0
 42
0.000000001
 43
0.00000001
 40
0.0
 40
0.0
 40
0.0
 40
0.0
 40
0.1102200915455264
 40
0.1804605523968588
 40
0.2506981228701611
 40
0.2516159897185882
 40
0.3240668977258686
 40
0.3965258638760118
 40
0.4699349251214497
 40
0.5433551300639616
 40
0.6153740219785555
 40
0.687391335006443
 40
0.7571401351492949
 40
0.8268763255320295
 40
0.8959508616610492
 40
0.9650147702800265
 40
0.9999999999999999
 40
0.9999999999999999
 40
0.9999999999999999
 40
0.9999999999999999
 10
-59.50688260258202
 20
38.59385169487935
 30
0.0
 10
-59.07472049207838
 20
38.57469865229864
 30
0.0
 10
-58.36715246076111
 20
38.54333986284631
 30
0.0
 10
-57.18748753378133
 20
38.55371053456091
 30
0.0
 10
-56.48888787380272
 20
38.58312587815495
 30
0.0
 10
-55.76812523010221
 20
38.62776921575112
 30
0.0
 10
-55.02380917907593
 20
38.68868880608655
 30
0.0
 10
-53.9127230788712
 20
38.82063589249812
 30
0.0
 10
-52.83233075021257
 20
38.99123607030504
 30
0.0
 10
-51.81849944191777
 20
39.18623628220803
 30
0.0
 10
-50.90402126712949
 20
39.39242523580079
 30
0.0
 10
-50.11396350728614
 20
39.59220102306359
 30
0.0
 10
-49.46398499010268
 20
39.77181648470153
 30
0.0
 10
-48.95991887136302
 20
39.92046636961969
 30
0.0
 10
-48.62625683541759
 20
40.02295100530055
 30
0.0
 10
-48.45536240406418
 20
40.07718994604095
 30
0.0
 10
-48.46863854374369
 20
40.07290919401152
 30
0.0
 10
-48.47310248072478
 20
40.0714698443397
 30
0.0
  0
SPLINE
  5
12E
330
23
100
AcDbEntity
  8
0
  6
Continuous
 62
     8
370
    25
100
AcDbSpline
210
0.0
220
0.0
230
1.0
 70
     8
 71
     3
 72
    13
 73
     9
 74
     0
 42
0.000000001
 43
0.00000001
 40
0.0
 40
0.0
 40
0.0
 40
0.0
 40
0.0605304278966229
 40
0.2734493536653045
 40
0.4863754962507666
 40
0.6981257959986179
 40
0.909877767343634
 40
1.0
 40
1.0
 40
1.0
 40
1.0
 10
-61.43107655626995
 20
38.7641711727896
 30
0.0
 10
-61.43650170513243
 20
38.76484765564646
 30
0.0
 10
-61.46101009705246
 20
38.76790370210775
 30
0.0
 10
-61.316267780362
 20
38.74991701510059
 30
0.0
 10
-61.00196779679834
 20
38.71426341343159
 30
0.0
 10
-60.49877136862091
 20
38.66392625312365
 30
0.0
 10
-59.97632801609344
 20
38.62150108433219
 30
0.0
 10
-59.61481079993164
 20
38.60020844834966
 30
0.0
 10
-59.50688260258202
 20
38.59385169487935
 30
0.0
  0
LWPOLYLINE
  5
12F
330
23
100
AcDbEntity
  8
0
  6
Continuous
 62
     8
370
    25
100
AcDbPolyline
 90
       41
 70
   128
 43
0.0
 10
54.6686463677
 20
-34.8909956565
 10
55.4883326384
 20
-34.3924265445
 10
56.9367156174
 20
-33.3950942689
 10
58.3398759511
 20
-32.2759069158
 10
59.6926936597
 20
-31.0389482787
 10
60.990232458
 20
-29.6887318853
 10
62.2277577678
 20
-28.2301845289
 10
63.4007539933
 20
-26.6686282907
 10
64.5049409986
 20
-25.0097611199
 10
65.536289725
 20
-23.2596360431
 10
66.4910368928
 20
-21.4246390767
 10
67.3656987332
 20
-19.5114659258
 10
68.1570836999
 20
-17.5270975517
 10
68.8623041151
 20
-15.4787746993
 10
69.478786706
 20
-13.3739714767
 10
70.0042819943
 20
-11.2203680826
 10
70.4368725049
 20
-9.0258227821
 10
70.7749797617
 20
-6.7983432331
 10
71.0173700482
 20
-4.5460572669
 10
71.1631589085
 20
-2.2771832308
 10
71.2118143747
 20
0.0
 10
71.1631589085
 20
2.2771832308
 10
71.0173700482
 20
4.5460572669
 10
70.7749797617
 20
6.7983432331
 10
70.4368725049
 20
9.0258227821
 10
70.0042819943
 20
11.2203680826
 10
69.478786706
 20
13.3739714767
 10
68.8623041151
 20
15.4787746993
 10
68.1570836999
 20
17.5270975517
 10
67.3656987332
 20
19.5114659258
 10
66.4910368928
 20
21.4246390767
 10
65.536289725
 20
23.2596360431
 10
64.5049409986
 20
25.0097611199
 10
63.4007539933
 20
26.6686282907
 10
62.2277577678
 20
28.2301845289
 10
60.990232458
 20
29.6887318853
 10
59.6926936597
 20
31.0389482787
 10
58.3398759511
 20
32.2759069158
 10
56.9367156174
 20
33.3950942689
 10
55.4883326384
 20
34.3924265445
 10
54.5973865224
 20
34.9321854012
  0
SPLINE
  5
130
330
23
100
AcDbEntity
  8
0
  6
Continuous
 62
     8
370
    25
100
AcDbSpline
210
0.0
220
0.0
230
1.0
 70
     8
 71
     3
 72
    11
 73
     7
 74
     0
 42
0.000000001
 43
0.00000001
 40
0.0
 40
0.0
 40
0.0
 40
0.0
 40
0.1020214841138507
 40
0.4022433738410159
 40
0.6968699360348488
 40
1.0
 40
1.0
 40
1.0
 40
1.0
 10
46.12301228367909
 20
37.64462671107731
 30
0.0
 10
46.14632176804335
 20
37.63903754906949
 30
0.0
 10
46.23822481880381
 20
37.61700098096327
 30
0.0
 10
46.17896091869406
 20
37.58576040881699
 30
0.0
 10
45.95914831816378
 20
37.56202408578229
 30
0.0
 10
45.63535053899106
 20
37.57340108499078
 30
0.0
 10
45.47114852563471
 20
37.57917050743945
 30
0.0
  0
SPLINE
  5
131
330
23
100
AcDbEntity
  8
0
  6
Continuous
 62
     8
370
    25
100
AcDbSpline
210
0.0
220
0.0
230
1.0
 70
     8
 71
     3
 72
    22
 73
    18
 74
     0
 42
0.000000001
 43
0.00000001
 40
0.0
 40
0.0
 40
0.0
 40
0.0
 40
0.1021170603014157
 40
0.1737651387641548
 40
0.2454289486867562
 40
0.2475753060710645
 40
0.3204880126636093
 40
0.3934093594043722
 40
0.4647203143468626
 40
0.5360251233636187
 40
0.6061794644017916
 40
0.6763237126529241
 40
0.7468028328570404
 40
0.8172800545681058
 40
0.8884451037638718
 40
0.9596158090223446
 40
1.0
 40
1.0
 40
1.0
 40
1.0
 10
34.25932354849144
 20
40.07884251049095
 30
0.0
 10
34.65662851788296
 20
40.06731567818928
 30
0.0
 10
35.33269334910928
 20
40.04770131004647
 30
0.0
 10
36.47303044690318
 20
39.91757698175763
 30
0.0
 10
37.18347637904531
 20
39.81475111575195
 30
0.0
 10
37.91232309928799
 20
39.698804095846
 30
0.0
 10
38.6603824832935
 20
39.57031972379603
 30
0.0
 10
39.75950188280457
 20
39.36553993305006
 30
0.0
 10
40.8244483418092
 20
39.16151207537973
 30
0.0
 10
41.82492130466341
 20
38.97277487239407
 30
0.0
 10
42.7410691105787
 20
38.81152466510868
 30
0.0
 10
43.55406390767994
 20
38.68407135632746
 30
0.0
 10
44.23867439981897
 20
38.59838520224486
 30
0.0
 10
44.78340182626567
 20
38.55231749479454
 30
0.0
 10
45.15103560189138
 20
38.54668545013069
 30
0.0
 10
45.34403037972437
 20
38.56532365011665
 30
0.0
 10
45.33559031016929
 20
38.58896061245599
 30
0.0
 10
45.33253490523166
 20
38.59751747220352
 30
0.0
  0
SPLINE
  5
132
330
23
100
AcDbEntity
  8
0
  6
Continuous
 62
     8
370
    25
100
AcDbSpline
210
0.0
220
0.0
230
1.0
 70
     8
 71
     3
 72
    13
 73
     9
 74
     0
 42
0.000000001
 43
0.00000001
 40
0.0
 40
0.0
 40
0.0
 40
0.0
 40
0.0533131930493661
 40
0.2620126862261126
 40
0.4706748731679918
 40
0.6771810194823871
 40
0.883654710204194
 40
1.0
 40
1.0
 40
1.0
 40
1.0
 10
32.37261580093075
 20
39.53246712953911
 30
0.0
 10
32.36750222756189
 20
39.54905763026529
 30
0.0
 10
32.34237109175934
 20
39.63059320171528
 30
0.0
 10
32.4731256793528
 20
39.76324194759274
 30
0.0
 10
32.75962928558307
 20
39.91392295941964
 30
0.0
 10
33.22682989627957
 20
40.02025109910439
 30
0.0
 10
33.74256544445531
 20
40.07234311557372
 30
0.0
 10
34.12242176610029
 20
40.07712066279919
 30
0.0
 10
34.25932354849144
 20
40.07884251049094
 30
0.0
  0
LINE
  5
135
330
23
100
AcDbEntity
  8
0
  6
Continuous
 62
     7
370
    25
100
AcDbLine
 10
-62.3417284789
 20
37.7721652507
 30
0.0
 11
-62.9935778714
 21
37.7151358186
 31
0.0
  0
LINE
  5
136
330
23
100
AcDbEntity
  8
0
  6
Continuous
 62
     7
370
    25
100
AcDbLine
 10
-45.45
 20
39.25
 30
0.0
 11
-47.3903422679
 21
39.0802420482
 31
0.0
  0
LINE
  5
137
330
23
100
AcDbEntity
  8
0
  6
Continuous
 62
     7
370
    25
100
AcDbLine
 10
-62.9935778714
 20
-37.7151358186
 30
0.0
 11
-45.45
 21
-39.25
 31
0.0
  0
LINE
  5
138
330
23
100
AcDbEntity
  8
0
  6
Continuous
 62
     7
370
    25
100
AcDbLine
 10
32.1380032049
 20
39.25
 30
0.0
 11
-45.45
 21
39.25
 31
0.0
  0
LINE
  5
139
330
23
100
AcDbEntity
  8
0
  6
Continuous
 62
     7
370
    25
100
AcDbLine
 10
-45.45
 20
-39.25
 30
0.0
 11
32.1380032049
 21
-39.25
 31
0.0
  0
LINE
  5
13A
330
23
100
AcDbEntity
  8
0
  6
Continuous
 62
     7
370
    25
100
AcDbLine
 10
-48.45
 20
40.0714677714
 30
0.0
 11
-48.45
 21
56.4
 31
0.0
  0
LINE
  5
13B
330
23
100
AcDbEntity
  8
0
  6
Continuous
 62
     7
370
    25
100
AcDbLine
 10
-61.45
 20
56.4
 30
0.0
 11
-61.45
 21
38.7641409211
 31
0.0
  0
LINE
  5
13C
330
23
100
AcDbEntity
  8
0
  6
Continuous
 62
     7
370
    25
100
AcDbLine
 10
34.5661584247
 20
-39.0994964732
 30
0.0
 11
46.8763887313
 21
-37.5705177051
 31
0.0
  0
LINE
  5
13D
330
23
100
AcDbEntity
  8
0
  6
Continuous
 62
     7
370
    25
100
AcDbLine
 10
36.5369752996
 20
38.8547133065
 30
0.0
 11
34.5661584247
 21
39.0994964732
 31
0.0
  0
LINE
  5
13E
330
23
100
AcDbEntity
  8
0
  6
Continuous
 62
     7
370
    25
100
AcDbLine
 10
46.8763887313
 20
37.5705177051
 30
0.0
 11
45.8420837093
 21
37.6989824355
 31
0.0
  0
LINE
  5
13F
330
23
100
AcDbEntity
  8
0
  6
Continuous
 62
     7
370
    25
100
AcDbLine
 10
45.3555176262
 20
38.597767761
 30
0.0
 11
45.3555176262
 21
56.4
 31
0.0
  0
LINE
  5
140
330
23
100
AcDbEntity
  8
0
  6
Continuous
 62
     7
370
    25
100
AcDbLine
 10
32.3555176262
 20
56.4
 30
0.0
 11
32.3555176262
 21
39.5314937332
 31
0.0
  0
LINE
  5
141
330
23
100
AcDbEntity
  8
0
  6
Continuous
 62
     7
370
    25
100
AcDbLine
 10
-45.45
 20
39.25
 30
0.0
 11
-45.45
 21
-39.25
 31
0.0
  0
LINE
  5
142
330
23
100
AcDbEntity
  8
0
  6
Continuous
 62
     7
370
    25
100
AcDbLine
 10
0.0
 20
39.25
 30
0.0
 11
0.0
 21
-39.25
 31
0.0
  0
LINE
  5
143
330
23
100
AcDbEntity
  8
0
  6
Continuous
 62
     7
370
    25
100
AcDbLine
 10
-63.45
 20
-37.2170384695
 30
0.0
 11
-63.45
 21
37.2170384695
 31
0.0
  0
LINE
  5
144
330
23
100
AcDbEntity
  8
0
  6
Continuous
 62
     7
370
    25
100
AcDbLine
 10
-48.45
 20
56.4
 30
0.0
 11
-61.45
 21
56.4
 31
0.0
  0
LINE
  5
145
330
23
100
AcDbEntity
  8
0
  6
Continuous
 62
     7
370
    25
100
AcDbLine
 10
45.3555176262
 20
56.4
 30
0.0
 11
32.3555176262
 21
56.4
 31
0.0
  0
LINE
  5
146
330
23
100
AcDbEntity
  8
0
  6
Continuous
 62
     8
370
    25
100
AcDbLine
 10
-62.9935778714
 20
37.7151358186
 30
0.0
 11
-62.9935778714
 21
-37.7151358186
 31
0.0
  0
LINE
  5
147
330
23
100
AcDbEntity
  8
0
  6
Continuous
 62
     8
370
    25
100
AcDbLine
 10
42.8478043203
 20
38.4760159956
 30
0.0
 11
43.8555176262
 21
38.4760159956
 31
0.0
  0
LINE
  5
148
330
23
100
AcDbEntity
  8
0
  6
Continuous
 62
     8
370
    25
100
AcDbLine
 10
42.8631137497
 20
38.3891919068
 30
0.0
 11
39.6782273874
 21
38.3891919068
 31
0.0
  0
ARC
  5
149
330
23
100
AcDbEntity
  8
0
  6
Continuous
 62
     7
370
    25
100
AcDbCircle
 10
-62.95
 20
37.2170384695
 30
0.0
 40
0.500000000000005
100
AcDbArc
 50
95.0
 51
180.0
  0
ARC
  5
14A
330
23
100
AcDbEntity
  8
0
  6
Continuous
 62
     7
370
    25
100
AcDbCircle
 10
-62.95
 20
-37.2170384695
 30
0.0
 40
0.500000000000005
100
AcDbArc
 50
180.0
 51
265.0
  0
ARC
  5
14B
330
23
100
AcDbEntity
  8
0
  6
Continuous
 62
     7
370
    25
100
AcDbCircle
 10
43.3555176262
 20
38.4760159956
 30
0.0
 40
0.5
100
AcDbArc
 50
190.0
 51
270.0
  0
ARC
  5
14C
330
23
100
AcDbEntity
  8
0
  6
Continuous
 62
     7
370
    25
100
AcDbCircle
 10
44.2091277539
 20
-17.1439108448
 30
0.0
 40
20.60001332395477
100
AcDbArc
 50
277.439463912
 51
300.513628235
  0
ARC
  5
14D
330
23
100
AcDbEntity
  8
0
  6
Continuous
 62
     7
370
    25
100
AcDbCircle
 10
44.2125096437
 20
17.1579614132
 30
0.0
 40
20.58564320501466
100
AcDbArc
 50
59.7037031738
 51
82.5648061358
  0
VIEWPORT
  5
150
330
23
100
AcDbEntity
  8
0
100
AcDbViewport
 10
0.0
 20
0.0
 30
0.0
 40
205.6
 41
156.0
 68
     1
 69
     1
 12
16.0393960766
 22
8.575
 13
0.0
 23
0.0
 14
10.0
 24
10.0
 15
10.0
 25
10.0
 16
0.0
 26
0.0
 36
1.0
 17
0.0
 27
0.0
 37
0.0
 42
50.0
 43
0.0
 44
0.0
 45
97.563
 50
0.0
 51
0.0
 72
   100
 90
   557152
  1

281
     0
 71
     1
 74
     0
110
0.0
120
0.0
130
0.0
111
1.0
121
0.0
131
0.0
112
0.0
122
1.0
132
0.0
 79
     0
146
0.0
  0
ENDBLK
  5
25
330
23
100
AcDbEntity
  8
0
100
AcDbBlockEnd
  0
ENDSEC
  0
SECTION
  2
ENTITIES
  0
SPLINE
  5
73
330
1F
100
AcDbEntity
  8
0
  6
Continuous
 62
     7
370
    25
100
AcDbSpline
210
0.0
220
0.0
230
1.0
 70
     8
 71
     3
 72
    29
 73
    25
 74
     0
 42
0.000000001
 43
0.00000001
 40
0.0
 40
0.0
 40
0.0
 40
0.0
 40
0.0001167904541194
 40
0.0485008935893597
 40
0.0969215300563826
 40
0.1453755978644288
 40
0.1938588838291982
 40
0.2423666411998791
 40
0.2908940592164708
 40
0.3394366020728209
 40
0.387990222156168
 40
0.436551468229326
 40
0.4851175151182602
 40
0.5336861407001982
 40
0.5822554326824219
 40
0.6308241297341732
 40
0.6793915661533957
 40
0.7279573895924542
 40
0.7765214998107216
 40
0.8250839956471805
 40
0.8736451299977689
 40
0.922205271952971
 40
0.9707648749036561
 40
1.0
 40
1.0
 40
1.0
 40
1.0
 10
54.85160277717026
 20
-34.80615339785646
 30
0.0
 10
54.85275235502834
 20
-34.80553216929431
 30
0.0
 10
55.33015056182474
 20
-34.54754755390306
 30
0.0
 10
56.25349578393742
 20
-33.92866208394089
 30
0.0
 10
57.61350252405952
 20
-32.94375752939543
 30
0.0
 10
58.92685922900964
 20
-31.83739748976838
 30
0.0
 10
60.19442114364703
 20
-30.6310307663882
 30
0.0
 10
61.41060927002142
 20
-29.32381491778243
 30
0.0
 10
62.57179028027014
 20
-27.92133052182046
 30
0.0
 10
63.67405305533581
 20
-26.42785227776615
 30
0.0
 10
64.71382385174597
 20
-24.84839256166217
 30
0.0
 10
65.68771598505509
 20
-23.188124656109
 30
0.0
 10
66.59258152972309
 20
-21.45250946408313
 30
0.0
 10
67.42550516905172
 20
-19.64723772977629
 30
0.0
 10
68.1838149664579
 20
-17.77821891277682
 30
0.0
 10
68.86508691911077
 20
-15.85155615738432
 30
0.0
 10
69.46715396506161
 20
-13.87352404264054
 30
0.0
 10
69.98809534212323
 20
-11.85055128221865
 30
0.0
 10
70.42629002685779
 20
-9.789202871368037
 30
0.0
 10
70.78023310717263
 20
-7.696164110684148
 30
0.0
 10
71.04923898221129
 20
-5.578205406700762
 30
0.0
 10
71.23083265265822
 20
-3.442217042007961
 30
0.0
 10
71.31727740456789
 20
-1.579813223430381
 30
0.0
 10
71.32564690812274
 20
-0.4315248116240656
 30
0.0
 10
71.32879215317419
 20
0.0
 30
0.0
  0
SPLINE
  5
74
330
1F
100
AcDbEntity
  8
0
  6
Continuous
 62
     7
370
    25
100
AcDbSpline
210
0.0
220
0.0
230
1.0
 70
     8
 71
     3
 72
    29
 73
    25
 74
     0
 42
0.000000001
 43
0.00000001
 40
0.0
 40
0.0
 40
0.0
 40
0.0
 40
0.0254608346084279
 40
0.0737411557982788
 40
0.1220271510855445
 40
0.1703146432412668
 40
0.2186041467777355
 40
0.2668961243713852
 40
0.3151909577849447
 40
0.3634889151616407
 40
0.4117901119888341
 40
0.4600944644276538
 40
0.508401634013553
 40
0.5567109633570958
 40
0.6050212293974815
 40
0.6533304791655439
 40
0.7016364528291638
 40
0.7499362549554629
 40
0.7982263195262179
 40
0.8465024257761902
 40
0.8947597914537925
 40
0.9429932718895381
 40
0.9911976884307888
 40
1.0
 40
1.0
 40
1.0
 40
1.0
 10
71.32879215317419
 20
0.0
 30
0.0
 10
71.32635824167066
 20
0.3779513418174403
 30
0.0
 10
71.31930900506309
 20
1.472596085784431
 30
0.0
 10
71.24107017162022
 20
3.281941590500397
 30
0.0
 10
71.06587047880767
 20
5.418977801597847
 30
0.0
 10
70.80329171002424
 20
7.538598162025662
 30
0.0
 10
70.45566488284888
 20
9.63383604113524
 30
0.0
 10
70.02368356871337
 20
11.69792287827471
 30
0.0
 10
69.50881627062691
 20
13.72417310939131
 30
0.0
 10
68.91265663596856
 20
15.70602208993223
 30
0.0
 10
68.23709196449012
 20
17.63704105494493
 30
0.0
 10
67.48425183031215
 20
19.51095746491508
 30
0.0
 10
66.65651524941642
 20
21.32167332906293
 30
0.0
 10
65.7565028003481
 20
23.0632805936643
 30
0.0
 10
64.78707483640548
 20
24.73007818549486
 30
0.0
 10
63.75132290342404
 20
26.31658547742185
 30
0.0
 10
62.65257200631955
 20
27.81759088729834
 30
0.0
 10
61.49434148394838
 20
29.22806358040599
 30
0.0
 10
60.28045901128928
 20
30.54357386167059
 30
0.0
 10
59.01461372042061
 20
31.75880406106921
 30
0.0
 10
57.70198937562453
 20
32.87319978212114
 30
0.0
 10
56.34312926454252
 20
33.86999506405688
 30
0.0
 10
55.3341826237958
 20
34.54283974900412
 30
0.0
 10
54.76974784069856
 20
34.84755253683824
 30
0.0
 10
54.68259442940833
 20
34.89460271822106
 30
0.0
  0
SPLINE
  5
7B
330
1F
100
AcDbEntity
  8
0
  6
Continuous
 62
     7
370
    25
100
AcDbSpline
210
0.0
220
0.0
230
1.0
 70
     8
 71
     3
 72
    12
 73
     8
 74
     0
 42
0.000000001
 43
0.00000001
 40
0.0
 40
0.0
 40
0.0
 40
0.0
 40
0.2169269679928038
 40
0.4776567980190625
 40
0.7191800639278122
 40
0.9654456534481922
 40
1.0
 40
1.0
 40
1.0
 40
1.0
 10
32.34581576248506
 20
39.53209603469571
 30
0.0
 10
32.34222200399741
 20
39.44755555642995
 30
0.0
 10
32.33430881926088
 20
39.26140380902363
 30
0.0
 10
32.20080538186966
 20
39.04427231734267
 30
0.0
 10
32.09004281047993
 20
38.93682445030006
 30
0.0
 10
32.03529820812666
 20
38.90957676271667
 30
0.0
 10
32.04821758247438
 20
38.91492241367391
 30
0.0
 10
32.04980728634186
 20
38.91558018561953
 30
0.0
  0
SPLINE
  5
7C
330
1F
100
AcDbEntity
  8
0
  6
Continuous
 62
     7
370
    25
100
AcDbSpline
210
0.0
220
0.0
230
1.0
 70
     8
 71
     3
 72
    13
 73
     9
 74
     0
 42
0.000000001
 43
0.00000001
 40
0.0
 40
0.0
 40
0.0
 40
0.0
 40
0.141412980443062
 40
0.3001089267313465
 40
0.453416054610234
 40
0.6270733916011865
 40
0.8181882116146548
 40
1.0
 40
1.0
 40
1.0
 40
1.0
 10
45.99418397746511
 20
37.6788514865702
 30
0.0
 10
45.98374273908234
 20
37.68195538887324
 30
0.0
 10
45.96158417319272
 20
37.68854254081592
 30
0.0
 10
45.85639465301608
 20
37.73331352830512
 30
0.0
 10
45.68968589700099
 20
37.84317557106532
 30
0.0
 10
45.51312242770171
 20
38.03665123967228
 30
0.0
 10
45.37853469703689
 20
38.30089737796655
 30
0.0
 10
45.36631374526506
 20
38.50282796705572
 30
0.0
 10
45.36035570138361
 20
38.60127458015645
 30
0.0
  0
LWPOLYLINE
  5
81
330
1F
100
AcDbEntity
  8
0
  6
Continuous
 62
     7
370
    25
100
AcDbPolyline
 90
      105
 70
   128
 43
0.0
 10
71.1823455438
 20
0.0
 10
71.1343326619
 20
2.2471088613
 10
70.9904692102
 20
4.4860182661
 10
70.7512801308
 20
6.7085586766
 10
70.4176381987
 20
8.9066202841
 10
69.990760837
 20
11.0721826001
 10
69.4722056751
 20
13.1973437225
 10
68.8638648644
 20
15.2743491689
 10
68.1679581746
 20
17.2956201716
 10
67.3870248938
 20
19.253781332
 10
66.5239145627
 20
21.1416875323
 10
65.5817765775
 20
22.9524500075
 10
64.5640486974
 20
24.6794614818
 10
63.474444501
 20
26.3164202775
 10
62.3169398361
 20
27.8573533095
 10
61.0957583114
 20
29.2966378804
 10
59.8153558861
 20
30.6290221968
 10
58.4804046096
 20
31.8496445327
 10
57.0957755745
 20
32.9540509698
 10
55.6665211418
 20
33.9382116486
 10
54.1978565061
 20
34.7985354737
 10
52.6951406654
 20
35.5318832165
 10
51.1638568667
 20
36.1355789708
 10
49.6095925985
 20
36.6074199162
 10
48.0380192027
 20
36.9456843563
 10
46.4548711802
 20
37.1491380009
 10
44.8659252663
 20
37.2170384695
 10
43.2769793524
 20
37.1491380009
 10
41.6938313298
 20
36.9456843563
 10
40.122257934
 20
36.6074199162
 10
38.5679936659
 20
36.1355789708
 10
37.0367098672
 20
35.5318832165
 10
35.5339940264
 20
34.7985354737
 10
34.0653293907
 20
33.9382116486
 10
32.6360749581
 20
32.9540509698
 10
31.251445923
 20
31.8496445327
 10
29.9164946465
 20
30.6290221968
 10
28.6360922211
 20
29.2966378804
 10
27.4149106965
 20
27.8573533095
 10
26.2574060315
 20
26.3164202775
 10
25.1678018352
 20
24.6794614818
 10
24.1500739551
 20
22.9524500075
 10
23.2079359698
 20
21.1416875323
 10
22.3448256388
 20
19.253781332
 10
21.563892358
 20
17.2956201716
 10
20.8679856682
 20
15.2743491689
 10
20.2596448575
 20
13.1973437225
 10
19.7410896956
 20
11.0721826001
 10
19.3142123339
 20
8.9066202841
 10
18.9805704018
 20
6.7085586766
 10
18.7413813223
 20
4.4860182661
 10
18.5975178706
 20
2.2471088613
 10
18.5495049888
 20
0.0
 10
18.5975178706
 20
-2.2471088613
 10
18.7413813223
 20
-4.4860182661
 10
18.9805704018
 20
-6.7085586766
 10
19.3142123339
 20
-8.9066202842
 10
19.7410896956
 20
-11.0721826001
 10
20.2596448575
 20
-13.1973437225
 10
20.8679856682
 20
-15.2743491689
 10
21.563892358
 20
-17.2956201716
 10
22.3448256388
 20
-19.253781332
 10
23.2079359698
 20
-21.1416875323
 10
24.1500739551
 20
-22.9524500075
 10
25.1678018352
 20
-24.6794614818
 10
26.2574060315
 20
-26.3164202775
 10
27.4149106965
 20
-27.8573533095
 10
28.6360922211
 20
-29.2966378804
 10
29.9164946465
 20
-30.6290221968
 10
31.251445923
 20
-31.8496445327
 10
32.6360749581
 20
-32.9540509698
 10
34.0653293907
 20
-33.9382116486
 10
35.5339940264
 20
-34.7985354737
 10
37.0367098672
 20
-35.5318832165
 10
38.5679936659
 20
-36.1355789708
 10
40.122257934
 20
-36.6074199162
 10
41.6938313298
 20
-36.9456843563
 10
43.2769793524
 20
-37.1491380009
 10
44.8659252663
 20
-37.2170384695
 10
46.4548711802
 20
-37.1491380009
 10
48.0380192027
 20
-36.9456843563
 10
49.6095925985
 20
-36.6074199162
 10
51.1638568667
 20
-36.1355789708
 10
52.6951406654
 20
-35.5318832165
 10
54.1978565061
 20
-34.7985354737
 10
55.6665211418
 20
-33.9382116486
 10
57.0957755745
 20
-32.9540509698
 10
58.4804046096
 20
-31.8496445327
 10
59.8153558861
 20
-30.6290221968
 10
61.0957583114
 20
-29.2966378804
 10
62.3169398361
 20
-27.8573533095
 10
63.474444501
 20
-26.3164202775
 10
64.5640486974
 20
-24.6794614818
 10
65.5817765775
 20
-22.9524500075
 10
66.5239145627
 20
-21.1416875323
 10
67.3870248938
 20
-19.253781332
 10
68.1679581746
 20
-17.2956201716
 10
68.8638648644
 20
-15.2743491689
 10
69.4722056751
 20
-13.1973437225
 10
69.990760837
 20
-11.0721826001
 10
70.4176381987
 20
-8.9066202841
 10
70.7512801308
 20
-6.7085586766
 10
70.9904692102
 20
-4.4860182661
 10
71.1343326619
 20
-2.2471088613
 10
71.1823455438
 20
0.0
  0
LWPOLYLINE
  5
84
330
1F
100
AcDbEntity
  8
0
  6
Continuous
 62
     7
370
    25
100
AcDbPolyline
 90
       56
 70
   128
 43
0.0
 10
34.5661584247
 20
-39.0994964732
 10
32.9604448417
 20
-39.232762833
 10
31.3155615681
 20
-39.232762833
 10
29.6735671507
 20
-39.0949563226
 10
28.0402291549
 20
-38.8198273524
 10
26.4212847398
 20
-38.4083423228
 10
24.8224205069
 20
-37.8619465899
 10
23.249252525
 20
-37.1825593888
 10
21.707306604
 20
-36.3725670917
 10
20.2019988853
 20
-35.4348148262
 10
18.7386168171
 20
-34.3725964812
 10
17.3223005822
 20
-33.1896431374
 10
15.9580250432
 20
-31.8901099617
 10
14.6505822675
 20
-30.4785616117
 10
13.4045646957
 20
-28.9599562024
 10
12.2243490099
 20
-27.3396278907
 10
11.1140807607
 20
-25.623268139
 10
10.0776598059
 20
-23.8169057234
 10
9.1187266119
 20
-21.9268855578
 10
8.2406494664
 20
-19.959846407
 10
7.4465126475
 20
-17.9226975677
 10
6.7391055897
 20
-15.8225945996
 10
6.1209130861
 20
-13.6669141908
 10
5.5941065604
 20
-11.4632282475
 10
5.1605364398
 20
-9.2192772969
 10
4.8217256551
 20
-6.9429432986
 10
4.5788642916
 20
-4.6422219587
 10
4.4328054086
 20
-2.3251946448
 10
4.3840620434
 20
0.0
 10
4.4328054086
 20
2.3251946448
 10
4.5788642916
 20
4.6422219587
 10
4.8217256552
 20
6.9429432986
 10
5.1605364398
 20
9.2192772969
 10
5.5941065604
 20
11.4632282475
 10
6.1209130861
 20
13.6669141908
 10
6.7391055897
 20
15.8225945996
 10
7.4465126475
 20
17.9226975677
 10
8.2406494664
 20
19.959846407
 10
9.1187266119
 20
21.9268855578
 10
10.0776598059
 20
23.8169057234
 10
11.1140807607
 20
25.623268139
 10
12.2243490099
 20
27.3396278907
 10
13.4045646957
 20
28.9599562024
 10
14.6505822675
 20
30.4785616117
 10
15.9580250432
 20
31.8901099617
 10
17.3223005822
 20
33.1896431374
 10
18.7386168171
 20
34.3725964812
 10
20.2019988853
 20
35.4348148262
 10
21.707306604
 20
36.3725670917
 10
23.249252525
 20
37.1825593888
 10
24.8224205069
 20
37.8619465899
 10
26.4212847398
 20
38.4083423228
 10
28.0402291549
 20
38.8198273524
 10
29.6735671507
 20
39.0949563226
 10
31.3155615681
 20
39.232762833
 10
32.2864830348
 20
39.2494383078
  0
SPLINE
  5
85
330
1F
100
AcDbEntity
  8
0
  6
Continuous
 62
     7
370
    25
100
AcDbSpline
210
0.0
220
0.0
230
1.0
 70
     8
 71
     3
 72
    15
 73
    11
 74
     0
 42
0.000000001
 43
0.00000001
 40
0.0
 40
0.0
 40
0.0
 40
0.0
 40
0.0775017140870751
 40
0.2026764519833796
 40
0.3865131274201774
 40
0.5071964435191139
 40
0.631575137211004
 40
0.7527084810438143
 40
0.8774762827567756
 40
1.0
 40
1.0
 40
1.0
 40
1.0
 10
46.12394637338162
 20
37.64433208750351
 30
0.0
 10
46.09456110489727
 20
37.65427149089234
 30
0.0
 10
46.01771503733423
 20
37.6802642452128
 30
0.0
 10
45.59754914325875
 20
37.72990424851402
 30
0.0
 10
44.87866282493199
 20
37.76667869496767
 30
0.0
 10
43.90691927407133
 20
37.77329877217981
 30
0.0
 10
42.93548837924833
 20
37.75740841056948
 30
0.0
 10
41.837714751674
 20
37.72275765642285
 30
0.0
 10
40.66434879090193
 20
37.67565236824068
 30
0.0
 10
39.84278556688147
 20
37.64386583979274
 30
0.0
 10
39.43573165503602
 20
37.62811680141026
 30
0.0
  0
LWPOLYLINE
  5
86
330
1F
100
AcDbEntity
  8
0
  6
Continuous
 62
     7
370
    25
100
AcDbPolyline
 90
       99
 70
   128
 43
0.0
 10
68.2993848911
 20
0.0
 10
68.2512642917
 20
-2.1221370368
 10
68.1071002314
 20
-4.2355537573
 10
67.8674851113
 20
-6.3315656789
 10
67.5334035612
 20
-8.401559839
 10
67.1062283939
 20
-10.4370301876
 10
66.5877149639
 20
-12.4296125404
 10
65.9799939539
 20
-14.3711189491
 10
65.2855626201
 20
-16.2535713475
 10
64.5072745296
 20
-18.0692343348
 10
63.6483278353
 20
-19.8106469625
 10
62.7122521333
 20
-21.4706533923
 10
61.7028939594
 20
-23.042432302
 10
60.624400983
 20
-24.5195249147
 10
59.4812049629
 20
-25.8958615402
 10
58.2780035369
 20
-27.1657865159
 10
57.0197409177
 20
-28.3240814478
 10
55.7115875763
 20
-29.3659866535
 10
54.3589189953
 20
-30.2872207211
 10
52.9672935802
 20
-31.0839981021
 10
51.5424298182
 20
-31.7530446675
 10
50.0901827802
 20
-32.2916111613
 10
48.6165200607
 20
-32.6974844983
 10
47.1274972561
 20
-32.9689968579
 10
45.6292330803
 20
-33.1050325376
 10
44.1278842222
 20
-33.1050325376
 10
42.6296200465
 20
-32.9689968579
 10
41.1405972418
 20
-32.6974844983
 10
39.6669345224
 20
-32.2916111613
 10
38.2146874843
 20
-31.7530446675
 10
36.7898237224
 20
-31.0839981021
 10
35.3981983072
 20
-30.2872207211
 10
34.0455297263
 20
-29.3659866535
 10
32.7373763848
 20
-28.3240814478
 10
31.4791137656
 20
-27.1657865159
 10
30.2759123396
 20
-25.8958615402
 10
29.1327163196
 20
-24.5195249147
 10
28.0542233431
 20
-23.042432302
 10
27.0448651693
 20
-21.4706533923
 10
26.1087894673
 20
-19.8106469625
 10
25.2498427729
 20
-18.0692343348
 10
24.4715546825
 20
-16.2535713475
 10
23.7771233486
 20
-14.3711189491
 10
23.1694023387
 20
-12.4296125404
 10
22.6508889086
 20
-10.4370301876
 10
22.2237137413
 20
-8.401559839
 10
21.8896321913
 20
-6.3315656789
 10
21.6500170711
 20
-4.2355537573
 10
21.5058530108
 20
-2.1221370368
 10
21.4577324114
 20
0.0
 10
21.5058530108
 20
2.1221370368
 10
21.6500170711
 20
4.2355537573
 10
21.8896321913
 20
6.3315656789
 10
22.2237137413
 20
8.401559839
 10
22.6508889086
 20
10.4370301876
 10
23.1694023387
 20
12.4296125404
 10
23.7771233486
 20
14.3711189491
 10
24.4715546825
 20
16.2535713475
 10
25.2498427729
 20
18.0692343348
 10
26.1087894673
 20
19.8106469625
 10
27.0448651693
 20
21.4706533923
 10
28.0542233431
 20
23.042432302
 10
29.1327163196
 20
24.5195249147
 10
30.2759123396
 20
25.8958615402
 10
31.4791137656
 20
27.1657865159
 10
32.7373763848
 20
28.3240814478
 10
34.0455297263
 20
29.3659866535
 10
35.3981983072
 20
30.2872207211
 10
36.7898237224
 20
31.0839981021
 10
38.2146874843
 20
31.7530446675
 10
39.6669345224
 20
32.2916111613
 10
41.1405972418
 20
32.6974844983
 10
42.6296200465
 20
32.9689968579
 10
44.1278842223
 20
33.1050325376
 10
45.6292330803
 20
33.1050325376
 10
47.1274972561
 20
32.9689968579
 10
48.6165200607
 20
32.6974844983
 10
50.0901827802
 20
32.2916111613
 10
51.5424298182
 20
31.7530446675
 10
52.9672935802
 20
31.0839981021
 10
54.3589189953
 20
30.2872207211
 10
55.7115875763
 20
29.3659866535
 10
57.0197409177
 20
28.3240814478
 10
58.2780035369
 20
27.1657865159
 10
59.4812049629
 20
25.8958615402
 10
60.624400983
 20
24.5195249147
 10
61.7028939594
 20
23.042432302
 10
62.7122521333
 20
21.4706533923
 10
63.6483278353
 20
19.8106469625
 10
64.5072745296
 20
18.0692343348
 10
65.2855626201
 20
16.2535713475
 10
65.9799939539
 20
14.3711189491
 10
66.5877149639
 20
12.4296125404
 10
67.1062283939
 20
10.4370301876
 10
67.5334035612
 20
8.401559839
 10
67.8674851113
 20
6.3315656789
 10
68.1071002314
 20
4.2355537573
 10
68.2512642917
 20
2.1221370368
 10
68.2993848911
 20
0.0
  0
LWPOLYLINE
  5
87
330
1F
100
AcDbEntity
  8
0
  6
Continuous
 62
     7
370
    25
100
AcDbPolyline
 90
       27
 70
   128
 43
0.0
 10
68.2976132377
 20
0.0
 10
68.2494929182
 20
2.1221246914
 10
68.1053296966
 20
4.2355291173
 10
67.8657159704
 20
6.3315288455
 10
67.5316363638
 20
8.4015109636
 10
67.1044636816
 20
10.4369694711
 10
66.5859532679
 20
12.4295402322
 10
65.9782357933
 20
14.3710353464
 10
65.2838084993
 20
16.2534767938
 10
64.5055249365
 20
18.0691292186
 10
63.646583239
 20
19.8105317158
 10
62.7105129825
 20
21.4705284887
 10
61.7011606805
 20
23.0422982546
 10
60.6226739781
 20
24.5193822745
 10
59.4794846085
 20
25.8957108932
 10
58.276290182
 20
27.1656284813
 10
57.0180348826
 20
28.3239166749
 10
55.7098891512
 20
29.3658158194
 10
54.3572284393
 20
30.2870445278
 10
52.9656111199
 20
31.0838172737
 10
51.5407556469
 20
31.7528599469
 10
50.0885170572
 20
32.2914233076
 10
48.6148629107
 20
32.6972942835
 10
47.1258487683
 20
32.9688050636
 10
45.6275933085
 20
33.104839952
 10
44.1262531844
 20
33.104839952
 10
42.925702005
 20
33.0067100854
  0
LWPOLYLINE
  5
88
330
1F
100
AcDbEntity
  8
0
  6
Continuous
 62
     7
370
    25
100
AcDbPolyline
 90
       27
 70
   128
 43
0.0
 10
42.925702005
 20
-33.0067100854
 10
44.1262531844
 20
-33.104839952
 10
45.6275933085
 20
-33.104839952
 10
47.1258487683
 20
-32.9688050636
 10
48.6148629107
 20
-32.6972942835
 10
50.0885170572
 20
-32.2914233076
 10
51.5407556469
 20
-31.7528599469
 10
52.9656111199
 20
-31.0838172737
 10
54.3572284393
 20
-30.2870445278
 10
55.7098891512
 20
-29.3658158194
 10
57.0180348826
 20
-28.3239166749
 10
58.276290182
 20
-27.1656284813
 10
59.4794846085
 20
-25.8957108932
 10
60.6226739781
 20
-24.5193822745
 10
61.7011606805
 20
-23.0422982546
 10
62.7105129825
 20
-21.4705284887
 10
63.646583239
 20
-19.8105317158
 10
64.5055249365
 20
-18.0691292186
 10
65.2838084993
 20
-16.2534767938
 10
65.9782357933
 20
-14.3710353464
 10
66.5859532679
 20
-12.4295402322
 10
67.1044636816
 20
-10.4369694711
 10
67.5316363638
 20
-8.4015109636
 10
67.8657159704
 20
-6.3315288455
 10
68.1053296966
 20
-4.2355291173
 10
68.2494929182
 20
-2.1221246914
 10
68.2976132377
 20
0.0
  0
LWPOLYLINE
  5
89
330
1F
100
AcDbEntity
  8
0
  6
Continuous
 62
     7
370
    25
100
AcDbPolyline
 90
       98
 70
   128
 43
0.0
 10
67.5783829963
 20
0.0
 10
67.5300330793
 20
2.1104773872
 10
67.3851861248
 20
4.2121026987
 10
67.1444496711
 20
6.2960609878
 10
66.8088334507
 20
8.353611409
 10
66.3797451545
 20
10.3761238808
 10
65.8589845281
 20
12.3551152832
 10
65.2487358225
 20
14.2822850384
 10
64.5515586328
 20
16.1495499266
 10
63.7703771624
 20
17.9490779901
 10
62.9084679579
 20
19.6733213828
 10
61.9694461661
 20
21.3150480286
 10
60.9572503706
 20
22.8673719555
 10
59.8761260725
 20
24.3237821775
 10
58.7306078827
 20
25.6781700038
 10
57.5255005025
 20
26.9248546614
 10
56.2658585713
 20
28.0586071215
 10
54.9569654649
 20
29.0746720323
 10
53.604311136
 20
29.9687876643
 10
52.2135690869
 20
30.7372037861
 10
50.790572573
 20
31.3766973932
 10
49.3412901362
 20
31.8845862273
 10
47.8718005708
 20
32.2587400261
 10
46.3882674267
 20
32.4975894585
 10
44.8969131575
 20
32.600132707
 10
43.4039930212
 20
32.5659396695
 10
41.9157688437
 20
32.3951537637
 10
40.4384827544
 20
32.0884913248
 10
38.9783310045
 20
31.6472386018
 10
37.541437978
 20
31.0732463619
 10
36.1338305036
 20
30.368922128
 10
34.7614125761
 20
29.5372200808
 10
33.4299405933
 20
28.5816286677
 10
32.1449992115
 20
27.5061559711
 10
30.9119779213
 20
26.3153128973
 10
29.7360484425
 20
25.014094256
 10
28.622143032
 20
23.6079578103
 10
27.5749337963
 20
22.1028013853
 10
26.5988130947
 20
20.50493813
 10
25.6978751168
 20
18.8210700382
 10
24.8758987095
 20
17.0582598379
 10
24.1363315275
 20
15.2239013676
 10
23.4822755727
 20
13.3256885644
 10
22.9164741829
 20
11.3715831922
 10
22.4413005258
 20
9.3697814483
 10
22.058747645
 20
7.3286795848
 10
21.7704201
 20
5.2568386922
 10
21.5775272369
 20
3.1629487912
 10
21.4808781154
 20
1.0557923838
 10
21.4808781154
 20
-1.0557923838
 10
21.5775272369
 20
-3.1629487912
 10
21.7704201
 20
-5.2568386922
 10
22.058747645
 20
-7.3286795848
 10
22.4413005258
 20
-9.3697814483
 10
22.9164741829
 20
-11.3715831922
 10
23.4822755727
 20
-13.3256885644
 10
24.1363315275
 20
-15.2239013676
 10
24.8758987095
 20
-17.0582598379
 10
25.6978751168
 20
-18.8210700382
 10
26.5988130947
 20
-20.50493813
 10
27.5749337963
 20
-22.1028013853
 10
28.622143032
 20
-23.6079578103
 10
29.7360484425
 20
-25.014094256
 10
30.9119779213
 20
-26.3153128973
 10
32.1449992115
 20
-27.5061559711
 10
33.4299405933
 20
-28.5816286677
 10
34.7614125761
 20
-29.5372200808
 10
36.1338305036
 20
-30.368922128
 10
37.541437978
 20
-31.0732463619
 10
38.9783310045
 20
-31.6472386018
 10
40.4384827544
 20
-32.0884913248
 10
41.9157688437
 20
-32.3951537637
 10
43.4039930212
 20
-32.5659396695
 10
44.8969131575
 20
-32.600132707
 10
46.3882674267
 20
-32.4975894585
 10
47.8718005708
 20
-32.2587400261
 10
49.3412901362
 20
-31.8845862273
 10
50.790572573
 20
-31.3766973932
 10
52.2135690869
 20
-30.7372037861
 10
53.604311136
 20
-29.9687876643
 10
54.9569654649
 20
-29.0746720323
 10
56.2658585713
 20
-28.0586071215
 10
57.5255005025
 20
-26.9248546614
 10
58.7306078827
 20
-25.6781700038
 10
59.8761260725
 20
-24.3237821775
 10
60.9572503706
 20
-22.8673719555
 10
61.9694461661
 20
-21.3150480286
 10
62.9084679579
 20
-19.6733213828
 10
63.7703771624
 20
-17.9490779901
 10
64.5515586328
 20
-16.1495499266
 10
65.2487358225
 20
-14.2822850384
 10
65.8589845281
 20
-12.3551152832
 10
66.3797451545
 20
-10.3761238808
 10
66.8088334507
 20
-8.353611409
 10
67.1444496711
 20
-6.2960609878
 10
67.3851861248
 20
-4.2121026987
 10
67.5300330793
 20
-2.1104773872
 10
67.5783829963
 20
0.0
  0
LWPOLYLINE
  5
8A
330
1F
100
AcDbEntity
  8
0
  6
Continuous
 62
     7
370
    25
100
AcDbPolyline
 90
       24
 70
   128
 43
0.0
 10
60.4686277716
 20
0.0
 10
60.4201050364
 20
2.0961702918
 10
60.2747446126
 20
4.1833644607
 10
60.0331689559
 20
6.2526448206
 10
59.6964125302
 20
8.2951503955
 10
59.2659173784
 20
10.302134863
 10
58.7435269467
 20
12.2650040073
 10
58.1314781912
 20
14.1753525215
 10
57.4323919986
 20
16.025
 10
56.6492619634
 20
17.8060259683
 10
55.7854415684
 20
19.5108037997
 10
54.8446298254
 20
21.132033374
 10
53.8308554346
 20
22.662772337
 10
52.7484595336
 20
24.0964658297
 10
51.6020771078
 20
25.4269745563
 10
50.3966171427
 20
26.6486010743
 10
49.1372416031
 20
27.7561141913
 10
47.8293433283
 20
28.7447713661
 10
46.4785229394
 20
29.610339017
 10
45.0905648569
 20
30.3491106503
 10
43.6714125302
 20
30.9579227326
 10
42.2271429876
 20
31.4341682369
 10
40.7639408129
 20
31.775807807
 10
39.8307540571
 20
31.9218118398
  0
LWPOLYLINE
  5
8B
330
1F
100
AcDbEntity
  8
0
  6
Continuous
 62
     7
370
    25
100
AcDbPolyline
 90
       24
 70
   128
 43
0.0
 10
39.8307540571
 20
-31.9218118398
 10
40.7639408129
 20
-31.775807807
 10
42.2271429876
 20
-31.4341682369
 10
43.6714125302
 20
-30.9579227326
 10
45.0905648569
 20
-30.3491106503
 10
46.4785229394
 20
-29.610339017
 10
47.8293433283
 20
-28.7447713661
 10
49.1372416031
 20
-27.7561141913
 10
50.3966171427
 20
-26.6486010743
 10
51.6020771078
 20
-25.4269745563
 10
52.7484595336
 20
-24.0964658297
 10
53.8308554346
 20
-22.662772337
 10
54.8446298254
 20
-21.132033374
 10
55.7854415684
 20
-19.5108037997
 10
56.6492619634
 20
-17.8060259683
 10
57.4323919986
 20
-16.025
 10
58.1314781912
 20
-14.1753525215
 10
58.7435269467
 20
-12.2650040073
 10
59.2659173784
 20
-10.302134863
 10
59.6964125302
 20
-8.2951503955
 10
60.0331689559
 20
-6.2526448206
 10
60.2747446126
 20
-4.1833644607
 10
60.4201050364
 20
-2.0961702918
 10
60.4686277716
 20
0.0
  0
LWPOLYLINE
  5
8C
330
1F
100
AcDbEntity
  8
0
  6
Continuous
 62
     7
370
    25
100
AcDbPolyline
 90
       54
 70
   128
 43
0.0
 10
0.0
 20
39.25
 10
-1.6441609009
 20
39.1810664717
 10
-3.2825466267
 20
38.9745080185
 10
-4.9094022878
 20
38.6310501844
 10
-6.5190134943
 20
38.1518993777
 10
-8.1057264281
 20
37.5387386329
 10
-9.6639677022
 20
36.7937216995
 10
-11.1882639373
 20
35.9194654768
 10
-12.6732609873
 20
34.9190408215
 10
-14.1137427458
 20
33.7959617619
 10
-15.5046494682
 20
32.5541731539
 10
-16.8410955439
 20
31.1980368255
 10
-18.1183866572
 20
29.7323162548
 10
-19.3320362766
 20
28.162159839
 10
-20.4777814136
 20
26.4930828096
 10
-21.5515975964
 20
24.7309478606
 10
-22.5497130067
 20
22.8819445552
 10
-23.4686217277
 20
20.9525675851
 10
-24.3050960588
 20
18.9495939572
 10
-25.0561978537
 20
16.8800591894
 10
-25.7192888397
 20
14.751232598
 10
-26.2920398857
 20
12.5705917641
 10
-26.7724391826
 20
10.3457962682
 10
-27.1587993106
 20
8.0846607856
 10
-27.4497631654
 20
5.7951276371
 10
-27.6443087259
 20
3.4852388914
 10
-27.7417526439
 20
1.163108117
 10
-27.7417526439
 20
-1.163108117
 10
-27.6443087259
 20
-3.4852388914
 10
-27.4497631654
 20
-5.7951276371
 10
-27.1587993106
 20
-8.0846607856
 10
-26.7724391826
 20
-10.3457962682
 10
-26.2920398857
 20
-12.5705917641
 10
-25.7192888397
 20
-14.751232598
 10
-25.0561978537
 20
-16.8800591894
 10
-24.3050960588
 20
-18.9495939572
 10
-23.4686217277
 20
-20.9525675851
 10
-22.5497130067
 20
-22.8819445552
 10
-21.5515975964
 20
-24.7309478606
 10
-20.4777814136
 20
-26.4930828096
 10
-19.3320362766
 20
-28.162159839
 10
-18.1183866572
 20
-29.7323162548
 10
-16.8410955439
 20
-31.1980368255
 10
-15.5046494682
 20
-32.5541731539
 10
-14.1137427458
 20
-33.7959617619
 10
-12.6732609873
 20
-34.9190408215
 10
-11.1882639373
 20
-35.9194654768
 10
-9.6639677022
 20
-36.7937216995
 10
-8.1057264281
 20
-37.5387386329
 10
-6.5190134943
 20
-38.1518993777
 10
-4.9094022878
 20
-38.6310501844
 10
-3.2825466267
 20
-38.9745080185
 10
-1.6441609009
 20
-39.1810664717
 10
0.0
 20
-39.25
  0
SPLINE
  5
94
330
1F
100
AcDbEntity
  8
0
  6
Continuous
 62
     7
370
    25
100
AcDbSpline
210
0.0
220
0.0
230
1.0
 70
     8
 71
     3
 72
     9
 73
     5
 74
     0
 42
0.000000001
 43
0.00000001
 40
0.0
 40
0.0
 40
0.0
 40
0.0
 40
0.2083196519609682
 40
1.0
 40
1.0
 40
1.0
 40
1.0
 10
25.46313859098901
 20
18.24751790463533
 30
0.0
 10
25.60609511342907
 20
17.98273070172255
 30
0.0
 10
26.29233148668701
 20
16.71166865635016
 30
0.0
 10
26.82205500108724
 20
15.29155582483531
 30
0.0
 10
27.24142669733208
 20
14.16728040412693
 30
0.0
  0
SPLINE
  5
97
330
1F
100
AcDbEntity
  8
0
  6
Continuous
 62
     7
370
    25
100
AcDbSpline
210
0.0
220
0.0
230
1.0
 70
     8
 71
     3
 72
     9
 73
     5
 74
     0
 42
0.000000001
 43
0.00000001
 40
0.0
 40
0.0
 40
0.0
 40
0.0
 40
0.688389761032631
 40
1.0
 40
1.0
 40
1.0
 40
1.0
 10
27.24142669733045
 20
-14.1672804041321
 30
0.0
 10
26.87452877258059
 20
-15.15338705705446
 30
0.0
 10
26.34154884533779
 20
-16.58587009027553
 30
0.0
 10
25.65584189141086
 20
-17.87622532347801
 30
0.0
 10
25.44216858363609
 20
-18.27831322604903
 30
0.0
  0
LWPOLYLINE
  5
9E
330
1F
100
AcDbEntity
  8
0
  6
Continuous
 62
     8
370
    25
100
AcDbPolyline
 90
       49
 70
   128
 43
0.0
 10
40.17949561
 20
-37.2068257274
 10
39.7360314831
 20
-37.0973583844
 10
38.160965589
 20
-36.6192025162
 10
36.6091877254
 20
-36.0074271492
 10
35.0863601615
 20
-35.2642645854
 10
33.5980395297
 20
-34.3924265445
 10
32.1496565507
 20
-33.3950942689
 10
30.746496217
 20
-32.2759069158
 10
29.3936785084
 20
-31.0389482787
 10
28.0961397101
 20
-29.6887318853
 10
26.8586144003
 20
-28.2301845289
 10
25.6856181748
 20
-26.6686282907
 10
24.5814311695
 20
-25.0097611199
 10
23.5500824431
 20
-23.2596360431
 10
22.5953352753
 20
-21.4246390767
 10
21.7206734349
 20
-19.5114659258
 10
20.9292884682
 20
-17.5270975517
 10
20.224068053
 20
-15.4787746993
 10
19.6075854621
 20
-13.3739714767
 10
19.0820901738
 20
-11.2203680826
 10
18.6494996632
 20
-9.0258227821
 10
18.3113924064
 20
-6.7983432331
 10
18.0690021199
 20
-4.5460572669
 10
17.9232132596
 20
-2.2771832308
 10
17.8745577934
 20
0.0
 10
17.9232132596
 20
2.2771832308
 10
18.0690021199
 20
4.5460572669
 10
18.3113924064
 20
6.7983432331
 10
18.6494996632
 20
9.0258227821
 10
19.0820901738
 20
11.2203680826
 10
19.6075854621
 20
13.3739714767
 10
20.224068053
 20
15.4787746993
 10
20.9292884682
 20
17.5270975517
 10
21.7206734349
 20
19.5114659258
 10
22.5953352753
 20
21.4246390767
 10
23.5500824431
 20
23.2596360431
 10
24.5814311695
 20
25.0097611199
 10
25.6856181748
 20
26.6686282907
 10
26.8586144003
 20
28.2301845289
 10
28.0961397101
 20
29.6887318853
 10
29.3936785084
 20
31.0389482787
 10
30.746496217
 20
32.2759069158
 10
32.1496565507
 20
33.3950942689
 10
33.5980395297
 20
34.3924265445
 10
35.0863601615
 20
35.2642645855
 10
36.6091877254
 20
36.0074271492
 10
38.160965589
 20
36.6192025162
 10
39.7360314831
 20
37.0973583844
 10
39.7676272511
 20
37.1055190703
  0
LWPOLYLINE
  5
9F
330
1F
100
AcDbEntity
  8
0
  6
Continuous
 62
     8
370
    25
100
AcDbPolyline
 90
       15
 70
   128
 43
0.0
 10
39.435731655
 20
37.6281168014
 10
38.1743715287
 20
37.5882971057
 10
36.958414998
 20
37.5688513092
 10
35.764813183
 20
37.5791705074
 10
34.6970157956
 20
37.6253408697
 10
33.7180546027
 20
37.713233248
 10
32.9104218656
 20
37.8362611863
 10
32.2443966122
 20
37.9963457475
 10
31.7671358944
 20
38.1784716755
 10
31.4733793657
 20
38.3790401696
 10
31.387717459
 20
38.5766341078
 10
31.5171534562
 20
38.7638873457
 10
31.8509294319
 20
38.9139610404
 10
32.404555077
 20
39.0240296967
 10
33.4905883506
 20
39.0826478124
  0
SPLINE
  5
A2
330
1F
100
AcDbEntity
  8
0
  6
Continuous
 62
     8
370
    25
100
AcDbSpline
210
0.0
220
0.0
230
1.0
 70
     8
 71
     3
 72
    26
 73
    22
 74
     0
 42
0.000000001
 43
0.00000001
 40
0.0
 40
0.0
 40
0.0
 40
0.0
 40
0.0451515161569107
 40
0.098803817684364
 40
0.1524514951949194
 40
0.2052335938482795
 40
0.2580080989803639
 40
0.3110345520916762
 40
0.3640595768316858
 40
0.4176021030921529
 40
0.4711488848107338
 40
0.5246261564665747
 40
0.5781051784621493
 40
0.6314034138512753
 40
0.6846997826618348
 40
0.7379958766931269
 40
0.7912915585338606
 40
0.8711473851596931
 40
0.9244532688630459
 40
0.9777596702854666
 40
1.0
 40
1.0
 40
1.0
 40
1.0
 10
32.36969299262843
 20
39.5315381883961
 30
0.0
 10
32.37621575673263
 20
39.47587266581369
 30
0.0
 10
32.3904893415467
 20
39.35406133780818
 30
0.0
 10
32.63375880006136
 20
39.16129899539954
 30
0.0
 10
33.03849171609327
 20
38.97283146137693
 30
0.0
 10
33.60966899813892
 20
38.81150770370648
 30
0.0
 10
34.31974310162185
 20
38.68408306586369
 30
0.0
 10
35.16174559639941
 20
38.59835525303696
 30
0.0
 10
36.11051651616198
 20
38.5524259618116
 30
0.0
 10
37.14244394002845
 20
38.54627725805545
 30
0.0
 10
38.22457221598636
 20
38.56997650641576
 30
0.0
 10
39.32383521905564
 20
38.61443445337031
 30
0.0
 10
40.40800971351877
 20
38.6670557871547
 30
0.0
 10
41.44647798207253
 20
38.71603205138561
 30
0.0
 10
42.41274853797444
 20
38.75293645852727
 30
0.0
 10
43.27768543141482
 20
38.76918880418715
 30
0.0
 10
44.14222848901738
 20
38.76310549860499
 30
0.0
 10
44.79929049874205
 20
38.72401576346607
 30
0.0
 10
45.19276807829029
 20
38.66700484369514
 30
0.0
 10
45.35622191327893
 20
38.62293924009282
 30
0.0
 10
45.33859521935057
 20
38.60366188383836
 30
0.0
 10
45.33340606716828
 20
38.5979867903873
 30
0.0
  0
SPLINE
  5
A5
330
1F
100
AcDbEntity
  8
0
  6
Continuous
 62
     8
370
    25
100
AcDbSpline
210
0.0
220
0.0
230
1.0
 70
     8
 71
     3
 72
    23
 73
    19
 74
     0
 42
0.000000001
 43
0.00000001
 40
0.0
 40
0.0
 40
0.0
 40
0.0
 40
0.0609113339328244
 40
0.1271852685425244
 40
0.1934692637174826
 40
0.258488149021747
 40
0.3235056089020575
 40
0.3864750481149813
 40
0.4494331031962561
 40
0.5117938147071189
 40
0.5741449316680222
 40
0.6380646031744177
 40
0.7019883575362871
 40
0.7674471419780264
 40
0.8329206815134325
 40
0.8984462330650907
 40
0.9639791861418437
 40
1.0
 40
1.0
 40
1.0
 40
1.0
 10
-6.493305591249627
 20
38.70445762045163
 30
0.0
 10
-6.480225505797792
 20
38.74266017057332
 30
0.0
 10
-6.452913771292264
 20
38.82242860253043
 30
0.0
 10
-6.174958629708266
 20
38.9918168782521
 30
0.0
 10
-5.732672925069515
 20
39.18608137980821
 30
0.0
 10
-5.124365387718606
 20
39.39247576584939
 30
0.0
 10
-4.388166667817779
 20
39.59215351901153
 30
0.0
 10
-3.536919149714751
 20
39.77195263490986
 30
0.0
 10
-2.602036226011402
 20
39.91996940722202
 30
0.0
 10
-1.595391823993268
 20
40.0247836340106
 30
0.0
 10
-0.5381728951869141
 20
40.08149843847268
 30
0.0
 10
0.544706934297012
 20
40.0805634040935
 30
0.0
 10
1.628951706712943
 20
40.02369014531455
 30
0.0
 10
2.669445465756825
 20
39.91089240013258
 30
0.0
 10
3.641530490195884
 20
39.75386553152298
 30
0.0
 10
4.489986634849765
 20
39.5654262798319
 30
0.0
 10
5.14569635988207
 20
39.38961095624359
 30
0.0
 10
5.40854502884679
 20
39.28655399302996
 30
0.0
 10
5.501776656421086
 20
39.24999999999999
 30
0.0
  0
LINE
  5
A6
330
1F
100
AcDbEntity
  8
0
  6
Continuous
 62
     7
370
    25
100
AcDbLine
 10
34.5661584247
 20
-39.0994964732
 30
0.0
 11
46.8763887313
 21
-37.5705177051
 31
0.0
  0
LINE
  5
A7
330
1F
100
AcDbEntity
  8
0
  6
Continuous
 62
     7
370
    25
100
AcDbLine
 10
46.8763887313
 20
37.5705177051
 30
0.0
 11
45.8417318378
 21
37.6990261394
 31
0.0
  0
LINE
  5
A8
330
1F
100
AcDbEntity
  8
0
  6
Continuous
 62
     7
370
    25
100
AcDbLine
 10
42.9273260587
 20
33.0069021002
 30
0.0
 11
42.925702005
 21
33.0067100854
 31
0.0
  0
LINE
  5
A9
330
1F
100
AcDbEntity
  8
0
  6
Continuous
 62
     7
370
    25
100
AcDbLine
 10
42.925702005
 20
-33.0067100854
 30
0.0
 11
42.9273260587
 21
-33.0069021002
 31
0.0
  0
LINE
  5
AA
330
1F
100
AcDbEntity
  8
0
  6
Continuous
 62
     7
370
    25
100
AcDbLine
 10
32.1380032049
 20
39.25
 30
0.0
 11
0.0
 21
39.25
 31
0.0
  0
LINE
  5
AB
330
1F
100
AcDbEntity
  8
0
  6
Continuous
 62
     7
370
    25
100
AcDbLine
 10
0.0
 20
-39.25
 30
0.0
 11
32.1380032049
 21
-39.25
 31
0.0
  0
LINE
  5
AC
330
1F
100
AcDbEntity
  8
0
  6
Continuous
 62
     7
370
    25
100
AcDbLine
 10
45.3555176262
 20
38.5977534854
 30
0.0
 11
45.3555176262
 21
56.4
 31
0.0
  0
LINE
  5
AD
330
1F
100
AcDbEntity
  8
0
  6
Continuous
 62
     7
370
    25
100
AcDbLine
 10
32.3555176262
 20
56.4
 30
0.0
 11
32.3555176262
 21
39.5317274948
 31
0.0
  0
LINE
  5
AE
330
1F
100
AcDbEntity
  8
0
  6
Continuous
 62
     7
370
    25
100
AcDbLine
 10
6.5
 20
39.25
 30
0.0
 11
6.5
 21
56.4
 31
0.0
  0
LINE
  5
AF
330
1F
100
AcDbEntity
  8
0
  6
Continuous
 62
     7
370
    25
100
AcDbLine
 10
-6.5
 20
56.4
 30
0.0
 11
-6.5
 21
38.7080418001
 31
0.0
  0
LINE
  5
B0
330
1F
100
AcDbEntity
  8
0
  6
Continuous
 62
     7
370
    25
100
AcDbLine
 10
45.3555176262
 20
56.4
 30
0.0
 11
32.3555176262
 21
56.4
 31
0.0
  0
LINE
  5
B1
330
1F
100
AcDbEntity
  8
0
  6
Continuous
 62
     7
370
    25
100
AcDbLine
 10
28.3608560976
 20
-9.9329925708
 30
0.0
 11
28.404558811
 21
-9.8073206715
 31
0.0
  0
LINE
  5
B2
330
1F
100
AcDbEntity
  8
0
  6
Continuous
 62
     7
370
    25
100
AcDbLine
 10
28.404558811
 20
9.8073206715
 30
0.0
 11
28.3608560976
 21
9.9329925708
 31
0.0
  0
LINE
  5
B3
330
1F
100
AcDbEntity
  8
0
  6
Continuous
 62
     7
370
    25
100
AcDbLine
 10
6.5
 20
56.4
 30
0.0
 11
-6.5
 21
56.4
 31
0.0
  0
ARC
  5
B4
330
1F
100
AcDbEntity
  8
0
  6
Continuous
 62
     7
370
    25
100
AcDbCircle
 10
44.5438708415
 20
-18.0146336673
 30
0.0
 40
19.68217486031953
100
AcDbArc
 50
257.1885992483
 51
301.2852897344
  0
ARC
  5
B5
330
1F
100
AcDbEntity
  8
0
  6
Continuous
 62
     7
370
    25
100
AcDbCircle
 10
44.5489801301
 20
18.0486764216
 30
0.0
 40
19.64750841945288
100
AcDbArc
 50
59.2342123849
 51
104.0847407854
  0
ARC
  5
B6
330
1F
100
AcDbEntity
  8
0
  6
Continuous
 62
     7
370
    25
100
AcDbCircle
 10
-5.9277763289
 20
1.6197138554
 30
0.0
 40
35.28201973635694
100
AcDbArc
 50
13.6283883928
 51
27.7011264326
  0
ARC
  5
B7
330
1F
100
AcDbEntity
  8
0
  6
Continuous
 62
     7
370
    25
100
AcDbCircle
 10
0.0
 20
0.0
 30
0.0
 40
30.04999999999971
100
AcDbArc
 50
325.6957552356
 51
340.6979089224
  0
ARC
  5
B8
330
1F
100
AcDbEntity
  8
0
  6
Continuous
 62
     7
370
    25
100
AcDbCircle
 10
0.0
 20
0.0
 30
0.0
 40
30.0499999999898
100
AcDbArc
 50
19.3020910776
 51
34.3042447644
  0
ARC
  5
B9
330
1F
100
AcDbEntity
  8
0
  6
Continuous
 62
     7
370
    25
100
AcDbCircle
 10
-6.1077350978
 20
-1.5518395715
 30
0.0
 40
35.47291226541385
100
AcDbArc
 50
332.3369287621
 51
346.3335564124
  0
ARC
  5
BA
330
1F
100
AcDbEntity
  8
0
  6
Continuous
 62
     7
370
    25
100
AcDbCircle
 10
-8.7765027456
 20
0.0
 30
0.0
 40
39.60906586850497
100
AcDbArc
 50
331.0391267229
 51
28.9608732771
  0
ARC
  5
BB
330
1F
100
AcDbEntity
  8
0
  6
Continuous
 62
     7
370
    25
100
AcDbCircle
 10
0.0
 20
0.0
 30
0.0
 40
39.25
100
AcDbArc
 50
90.0
 51
270.0
  0
ARC
  5
BC
330
1F
100
AcDbEntity
  8
0
  6
Continuous
 62
     7
370
    25
100
AcDbCircle
 10
-6.8996278242
 20
3.1658288788
 30
0.0
 40
35.8698137645792
100
AcDbArc
 50
17.8607707295
 51
25.2864259406
  0
ARC
  5
BD
330
1F
100
AcDbEntity
  8
0
  6
Continuous
 62
     7
370
    25
100
AcDbCircle
 10
-6.8996278242
 20
-3.1658288788
 30
0.0
 40
35.86981376457592
100
AcDbArc
 50
334.7135740594
 51
342.1392292705
  0
ARC
  5
BE
330
1F
100
AcDbEntity
  8
0
  6
Continuous
 62
     7
370
    25
100
AcDbCircle
 10
-6.1507066744
 20
-1.5281581212
 30
0.0
 40
35.53323662849035
100
AcDbArc
 50
332.321485203
 51
346.5263763853
  0
ARC
  5
BF
330
1F
100
AcDbEntity
  8
0
  6
Continuous
 62
     7
370
    25
100
AcDbCircle
 10
0.0
 20
0.0
 30
0.0
 40
30.05000000000027
100
AcDbArc
 50
340.9516006352
 51
19.0483993648
  0
ARC
  5
C0
330
1F
100
AcDbEntity
  8
0
  6
Continuous
 62
     7
370
    25
100
AcDbCircle
 10
-5.9704918201
 20
1.5958105401
 30
0.0
 40
35.34222693218002
100
AcDbArc
 50
13.435038465
 51
27.7170999467
  0
ARC
  5
C1
330
1F
100
AcDbEntity
  8
0
  6
Continuous
 62
     8
370
    25
100
AcDbCircle
 10
-7.2486072057
 20
0.6207923737
 30
0.0
 40
40.14487070355983
100
AcDbArc
 50
359.1139540349
 51
31.1311678951
  0
ARC
  5
C2
330
1F
100
AcDbEntity
  8
0
  6
Continuous
 62
     8
370
    25
100
AcDbCircle
 10
-7.2486072057
 20
-0.6207923737
 30
0.0
 40
40.14487070356122
100
AcDbArc
 50
328.8688321049
 51
0.8860459651
  0
ARC
  5
C3
330
1F
100
AcDbEntity
  8
0
  6
Continuous
 62
     8
370
    25
100
AcDbCircle
 10
-7.635094037
 20
0.5724695647
 30
0.0
 40
39.11653304377172
100
AcDbArc
 50
359.1614476442
 51
29.7793803903
  0
ARC
  5
C4
330
1F
100
AcDbEntity
  8
0
  6
Continuous
 62
     8
370
    25
100
AcDbCircle
 10
-8.0756737278
 20
-0.4587705964
 30
0.0
 40
39.55558399949422
100
AcDbArc
 50
330.3946334699
 51
0.6645384956
  0
CIRCLE
  5
D3
330
1B
100
AcDbEntity
 67
     1
  8
0
  6
Continuous
 62
     7
370
    25
100
AcDbCircle
 10
0.0
 20
54.95
 30
0.0
 40
6.499999999994856
  0
CIRCLE
  5
D4
330
1B
100
AcDbEntity
 67
     1
  8
0
  6
Continuous
 62
     7
370
    25
100
AcDbCircle
 10
0.0
 20
54.95
 30
0.0
 40
4.99999999999477
  0
CIRCLE
  5
D5
330
1B
100
AcDbEntity
 67
     1
  8
0
  6
Continuous
 62
     7
370
    25
100
AcDbCircle
 10
38.8555176262
 20
-38.8555176262
 30
0.0
 40
6.499999999994863
  0
CIRCLE
  5
D6
330
1B
100
AcDbEntity
 67
     1
  8
0
  6
Continuous
 62
     7
370
    25
100
AcDbCircle
 10
38.8555176262
 20
-38.8555176262
 30
0.0
 40
4.999999999994756
  0
CIRCLE
  5
D7
330
1B
100
AcDbEntity
 67
     1
  8
0
  6
Continuous
 62
     7
370
    25
100
AcDbCircle
 10
0.0
 20
54.95
 30
0.0
 40
1.852499999989867
  0
CIRCLE
  5
D8
330
1B
100
AcDbEntity
 67
     1
  8
0
  6
Continuous
 62
     7
370
    25
100
AcDbCircle
 10
0.0
 20
54.95
 30
0.0
 40
2.35249999998986
  0
CIRCLE
  5
D9
330
1B
100
AcDbEntity
 67
     1
  8
0
  6
Continuous
 62
     7
370
    25
100
AcDbCircle
 10
38.8555176262
 20
-38.8555176262
 30
0.0
 40
1.852499999989931
  0
CIRCLE
  5
DA
330
1B
100
AcDbEntity
 67
     1
  8
0
  6
Continuous
 62
     7
370
    25
100
AcDbCircle
 10
38.8555176262
 20
-38.8555176262
 30
0.0
 40
2.352499999989902
  0
CIRCLE
  5
DB
330
1B
100
AcDbEntity
 67
     1
  8
0
  6
Continuous
 62
     7
370
    25
100
AcDbCircle
 10
0.0
 20
54.95
 30
0.0
 40
2.552499999990204
  0
CIRCLE
  5
DC
330
1B
100
AcDbEntity
 67
     1
  8
0
  6
Continuous
 62
     7
370
    25
100
AcDbCircle
 10
38.8555176262
 20
-38.8555176262
 30
0.0
 40
2.552499999990189
  0
CIRCLE
  5
DD
330
1B
100
AcDbEntity
 67
     1
  8
0
  6
Continuous
 62
     7
370
    25
100
AcDbCircle
 10
0.0
 20
54.95
 30
0.0
 40
2.799999999990142
  0
CIRCLE
  5
DE
330
1B
100
AcDbEntity
 67
     1
  8
0
  6
Continuous
 62
     7
370
    25
100
AcDbCircle
 10
0.0
 20
54.95
 30
0.0
 40
2.99999999999477
  0
CIRCLE
  5
DF
330
1B
100
AcDbEntity
 67
     1
  8
0
  6
Continuous
 62
     7
370
    25
100
AcDbCircle
 10
38.8555176262
 20
-38.8555176262
 30
0.0
 40
2.799999999990142
  0
CIRCLE
  5
E0
330
1B
100
AcDbEntity
 67
     1
  8
0
  6
Continuous
 62
     7
370
    25
100
AcDbCircle
 10
38.8555176262
 20
-38.8555176262
 30
0.0
 40
2.999999999994785
  0
SPLINE
  5
E1
330
1B
100
AcDbEntity
 67
     1
  8
0
  6
Continuous
 62
     7
370
    25
100
AcDbSpline
210
0.0
220
0.0
230
1.0
 70
    11
 71
     3
 72
    91
 73
    87
 74
     0
 42
0.000000001
 43
0.00000001
 40
0.0
 40
0.0
 40
0.0
 40
0.0
 40
0.0312500000000013
 40
0.0312500000000013
 40
0.0625000000000027
 40
0.0625000000000027
 40
0.0781250000000033
 40
0.0781250000000033
 40
0.0937500000000039
 40
0.0937500000000039
 40
0.1093750000000046
 40
0.1093750000000046
 40
0.1250000000000052
 40
0.1250000000000052
 40
0.1562500000000061
 40
0.1562500000000061
 40
0.187500000000007
 40
0.187500000000007
 40
0.218750000000008
 40
0.218750000000008
 40
0.2343750000000081
 40
0.2343750000000081
 40
0.2500000000000083
 40
0.2500000000000083
 40
0.2812500000000093
 40
0.2812500000000093
 40
0.3125000000000103
 40
0.3125000000000103
 40
0.3281250000000105
 40
0.3281250000000105
 40
0.3437500000000107
 40
0.3437500000000107
 40
0.3750000000000107
 40
0.3750000000000107
 40
0.4062500000000107
 40
0.4062500000000107
 40
0.4375000000000107
 40
0.4375000000000107
 40
0.4531250000000108
 40
0.4531250000000108
 40
0.4687500000000109
 40
0.4687500000000109
 40
0.484375000000011
 40
0.484375000000011
 40
0.5000000000000111
 40
0.5000000000000111
 40
0.5312500000000117
 40
0.5312500000000117
 40
0.5625000000000122
 40
0.5625000000000122
 40
0.5781250000000124
 40
0.5781250000000124
 40
0.5937500000000127
 40
0.5937500000000127
 40
0.6250000000000125
 40
0.6250000000000125
 40
0.6562500000000124
 40
0.6562500000000124
 40
0.6875000000000123
 40
0.6875000000000123
 40
0.703125000000012
 40
0.703125000000012
 40
0.7187500000000117
 40
0.7343750000000113
 40
0.7343750000000113
 40
0.750000000000011
 40
0.750000000000011
 40
0.78125000000001
 40
0.78125000000001
 40
0.812500000000009
 40
0.812500000000009
 40
0.843750000000008
 40
0.843750000000008
 40
0.8593750000000073
 40
0.8593750000000073
 40
0.8750000000000067
 40
0.8750000000000067
 40
0.9062500000000052
 40
0.9062500000000052
 40
0.9375000000000038
 40
0.9375000000000038
 40
0.953125000000003
 40
0.953125000000003
 40
0.9687500000000022
 40
0.9687500000000022
 40
1.0
 40
1.0
 40
1.0
 40
1.0
 10
33.49058835058931
 20
-33.49058835058868
 30
0.0
 10
33.83811725192762
 20
-33.14305944925037
 30
0.0
 10
34.22173705823912
 20
-32.83219745505439
 30
0.0
 10
35.03202397295765
 20
-32.30143326090887
 30
0.0
 10
35.46090605643322
 20
-32.07871999635386
 30
0.0
 10
36.14031942527297
 20
-31.80922455947231
 30
0.0
 10
36.37146291919792
 20
-31.73092160518302
 30
0.0
 10
36.83575452859994
 20
-31.59898175258838
 30
0.0
 10
37.06996277963024
 20
-31.54491316555296
 30
0.0
 10
37.54248187013145
 20
-31.46002926565602
 30
0.0
 10
37.78079272001106
 20
-31.42921478361774
 30
0.0
 10
38.26162499696603
 20
-31.39099652106438
 30
0.0
 10
38.50514919645833
 20
-31.38370396090319
 30
0.0
 10
39.22772441386456
 20
-31.39741737703586
 30
0.0
 10
39.70270849086823
 20
-31.45297960942286
 30
0.0
 10
40.64034482805722
 20
-31.65442877359944
 30
0.0
 10
41.10605644379526
 20
-31.80245093131204
 30
0.0
 10
41.98912379120534
 20
-32.17881022912108
 30
0.0
 10
42.41079127441219
 20
-32.40744397914452
 30
0.0
 10
43.01328328542075
 20
-32.81221111655559
 30
0.0
 10
43.20980426405772
 20
-32.95822314511876
 30
0.0
 10
43.5847871001905
 20
-33.26550658215384
 30
0.0
 10
43.76411651122697
 20
-33.42724954391278
 30
0.0
 10
44.27803261035989
 20
-33.93638776343094
 30
0.0
 10
44.58878659307388
 20
-34.30746257707312
 30
0.0
 10
45.14317654909417
 20
-35.11619460662245
 30
0.0
 10
45.37800925312509
 20
-35.54110978661498
 30
0.0
 10
45.66791623541197
 20
-36.20740750649033
 30
0.0
 10
45.75412432828441
 20
-36.43441571971265
 30
0.0
 10
45.90509288517403
 20
-36.89851653416915
 30
0.0
 10
45.96989142061123
 20
-37.13634289821199
 30
0.0
 10
46.12751474703865
 20
-37.850121576166
 30
0.0
 10
46.18569814242397
 20
-38.33089625282067
 30
0.0
 10
46.20771007081676
 20
-39.30247535107965
 30
0.0
 10
46.17005732072914
 20
-39.79550631057899
 30
0.0
 10
46.00040159150186
 20
-40.74942000174156
 30
0.0
 10
45.86904337508844
 20
-41.2156086081816
 30
0.0
 10
45.59907137181769
 20
-41.89815019473316
 30
0.0
 10
45.49712864518275
 20
-42.12175979249255
 30
0.0
 10
45.27251983807616
 20
-42.5545219764663
 30
0.0
 10
45.14947077907512
 20
-42.76468457606766
 30
0.0
 10
44.88175946164354
 20
-43.17251042176147
 30
0.0
 10
44.7362813464905
 20
-43.3711305004589
 30
0.0
 10
44.42730704238288
 20
-43.75022962109436
 30
0.0
 10
44.26424137757166
 20
-43.93043125612119
 30
0.0
 10
43.75001863383758
 20
-44.44376521001282
 30
0.0
 10
43.374085315239
 20
-44.7498980362998
 30
0.0
 10
42.55369991622697
 20
-45.28750380618964
 30
0.0
 10
42.12113086301643
 20
-45.51083345237539
 30
0.0
 10
41.44616742543302
 20
-45.77786842712828
 30
0.0
 10
41.21647497341742
 20
-45.8556735820567
 30
0.0
 10
40.74751877526445
 20
-45.98853014075247
 30
0.0
 10
40.50731891123255
 20
-46.04362811317746
 30
0.0
 10
39.78791665615071
 20
-46.17106531870851
 30
0.0
 10
39.30543621524044
 20
-46.20755578288103
 30
0.0
 10
38.33467363967347
 20
-46.18600355976297
 30
0.0
 10
37.8434926770864
 20
-46.12633729789856
 30
0.0
 10
36.89652838352784
 20
-45.91664432787546
 30
0.0
 10
36.43570455425307
 20
-45.76706871079928
 30
0.0
 10
35.76363916511385
 20
-45.47492129088128
 30
0.0
 10
35.54290603087809
 20
-45.36600520322423
 30
0.0
 10
35.11739072573311
 20
-45.13017215084048
 30
0.0
 10
34.70530930668844
 20
-44.87533154143431
 30
0.0
 10
34.31956955117261
 20
-44.5832731424707
 30
0.0
 10
33.94710447683465
 20
-44.27247441565473
 30
0.0
 10
33.76668282270083
 20
-44.10684406327651
 30
0.0
 10
33.25238415341263
 20
-43.5873906061894
 30
0.0
 10
32.94727459251867
 20
-43.21404751740236
 30
0.0
 10
32.41003520524117
 20
-42.41492334648755
 30
0.0
 10
32.17643962857197
 20
-41.98453540341528
 30
0.0
 10
31.80006131817085
 20
-41.09946336254048
 30
0.0
 10
31.655184477265
 20
-40.64334795430834
 30
0.0
 10
31.50349510534208
 20
-39.93808644363698
 30
0.0
 10
31.4638552071247
 20
-39.69819199696227
 30
0.0
 10
31.40849232513717
 20
-39.21935709551951
 30
0.0
 10
31.39255346466901
 20
-38.98007517360642
 30
0.0
 10
31.37943175588494
 20
-38.26248977682685
 30
0.0
 10
31.41657402558305
 20
-37.78444625481617
 30
0.0
 10
31.58830806831112
 20
-36.82833429430867
 30
0.0
 10
31.72093130915378
 20
-36.36332467602217
 30
0.0
 10
31.98686022768054
 20
-35.69228476974057
 30
0.0
 10
32.08682648428914
 20
-35.47262331500039
 30
0.0
 10
32.31014224984238
 20
-35.04155434977801
 30
0.0
 10
32.43423880541332
 20
-34.82913040146588
 30
0.0
 10
32.83586804755596
 20
-34.21642962707379
 30
0.0
 10
33.14305944925103
 20
-33.83811725192694
 30
0.0
 10
33.49058835058931
 20
-33.49058835058868
 30
0.0
  0
SPLINE
  5
E2
330
1B
100
AcDbEntity
 67
     1
  8
0
  6
Continuous
 62
     7
370
    25
100
AcDbSpline
210
0.0
220
0.0
230
1.0
 70
    11
 71
     3
 72
    88
 73
    84
 74
     0
 42
0.000000001
 43
0.00000001
 40
0.0
 40
0.0
 40
0.0
 40
0.0
 40
0.0312500000000006
 40
0.0312500000000006
 40
0.0625000000000011
 40
0.0625000000000011
 40
0.0937500000000017
 40
0.0937500000000017
 40
0.1093750000000019
 40
0.1093750000000019
 40
0.1250000000000022
 40
0.1250000000000022
 40
0.1562500000000026
 40
0.1562500000000026
 40
0.1875000000000031
 40
0.1875000000000031
 40
0.2187500000000036
 40
0.2187500000000036
 40
0.2343750000000036
 40
0.2343750000000036
 40
0.2500000000000037
 40
0.2500000000000037
 40
0.2656250000000038
 40
0.2656250000000038
 40
0.2812500000000038
 40
0.2812500000000038
 40
0.3125000000000036
 40
0.3125000000000036
 40
0.3437500000000033
 40
0.3437500000000033
 40
0.3750000000000031
 40
0.3750000000000031
 40
0.3906250000000032
 40
0.3906250000000032
 40
0.4062500000000033
 40
0.4062500000000033
 40
0.4375000000000036
 40
0.4375000000000036
 40
0.4687500000000037
 40
0.4687500000000037
 40
0.4843750000000039
 40
0.4843750000000039
 40
0.500000000000004
 40
0.500000000000004
 40
0.531250000000004
 40
0.531250000000004
 40
0.562500000000004
 40
0.562500000000004
 40
0.578125000000004
 40
0.578125000000004
 40
0.593750000000004
 40
0.593750000000004
 40
0.625000000000004
 40
0.625000000000004
 40
0.656250000000004
 40
0.656250000000004
 40
0.687500000000004
 40
0.687500000000004
 40
0.7187500000000041
 40
0.7187500000000041
 40
0.7343750000000042
 40
0.7343750000000042
 40
0.7500000000000044
 40
0.7500000000000044
 40
0.7812500000000043
 40
0.7812500000000043
 40
0.8125000000000042
 40
0.8125000000000042
 40
0.8437500000000042
 40
0.8437500000000042
 40
0.8593750000000039
 40
0.8593750000000039
 40
0.8750000000000037
 40
0.8750000000000037
 40
0.906250000000003
 40
0.906250000000003
 40
0.9375000000000023
 40
0.9375000000000023
 40
0.9531250000000019
 40
0.9531250000000019
 40
0.9687500000000014
 40
0.9687500000000014
 40
1.0
 40
1.0
 40
1.0
 40
1.0
 10
-5.211531240066086
 20
60.12078572177062
 30
0.0
 10
-4.871862744258601
 20
60.47524189857214
 30
0.0
 10
-4.497701719392
 20
60.79464559295947
 30
0.0
 10
-3.702610489530245
 20
61.34763553113454
 30
0.0
 10
-3.279474209185066
 20
61.58387560454312
 30
0.0
 10
-2.379261200500186
 20
61.97184027390756
 30
0.0
 10
-1.914588292318546
 20
62.11782702634069
 30
0.0
 10
-1.203597704978999
 20
62.26456725915461
 30
0.0
 10
-0.9638588690898953
 20
62.30152120728122
 30
0.0
 10
-0.4787552303733879
 20
62.35090995965422
 30
0.0
 10
-0.2322793461730505
 20
62.36322928276466
 30
0.0
 10
0.4991060156880958
 20
62.36204626606104
 30
0.0
 10
0.9805498092638025
 20
62.31167274089541
 30
0.0
 10
1.931344435879274
 20
62.11326262978097
 30
0.0
 10
2.403158306113644
 20
61.96297214142412
 30
0.0
 10
3.292206172804605
 20
61.57689755822624
 30
0.0
 10
3.714911607923234
 20
61.34058384634714
 30
0.0
 10
4.315918739963915
 20
60.92028042581745
 30
0.0
 10
4.509929302155468
 20
60.76948070772843
 30
0.0
 10
4.878435332607737
 20
60.45260328064567
 30
0.0
 10
5.05401710265203
 20
60.28579199669179
 30
0.0
 10
5.388204304985392
 20
59.93574900132749
 30
0.0
 10
5.546809232551743
 20
59.75251684851368
 30
0.0
 10
5.846905379030765
 20
59.36947028843703
 30
0.0
 10
5.98909925862776
 20
59.16847555674521
 30
0.0
 10
6.382669068645979
 20
58.55009585166448
 30
0.0
 10
6.601862153673086
 20
58.11795102088552
 30
0.0
 10
6.956803000198845
 20
57.21526437036929
 30
0.0
 10
7.092889948939731
 20
56.73979780941197
 30
0.0
 10
7.269982878757402
 20
55.78553926602318
 30
0.0
 10
7.312950586035866
 20
55.30421070762297
 30
0.0
 10
7.309079877145988
 20
54.57596390230874
 30
0.0
 10
7.296136943331928
 20
54.33106042352644
 30
0.0
 10
7.247569138047823
 20
53.84831807045435
 30
0.0
 10
7.212045687921264
 20
53.60968019391294
 30
0.0
 10
7.072528447420566
 20
52.90173747005246
 30
0.0
 10
6.935685196140299
 20
52.43977495386882
 30
0.0
 10
6.572129291319706
 20
51.53970642636023
 30
0.0
 10
6.349994363429971
 20
51.1126157049883
 30
0.0
 10
5.95646371516569
 20
50.50569942863369
 30
0.0
 10
5.814467633847705
 20
50.30828473908913
 30
0.0
 10
5.514490980501809
 20
49.93126964301268
 30
0.0
 10
5.356270729701626
 20
49.75111092605156
 30
0.0
 10
4.857143413276064
 20
49.23524874271686
 30
0.0
 10
4.492035308164031
 20
48.92389569349656
 30
0.0
 10
3.692301318574667
 20
48.3700478927117
 30
0.0
 10
3.270457502300926
 20
48.13656006991157
 30
0.0
 10
2.607023165201578
 20
47.85123700975631
 30
0.0
 10
2.380624485021264
 20
47.76695492138533
 30
0.0
 10
1.916914073221143
 20
47.62077954209039
 30
0.0
 10
1.678538474873299
 20
47.55879479878152
 30
0.0
 10
0.9634984362780208
 20
47.41151123673918
 30
0.0
 10
0.4822856203385104
 20
47.36261053442583
 30
0.0
 10
-0.4891733774287157
 20
47.36307964310659
 30
0.0
 10
-0.9820202342870412
 20
47.41422974396405
 30
0.0
 10
-1.929966210428315
 20
47.61171752120283
 30
0.0
 10
-2.390975068302406
 20
47.7574700101982
 30
0.0
 10
-3.286847785981324
 20
48.14448093475308
 30
0.0
 10
-3.70921393350173
 20
48.38067519405989
 30
0.0
 10
-4.300607743900803
 20
48.79189079532213
 30
0.0
 10
-4.491042573782908
 20
48.93869444339062
 30
0.0
 10
-4.858454061881866
 20
49.25199924606387
 30
0.0
 10
-5.035765786363142
 20
49.4190304854985
 30
0.0
 10
-5.536604255577778
 20
49.93924898410941
 30
0.0
 10
-5.833229895447101
 20
50.31434941692574
 30
0.0
 10
-6.354176944479248
 20
51.12039132407223
 30
0.0
 10
-6.578727636639244
 20
51.55430764211086
 30
0.0
 10
-6.936871024024793
 20
52.44448334707472
 30
0.0
 10
-7.073463722758119
 20
52.90445584705844
 30
0.0
 10
-7.213385679030411
 20
53.61751306219274
 30
0.0
 10
-7.249053559798897
 20
53.85967448119748
 30
0.0
 10
-7.296848495140368
 20
54.34168963437699
 30
0.0
 10
-7.309275715636436
 20
54.58274991630255
 30
0.0
 10
-7.312635902131066
 20
55.30609847567296
 30
0.0
 10
-7.269785078198712
 20
55.78960130680078
 30
0.0
 10
-7.089923591406106
 20
56.75273237518459
 30
0.0
 10
-6.955642914324788
 20
57.21878768698769
 30
0.0
 10
-6.689360483281895
 20
57.89513556520215
 30
0.0
 10
-6.589713135968369
 20
58.11676865729967
 30
0.0
 10
-6.367981272565417
 20
58.55215685814323
 30
0.0
 10
-6.245688007054328
 20
58.76597197602157
 30
0.0
 10
-5.851711706730628
 20
59.38299376093606
 30
0.0
 10
-5.551199735873549
 20
59.7663295449691
 30
0.0
 10
-5.211531240066087
 20
60.12078572177062
 30
0.0
  0
CIRCLE
  5
E5
330
1B
100
AcDbEntity
 67
     1
  8
0
  6
Continuous
 62
     7
370
    25
100
AcDbCircle
 10
0.0
 20
54.95
 30
0.0
 40
3.830245019241794
  0
CIRCLE
  5
E6
330
1B
100
AcDbEntity
 67
     1
  8
0
  6
Continuous
 62
     7
370
    25
100
AcDbCircle
 10
0.0
 20
54.95
 30
0.0
 40
4.007596123488653
  0
CIRCLE
  5
E7
330
1B
100
AcDbEntity
 67
     1
  8
0
  6
Continuous
 62
     7
370
    25
100
AcDbCircle
 10
38.8555176262
 20
-38.8555176262
 30
0.0
 40
3.830245019241779
  0
CIRCLE
  5
E8
330
1B
100
AcDbEntity
 67
     1
  8
0
  6
Continuous
 62
     7
370
    25
100
AcDbCircle
 10
38.8555176262
 20
-38.8555176262
 30
0.0
 40
4.007596123488653
  0
LINE
  5
F1
330
1B
100
AcDbEntity
 67
     1
  8
0
  6
Continuous
 62
     7
370
    25
100
AcDbLine
 10
4.3840620434
 20
-59.8919443665
 30
0.0
 11
17.8745577934
 21
-71.2118143747
 31
0.0
  0
LINE
  5
F2
330
1B
100
AcDbEntity
 67
     1
  8
0
  6
Continuous
 62
     7
370
    25
100
AcDbLine
 10
71.2118143747
 20
-17.8745577934
 30
0.0
 11
59.8919443665
 21
-4.3840620434
 31
0.0
  0
LINE
  5
F3
330
1B
100
AcDbEntity
 67
     1
  8
0
  6
Continuous
 62
     7
370
    25
100
AcDbLine
 10
39.25
 20
45.45
 30
0.0
 11
37.7151358186
 21
62.9935778714
 31
0.0
  0
LINE
  5
F4
330
1B
100
AcDbEntity
 67
     1
  8
0
  6
Continuous
 62
     7
370
    25
100
AcDbLine
 10
-37.7151358186
 20
62.9935778714
 30
0.0
 11
-39.25
 21
45.45
 31
0.0
  0
LINE
  5
F5
330
1B
100
AcDbEntity
 67
     1
  8
0
  6
Continuous
 62
     7
370
    25
100
AcDbLine
 10
39.25
 20
17.5005230103
 30
0.0
 11
39.25
 21
45.45
 31
0.0
  0
LINE
  5
F6
330
1B
100
AcDbEntity
 67
     1
  8
0
  6
Continuous
 62
     7
370
    25
100
AcDbLine
 10
-39.25
 20
45.45
 30
0.0
 11
-39.25
 21
0.0
 31
0.0
  0
LINE
  5
F7
330
1B
100
AcDbEntity
 67
     1
  8
0
  6
Continuous
 62
     7
370
    25
100
AcDbLine
 10
59.8919443665
 20
-4.3840620434
 30
0.0
 11
40.1286796564
 21
15.3792026667
 31
0.0
  0
LINE
  5
F8
330
1B
100
AcDbEntity
 67
     1
  8
0
  6
Continuous
 62
     7
370
    25
100
AcDbLine
 10
-27.7539411616
 20
-27.7539411616
 30
0.0
 11
4.3840620434
 21
-59.8919443665
 31
0.0
  0
LINE
  5
F9
330
1B
100
AcDbEntity
 67
     1
  8
0
  6
Continuous
 62
     7
370
    25
100
AcDbLine
 10
4.3840620434
 20
-59.8919443665
 30
0.0
 11
59.8919443665
 21
-4.3840620434
 31
0.0
  0
LINE
  5
FA
330
1B
100
AcDbEntity
 67
     1
  8
0
  6
Continuous
 62
     7
370
    25
100
AcDbLine
 10
39.25
 20
45.45
 30
0.0
 11
-39.25
 21
45.45
 31
0.0
  0
LINE
  5
FB
330
1B
100
AcDbEntity
 67
     1
  8
0
  6
Continuous
 62
     7
370
    25
100
AcDbLine
 10
37.2170384695
 20
63.45
 30
0.0
 11
-37.2170384695
 21
63.45
 31
0.0
  0
LINE
  5
FC
330
1B
100
AcDbEntity
 67
     1
  8
0
  6
Continuous
 62
     7
370
    25
100
AcDbLine
 10
71.1823455438
 20
-18.5495049888
 30
0.0
 11
18.549517659
 21
-71.1823328736
 31
0.0
  0
LINE
  5
FD
330
1B
100
AcDbEntity
 67
     1
  8
0
  6
Continuous
 62
     8
370
    25
100
AcDbLine
 10
17.8745577934
 20
-71.2118143747
 30
0.0
 11
71.2118143747
 21
-17.8745577934
 31
0.0
  0
LINE
  5
FE
330
1B
100
AcDbEntity
 67
     1
  8
0
  6
Continuous
 62
     8
370
    25
100
AcDbLine
 10
37.7151358186
 20
62.9935778714
 30
0.0
 11
-37.7151358186
 21
62.9935778714
 31
0.0
  0
LINE
  5
FF
330
1B
100
AcDbEntity
 67
     1
  8
0
  6
Continuous
 62
     8
370
    25
100
AcDbLine
 10
0.0
 20
0.0
 30
0.0
 11
-27.7539411616
 21
-27.7539411616
 31
0.0
  0
LINE
  5
100
330
1B
100
AcDbEntity
 67
     1
  8
0
  6
Continuous
 62
     8
370
    25
100
AcDbLine
 10
0.0
 20
0.0
 30
0.0
 11
-39.25
 21
0.0
 31
0.0
  0
LINE
  5
101
330
1B
100
AcDbEntity
 67
     1
  8
0
  6
Continuous
 62
     8
370
    25
100
AcDbLine
 10
0.0
 20
0.0
 30
0.0
 11
39.2499999937
 21
17.5005230075
 31
0.0
  0
LINE
  5
102
330
1B
100
AcDbEntity
 67
     1
  8
0
  6
Continuous
 62
     8
370
    25
100
AcDbLine
 10
40.1286796323
 20
15.3792026575
 30
0.0
 11
0.0
 21
0.0
 31
0.0
  0
ARC
  5
103
330
1B
100
AcDbEntity
 67
     1
  8
0
  6
Continuous
 62
     7
370
    25
100
AcDbCircle
 10
0.0
 20
0.0
 30
0.0
 40
39.2500000000032
100
AcDbArc
 50
180.0
 51
225.0
  0
ARC
  5
104
330
1B
100
AcDbEntity
 67
     1
  8
0
  6
Continuous
 62
     7
370
    25
100
AcDbCircle
 10
42.25
 20
17.5005230103
 30
0.0
 40
2.999999999999919
100
AcDbArc
 50
180.0886328342
 51
224.9888086356
  0
ARC
  5
105
330
1B
100
AcDbEntity
 67
     1
  8
0
  6
Continuous
 62
     7
370
    25
100
AcDbCircle
 10
37.2170384695
 20
62.95
 30
0.0
 40
0.500000000000005
100
AcDbArc
 50
5.0
 51
90.0
  0
ARC
  5
106
330
1B
100
AcDbEntity
 67
     1
  8
0
  6
Continuous
 62
     7
370
    25
100
AcDbCircle
 10
-37.2170384695
 20
62.95
 30
0.0
 40
0.500000000000005
100
AcDbArc
 50
90.0
 51
175.0
  0
ARC
  5
107
330
1B
100
AcDbEntity
 67
     1
  8
0
  6
Continuous
 62
     7
370
    25
100
AcDbCircle
 10
70.8287921532
 20
-18.1959515982
 30
0.0
 40
0.5000000000000029
100
AcDbArc
 50
315.0
 51
40.0
  0
ARC
  5
108
330
1B
100
AcDbEntity
 67
     1
  8
0
  6
Continuous
 62
     7
370
    25
100
AcDbCircle
 10
18.1959515982
 20
-70.8287921532
 30
0.0
 40
0.4999999999999983
100
AcDbArc
 50
230.0
 51
315.0
  0
VIEWPORT
  5
14E
330
1B
100
AcDbEntity
 67
     1
  8
0
100
AcDbViewport
 10
0.0
 20
0.0
 30
0.0
 40
205.6
 41
156.0
 68
     1
 69
     1
 12
16.0393960766
 22
8.575
 13
0.0
 23
0.0
 14
10.0
 24
10.0
 15
10.0
 25
10.0
 16
0.0
 26
0.0
 36
1.0
 17
0.0
 27
0.0
 37
0.0
 42
50.0
 43
0.0
 44
0.0
 45
97.563
 50
0.0
 51
0.0
 72
   100
 90
   557152
  1

281
     0
 71
     1
 74
     0
110
0.0
120
0.0
130
0.0
111
1.0
121
0.0
131
0.0
112
0.0
122
1.0
132
0.0
 79
     0
146
0.0
  0
ENDSEC
  0
SECTION
  2
OBJECTS
  0
DICTIONARY
  5
C
330
0
100
AcDbDictionary
281
     1
  3
ACAD_GROUP
350
D
  3
ACAD_LAYOUT
350
1A
  3
ACAD_MLINESTYLE
350
17
  3
ACAD_PLOTSETTINGS
350
19
  3
ACAD_PLOTSTYLENAME
350
E
  3
ACAD_SCALELIST
350
47
  0
DICTIONARY
  5
D
102
{ACAD_REACTORS
330
C
102
}
330
C
100
AcDbDictionary
281
     1
  0
DICTIONARY
  5
1A
102
{ACAD_REACTORS
330
C
102
}
330
C
100
AcDbDictionary
281
     1
  3
_Left
350
26
  3
_Top
350
1E
  3
Model
350
22
  0
DICTIONARY
  5
17
102
{ACAD_REACTORS
330
C
102
}
330
C
100
AcDbDictionary
281
     1
  3
Standard
350
18
  0
DICTIONARY
  5
19
102
{ACAD_REACTORS
330
C
102
}
330
C
100
AcDbDictionary
281
     1
  0
ACDBDICTIONARYWDFLT
  5
E
102
{ACAD_REACTORS
330
C
102
}
330
C
100
AcDbDictionary
281
     1
  3
Normal
350
F
100
AcDbDictionaryWithDefault
340
F
  0
DICTIONARY
  5
47
102
{ACAD_REACTORS
330
C
102
}
330
C
100
AcDbDictionary
281
     1
  3
A0
350
48
  3
A1
350
49
  3
A2
350
4A
  3
A3
350
4B
  3
A4
350
4C
  3
A5
350
4D
  3
A6
350
4E
  3
A7
350
4F
  3
A8
350
50
  3
A9
350
51
  3
B0
350
52
  3
B1
350
53
  3
B2
350
54
  3
B3
350
55
  3
B4
350
56
  3
B5
350
57
  3
B6
350
58
  3
B7
350
59
  3
B8
350
5A
  3
B9
350
5B
  3
C0
350
5C
  3
C1
350
5D
  3
C2
350
5E
  3
C3
350
5F
  3
C4
350
60
  3
C5
350
61
  3
C6
350
62
  3
C7
350
63
  3
C8
350
64
  3
C9
350
65
  3
D0
350
66
  3
D1
350
67
  3
D2
350
68
  0
LAYOUT
  5
26
102
{ACAD_REACTORS
330
1A
102
}
330
1A
100
AcDbPlotSettings
  1

  2
none_device
  4
ISO_A4_(210.00_x_297.00_MM)
  6

 40
7.5
 41
20.0
 42
7.5
 43
20.0
 44
210.0
 45
297.0
 46
0.0
 47
0.0
 48
0.0
 49
0.0
140
0.0
141
0.0
142
1.0
143
0.6911732931
 70
   688
 72
     1
 73
     1
 74
     1
  7

 75
     0
147
1.446815162
148
39.25
149
71.3287921532
100
AcDbLayout
  1
_Left
 70
     1
 71
     2
 10
0.0
 20
0.0
 11
0.0
 21
0.0
 12
0.0
 22
0.0
 32
0.0
 14
0.0
 24
0.0
 34
0.0
 15
0.0
 25
0.0
 35
0.0
146
0.0
 13
0.0
 23
0.0
 33
0.0
 16
1.0
 26
0.0
 36
0.0
 17
0.0
 27
1.0
 37
0.0
 76
     0
330
23
331
150
  0
LAYOUT
  5
1E
102
{ACAD_REACTORS
330
1A
102
}
330
1A
100
AcDbPlotSettings
  1

  2
none_device
  4
ISO_A4_(210.00_x_297.00_MM)
  6

 40
7.5
 41
20.0
 42
7.5
 43
20.0
 44
210.0
 45
297.0
 46
0.0
 47
0.0
 48
0.0
 49
0.0
140
0.0
141
0.0
142
1.0
143
0.6911732931
 70
   688
 72
     1
 73
     1
 74
     1
  7

 75
     0
147
1.446815162
148
39.25
149
71.3287921532
100
AcDbLayout
  1
_Top
 70
     1
 71
     1
 10
-53.0734658619
 20
-76.5125918514
 11
152.2050021868
 21
68.6337996982
 12
0.0
 22
0.0
 32
0.0
 14
-39.25
 24
-71.3287921532
 34
0.0
 15
71.3287921532
 25
63.45
 35
0.0
146
0.0
 13
0.0
 23
0.0
 33
0.0
 16
1.0
 26
0.0
 36
0.0
 17
0.0
 27
1.0
 37
0.0
 76
     0
330
1B
331
14E
  0
LAYOUT
  5
22
102
{ACAD_REACTORS
330
1A
102
}
330
1A
100
AcDbPlotSettings
  1

  2
none_device
  4
ANSI_A_(11.00_x_8.50_Inches)
  6

 40
6.35
 41
19.05
 42
6.35000508
 43
19.05000254
 44
279.4
 45
215.9
 46
97.5081097778
 47
69.7381683589
 48
0.0
 49
0.0
140
0.0
141
0.0
142
0.0879769995
143
1.0
 70
  1696
 72
     0
 73
     0
 74
     0
  7

 75
     0
147
0.0179189148
148
-1300.4909072572
149
0.0
100
AcDbLayout
  1
Model
 70
     1
 71
     0
 10
0.0
 20
0.0
 11
420.0
 21
297.0
 12
0.0
 22
0.0
 32
0.0
 14
-39.25
 24
-39.25
 34
0.0
 15
71.3287921532
 25
56.4
 35
0.0
146
0.0
 13
0.0
 23
0.0
 33
0.0
 16
1.0
 26
0.0
 36
0.0
 17
0.0
 27
1.0
 37
0.0
 76
     0
330
1F
331
29
  0
MLINESTYLE
  5
18
102
{ACAD_REACTORS
330
17
102
}
330
17
100
AcDbMlineStyle
  2
Standard
 70
     0
  3

 62
   256
 51
90.0
 52
90.0
 71
     2
 49
0.5
 62
   256
  6
BYLAYER
 49
-0.5
 62
   256
  6
BYLAYER
  0
ACDBPLACEHOLDER
  5
F
102
{ACAD_REACTORS
330
E
102
}
330
E
  0
SCALE
  5
48
102
{ACAD_REACTORS
330
47
102
}
330
47
100
AcDbScale
 70
     0
300
1:1
140
1.0
141
1.0
290
     1
  0
SCALE
  5
49
102
{ACAD_REACTORS
330
47
102
}
330
47
100
AcDbScale
 70
     0
300
1:2
140
1.0
141
2.0
290
     0
  0
SCALE
  5
4A
102
{ACAD_REACTORS
330
47
102
}
330
47
100
AcDbScale
 70
     0
300
1:4
140
1.0
141
4.0
290
     0
  0
SCALE
  5
4B
102
{ACAD_REACTORS
330
47
102
}
330
47
100
AcDbScale
 70
     0
300
1:5
140
1.0
141
5.0
290
     0
  0
SCALE
  5
4C
102
{ACAD_REACTORS
330
47
102
}
330
47
100
AcDbScale
 70
     0
300
1:8
140
1.0
141
8.0
290
     0
  0
SCALE
  5
4D
102
{ACAD_REACTORS
330
47
102
}
330
47
100
AcDbScale
 70
     0
300
1:10
140
1.0
141
10.0
290
     0
  0
SCALE
  5
4E
102
{ACAD_REACTORS
330
47
102
}
330
47
100
AcDbScale
 70
     0
300
1:16
140
1.0
141
16.0
290
     0
  0
SCALE
  5
4F
102
{ACAD_REACTORS
330
47
102
}
330
47
100
AcDbScale
 70
     0
300
1:20
140
1.0
141
20.0
290
     0
  0
SCALE
  5
50
102
{ACAD_REACTORS
330
47
102
}
330
47
100
AcDbScale
 70
     0
300
1:30
140
1.0
141
30.0
290
     0
  0
SCALE
  5
51
102
{ACAD_REACTORS
330
47
102
}
330
47
100
AcDbScale
 70
     0
300
1:40
140
1.0
141
40.0
290
     0
  0
SCALE
  5
52
102
{ACAD_REACTORS
330
47
102
}
330
47
100
AcDbScale
 70
     0
300
1:50
140
1.0
141
50.0
290
     0
  0
SCALE
  5
53
102
{ACAD_REACTORS
330
47
102
}
330
47
100
AcDbScale
 70
     0
300
1:100
140
1.0
141
100.0
290
     0
  0
SCALE
  5
54
102
{ACAD_REACTORS
330
47
102
}
330
47
100
AcDbScale
 70
     0
300
2:1
140
2.0
141
1.0
290
     0
  0
SCALE
  5
55
102
{ACAD_REACTORS
330
47
102
}
330
47
100
AcDbScale
 70
     0
300
4:1
140
4.0
141
1.0
290
     0
  0
SCALE
  5
56
102
{ACAD_REACTORS
330
47
102
}
330
47
100
AcDbScale
 70
     0
300
8:1
140
8.0
141
1.0
290
     0
  0
SCALE
  5
57
102
{ACAD_REACTORS
330
47
102
}
330
47
100
AcDbScale
 70
     0
300
10:1
140
10.0
141
1.0
290
     0
  0
SCALE
  5
58
102
{ACAD_REACTORS
330
47
102
}
330
47
100
AcDbScale
 70
     0
300
100:1
140
100.0
141
1.0
290
     0
  0
SCALE
  5
59
102
{ACAD_REACTORS
330
47
102
}
330
47
100
AcDbScale
 70
     0
300
1/128" = 1'-0"
140
0.0078125
141
12.0
290
     0
  0
SCALE
  5
5A
102
{ACAD_REACTORS
330
47
102
}
330
47
100
AcDbScale
 70
     0
300
1/64" = 1'-0"
140
0.015625
141
12.0
290
     0
  0
SCALE
  5
5B
102
{ACAD_REACTORS
330
47
102
}
330
47
100
AcDbScale
 70
     0
300
1/32" = 1'-0"
140
0.03125
141
12.0
290
     0
  0
SCALE
  5
5C
102
{ACAD_REACTORS
330
47
102
}
330
47
100
AcDbScale
 70
     0
300
1/16" = 1'-0"
140
0.0625
141
12.0
290
     0
  0
SCALE
  5
5D
102
{ACAD_REACTORS
330
47
102
}
330
47
100
AcDbScale
 70
     0
300
3/32" = 1'-0"
140
0.09375
141
12.0
290
     0
  0
SCALE
  5
5E
102
{ACAD_REACTORS
330
47
102
}
330
47
100
AcDbScale
 70
     0
300
1/8" = 1'-0"
140
0.125
141
12.0
290
     0
  0
SCALE
  5
5F
102
{ACAD_REACTORS
330
47
102
}
330
47
100
AcDbScale
 70
     0
300
3/16" = 1'-0"
140
0.1875
141
12.0
290
     0
  0
SCALE
  5
60
102
{ACAD_REACTORS
330
47
102
}
330
47
100
AcDbScale
 70
     0
300
1/4" = 1'-0"
140
0.25
141
12.0
290
     0
  0
SCALE
  5
61
102
{ACAD_REACTORS
330
47
102
}
330
47
100
AcDbScale
 70
     0
300
3/8" = 1'-0"
140
0.375
141
12.0
290
     0
  0
SCALE
  5
62
102
{ACAD_REACTORS
330
47
102
}
330
47
100
AcDbScale
 70
     0
300
1/2" = 1'-0"
140
0.5
141
12.0
290
     0
  0
SCALE
  5
63
102
{ACAD_REACTORS
330
47
102
}
330
47
100
AcDbScale
 70
     0
300
3/4" = 1'-0"
140
0.75
141
12.0
290
     0
  0
SCALE
  5
64
102
{ACAD_REACTORS
330
47
102
}
330
47
100
AcDbScale
 70
     0
300
1" = 1'-0"
140
1.0
141
12.0
290
     0
  0
SCALE
  5
65
102
{ACAD_REACTORS
330
47
102
}
330
47
100
AcDbScale
 70
     0
300
1-1/2" = 1'-0"
140
1.5
141
12.0
290
     0
  0
SCALE
  5
66
102
{ACAD_REACTORS
330
47
102
}
330
47
100
AcDbScale
 70
     0
300
3" = 1'-0"
140
3.0
141
12.0
290
     0
  0
SCALE
  5
67
102
{ACAD_REACTORS
330
47
102
}
330
47
100
AcDbScale
 70
     0
300
6" = 1'-0"
140
6.0
141
12.0
290
     0
  0
SCALE
  5
68
102
{ACAD_REACTORS
330
47
102
}
330
47
100
AcDbScale
 70
     0
300
1'-0" = 1'-0"
140
12.0
141
12.0
290
     0
  0
ENDSEC
  0
EOF
