  0
SECTION
  2
HEADER
  9
$ACADVER
  1
AC1015
  9
$ACADMAINTVER
 70
     6
  9
$DWGCODEPAGE
  3
ANSI_1252
  9
$INSBASE
 10
0.0
 20
0.0
 30
0.0
  9
$EXTMIN
 10
-40.25
 20
-40.25
 30
0.0
  9
$EXTMAX
 10
83.05
 20
57.4553736503
 30
0.0
  9
$LIMMIN
 10
0.0
 20
0.0
  9
$LIMMAX
 10
420.0
 20
297.0
  9
$ORTHOMODE
 70
     0
  9
$REGENMODE
 70
     1
  9
$FILLMODE
 70
     1
  9
$QTEXTMODE
 70
     0
  9
$MIRRTEXT
 70
     1
  9
$LTSCALE
 40
1.0
  9
$ATTMODE
 70
     1
  9
$TEXTSIZE
 40
6.35
  9
$TRACEWID
 40
1.0
  9
$TEXTSTYLE
  7
Standard
  9
$CLAYER
  8
0
  9
$CELTYPE
  6
ByLayer
  9
$CECOLOR
 62
   256
  9
$CELTSCALE
 40
1.0
  9
$DISPSILH
 70
     0
  9
$DIMSCALE
 40
1.0
  9
$DIMASZ
 40
5.9944
  9
$DIMEXO
 40
0.9906
  9
$DIMDLI
 40
3.75
  9
$DIMRND
 40
0.0
  9
$DIMDLE
 40
0.0
  9
$DIMEXE
 40
0.9906
  9
$DIMTP
 40
0.0
  9
$DIMTM
 40
0.0
  9
$DIMTXT
 40
6.35
  9
$DIMCEN
 40
2.5
  9
$DIMTSZ
 40
0.0
  9
$DIMTOL
 70
     0
  9
$DIMLIM
 70
     0
  9
$DIMTIH
 70
     1
  9
$DIMTOH
 70
     1
  9
$DIMSE1
 70
     0
  9
$DIMSE2
 70
     0
  9
$DIMTAD
 70
     1
  9
$DIMZIN
 70
     0
  9
$DIMBLK
  1

  9
$DIMASO
 70
     1
  9
$DIMSHO
 70
     1
  9
$DIMPOST
  1

  9
$DIMAPOST
  1

  9
$DIMALT
 70
     0
  9
$DIMALTD
 70
     3
  9
$DIMALTF
 40
0.0393700787
  9
$DIMLFAC
 40
1.0
  9
$DIMTOFL
 70
     1
  9
$DIMTVP
 40
0.0
  9
$DIMTIX
 70
     0
  9
$DIMSOXD
 70
     0
  9
$DIMSAH
 70
     0
  9
$DIMBLK1
  1

  9
$DIMBLK2
  1

  9
$DIMSTYLE
  2
ISO-25
  9
$DIMCLRD
 70
     0
  9
$DIMCLRE
 70
     0
  9
$DIMCLRT
 70
     0
  9
$DIMTFAC
 40
1.0
  9
$DIMGAP
 40
1.524
  9
$DIMJUST
 70
     0
  9
$DIMSD1
 70
     0
  9
$DIMSD2
 70
     0
  9
$DIMTOLJ
 70
     0
  9
$DIMTZIN
 70
     0
  9
$DIMALTZ
 70
     0
  9
$DIMALTTZ
 70
     0
  9
$DIMUPT
 70
     0
  9
$DIMDEC
 70
     2
  9
$DIMTDEC
 70
     2
  9
$DIMALTU
 70
     2
  9
$DIMALTTD
 70
     3
  9
$DIMTXSTY
  7
Standard
  9
$DIMAUNIT
 70
     0
  9
$DIMADEC
 70
     2
  9
$DIMALTRND
 40
0.0
  9
$DIMAZIN
 70
     0
  9
$DIMDSEP
 70
    44
  9
$DIMATFIT
 70
     3
  9
$DIMFRAC
 70
     0
  9
$DIMLDRBLK
  1

  9
$DIMLUNIT
 70
     2
  9
$DIMLWD
 70
    -2
  9
$DIMLWE
 70
    -2
  9
$DIMTMOVE
 70
     0
  9
$LUNITS
 70
     2
  9
$LUPREC
 70
     2
  9
$SKETCHINC
 40
1.0
  9
$FILLETRAD
 40
10.0
  9
$AUNITS
 70
     0
  9
$AUPREC
 70
     2
  9
$MENU
  1
.
  9
$ELEVATION
 40
0.0
  9
$PELEVATION
 40
0.0
  9
$THICKNESS
 40
0.0
  9
$LIMCHECK
 70
     0
  9
$CHAMFERA
 40
0.0
  9
$CHAMFERB
 40
0.0
  9
$CHAMFERC
 40
0.0
  9
$CHAMFERD
 40
0.0
  9
$SKPOLY
 70
     0
  9
$TDCREATE
 40
2458382.498156481
  9
$TDUCREATE
 40
2458382.456489815
  9
$TDUPDATE
 40
2458382.498188981
  9
$TDUUPDATE
 40
2458382.456522315
  9
$TDINDWG
 40
0.0000000116
  9
$TDUSRTIMER
 40
0.0000000116
  9
$USRTIMER
 70
     1
  9
$ANGBASE
 50
0.0
  9
$ANGDIR
 70
     0
  9
$PDMODE
 70
     0
  9
$PDSIZE
 40
-1.0
  9
$PLINEWID
 40
0.0
  9
$SPLFRAME
 70
     0
  9
$SPLINETYPE
 70
     6
  9
$SPLINESEGS
 70
     8
  9
$HANDSEED
  5
11B
  9
$SURFTAB1
 70
     6
  9
$SURFTAB2
 70
     6
  9
$SURFTYPE
 70
     6
  9
$SURFU
 70
     6
  9
$SURFV
 70
     6
  9
$UCSBASE
  2

  9
$UCSNAME
  2

  9
$UCSORG
 10
0.0
 20
0.0
 30
0.0
  9
$UCSXDIR
 10
1.0
 20
0.0
 30
0.0
  9
$UCSYDIR
 10
0.0
 20
1.0
 30
0.0
  9
$UCSORTHOREF
  2

  9
$UCSORTHOVIEW
 70
     0
  9
$UCSORGTOP
 10
0.0
 20
0.0
 30
0.0
  9
$UCSORGBOTTOM
 10
0.0
 20
0.0
 30
0.0
  9
$UCSORGLEFT
 10
0.0
 20
0.0
 30
0.0
  9
$UCSORGRIGHT
 10
0.0
 20
0.0
 30
0.0
  9
$UCSORGFRONT
 10
0.0
 20
0.0
 30
0.0
  9
$UCSORGBACK
 10
0.0
 20
0.0
 30
0.0
  9
$PUCSBASE
  2

  9
$PUCSNAME
  2

  9
$PUCSORG
 10
0.0
 20
0.0
 30
0.0
  9
$PUCSXDIR
 10
1.0
 20
0.0
 30
0.0
  9
$PUCSYDIR
 10
0.0
 20
1.0
 30
0.0
  9
$PUCSORTHOREF
  2

  9
$PUCSORTHOVIEW
 70
     0
  9
$PUCSORGTOP
 10
0.0
 20
0.0
 30
0.0
  9
$PUCSORGBOTTOM
 10
0.0
 20
0.0
 30
0.0
  9
$PUCSORGLEFT
 10
0.0
 20
0.0
 30
0.0
  9
$PUCSORGRIGHT
 10
0.0
 20
0.0
 30
0.0
  9
$PUCSORGFRONT
 10
0.0
 20
0.0
 30
0.0
  9
$PUCSORGBACK
 10
0.0
 20
0.0
 30
0.0
  9
$USERI1
 70
     0
  9
$USERI2
 70
     0
  9
$USERI3
 70
     0
  9
$USERI4
 70
     0
  9
$USERI5
 70
     0
  9
$USERR1
 40
0.0
  9
$USERR2
 40
0.0
  9
$USERR3
 40
0.0
  9
$USERR4
 40
0.0
  9
$USERR5
 40
0.0
  9
$WORLDVIEW
 70
     1
  9
$SHADEDGE
 70
     3
  9
$SHADEDIF
 70
    70
  9
$TILEMODE
 70
     1
  9
$MAXACTVP
 70
    64
  9
$PINSBASE
 10
0.0
 20
0.0
 30
0.0
  9
$PLIMCHECK
 70
     0
  9
$PEXTMIN
 10
-40.25
 20
-53.0
 30
0.0
  9
$PEXTMAX
 10
83.05
 20
70.3
 30
0.0
  9
$PLIMMIN
 10
-52.8961538462
 20
-57.7423076923
  9
$PLIMMAX
 10
134.8992307692
 20
75.0423076923
  9
$UNITMODE
 70
     0
  9
$VISRETAIN
 70
     1
  9
$PLINEGEN
 70
     0
  9
$PSLTSCALE
 70
     1
  9
$TREEDEPTH
 70
  3020
  9
$CMLSTYLE
  2
Standard
  9
$CMLJUST
 70
     0
  9
$CMLSCALE
 40
20.0
  9
$PROXYGRAPHICS
 70
     1
  9
$MEASUREMENT
 70
     1
  9
$CELWEIGHT
370
    -1
  9
$ENDCAPS
280
     0
  9
$JOINSTYLE
280
     0
  9
$LWDISPLAY
290
     1
  9
$INSUNITS
 70
     4
  9
$HYPERLINKBASE
  1

  9
$STYLESHEET
  1

  9
$XEDIT
290
     1
  9
$CEPSNTYPE
380
     0
  9
$PSTYLEMODE
290
     1
  9
$FINGERPRINTGUID
  2
{F300C862-AAA9-44CD-A0AA-32CA42460253}
  9
$VERSIONGUID
  2
{FAEB1C32-E019-11D5-929B-00C0DF256EC4}
  9
$EXTNAMES
290
     1
  9
$PSVPSCALE
 40
0.0
  9
$OLESTARTUP
290
     0
  0
ENDSEC
  0
SECTION
  2
CLASSES
  0
CLASS
  1
ACDBDICTIONARYWDFLT
  2
AcDbDictionaryWithDefault
  3
ObjectDBX Classes
 90
        0
280
     0
281
     0
  0
CLASS
  1
VISUALSTYLE
  2
AcDbVisualStyle
  3
ObjectDBX Classes
 90
     4095
280
     0
281
     0
  0
CLASS
  1
MATERIAL
  2
AcDbMaterial
  3
ObjectDBX Classes
 90
     1153
280
     0
281
     0
  0
CLASS
  1
SCALE
  2
AcDbScale
  3
ObjectDBX Classes
 90
     1153
280
     0
281
     0
  0
CLASS
  1
TABLESTYLE
  2
AcDbTableStyle
  3
ObjectDBX Classes
 90
     4095
280
     0
281
     0
  0
CLASS
  1
MLEADERSTYLE
  2
AcDbMLeaderStyle
  3
ACDB_MLEADERSTYLE_CLASS
 90
     4095
280
     0
281
     0
  0
CLASS
  1
SUN
  2
AcDbSun
  3
SCENEOE
 90
     1153
280
     0
281
     0
  0
CLASS
  1
ACDBPLACEHOLDER
  2
AcDbPlaceHolder
  3
ObjectDBX Classes
 90
        0
280
     0
281
     0
  0
CLASS
  1
LAYOUT
  2
AcDbLayout
  3
ObjectDBX Classes
 90
        0
280
     0
281
     0
  0
ENDSEC
  0
SECTION
  2
TABLES
  0
TABLE
  2
VPORT
  5
8
330
0
100
AcDbSymbolTable
 70
     1
  0
VPORT
  5
29
330
8
100
AcDbSymbolTableRecord
100
AcDbViewportTableRecord
  2
*Active
 70
     0
 10
0.0
 20
0.0
 11
1.0
 21
1.0
 12
21.4
 22
8.6026868252
 13
0.0
 23
0.0
 14
10.0
 24
10.0
 15
10.0
 25
10.0
 16
0.0
 26
0.0
 36
1.0
 17
0.0
 27
0.0
 37
0.0
 40
99.6594811233
 41
1.2619572025
 42
50.0
 43
0.0
 44
0.0
 50
0.0
 51
0.0
 71
     0
 72
   100
 73
     1
 74
     3
 75
     0
 76
     0
 77
     0
 78
     0
281
     0
 65
     1
110
0.0
120
0.0
130
0.0
111
1.0
121
0.0
131
0.0
112
0.0
122
1.0
132
0.0
 79
     0
146
0.0
  0
ENDTAB
  0
TABLE
  2
LTYPE
  5
5
330
0
100
AcDbSymbolTable
 70
     6
  0
LTYPE
  5
14
330
5
100
AcDbSymbolTableRecord
100
AcDbLinetypeTableRecord
  2
ByBlock
 70
     0
  3

 72
    65
 73
     0
 40
0.0
  0
LTYPE
  5
15
330
5
100
AcDbSymbolTableRecord
100
AcDbLinetypeTableRecord
  2
ByLayer
 70
     0
  3

 72
    65
 73
     0
 40
0.0
  0
LTYPE
  5
16
330
5
100
AcDbSymbolTableRecord
100
AcDbLinetypeTableRecord
  2
Continuous
 70
     0
  3
Solid line
 72
    65
 73
     0
 40
0.0
  0
LTYPE
  5
6E
330
5
100
AcDbSymbolTableRecord
100
AcDbLinetypeTableRecord
  2
HIDDEN
 70
     0
  3
Hidden __ __ __ __ __ __ __ __ __ __ __ __ __ __
 72
    65
 73
     2
 40
1.905
 49
1.27
 74
     0
 49
-0.635
 74
     0
  0
LTYPE
  5
6F
330
5
100
AcDbSymbolTableRecord
100
AcDbLinetypeTableRecord
  2
PHANTOM
 70
     0
  3
Phantom ______  __  __  ______  __  __  ______
 72
    65
 73
     6
 40
12.7
 49
6.35
 74
     0
 49
-1.27
 74
     0
 49
1.27
 74
     0
 49
-1.27
 74
     0
 49
1.27
 74
     0
 49
-1.27
 74
     0
  0
LTYPE
  5
70
330
5
100
AcDbSymbolTableRecord
100
AcDbLinetypeTableRecord
  2
CENTER
 70
     0
  3
Center ____ _ ____ _ ____ _ ____ _ ____ _ ____
 72
    65
 73
     4
 40
10.16
 49
6.35
 74
     0
 49
-1.27
 74
     0
 49
1.27
 74
     0
 49
-1.27
 74
     0
  0
LTYPE
  5
71
330
5
100
AcDbSymbolTableRecord
100
AcDbLinetypeTableRecord
  2
CENTERX2
 70
     0
  3
Center (2x) ________  __  ________  __  _____
 72
    65
 73
     4
 40
20.32
 49
12.7
 74
     0
 49
-2.54
 74
     0
 49
2.54
 74
     0
 49
-2.54
 74
     0
  0
LTYPE
  5
72
330
5
100
AcDbSymbolTableRecord
100
AcDbLinetypeTableRecord
  2
DOT2
 70
     0
  3
Dot (.5x) ........................................
 72
    65
 73
     2
 40
0.635
 49
0.0
 74
     0
 49
-0.635
 74
     0
  0
ENDTAB
  0
TABLE
  2
LAYER
  5
2
330
0
100
AcDbSymbolTable
 70
     1
  0
LAYER
  5
10
330
2
100
AcDbSymbolTableRecord
100
AcDbLayerTableRecord
  2
0
 70
     0
 62
     7
  6
Continuous
370
    -3
390
F
  0
ENDTAB
  0
TABLE
  2
STYLE
  5
3
330
0
100
AcDbSymbolTable
 70
     1
  0
STYLE
  5
11
330
3
100
AcDbSymbolTableRecord
100
AcDbTextStyleTableRecord
  2
Standard
 70
     0
 40
0.0
 41
1.0
 50
0.0
 71
     0
 42
6.35
  3
txt
  4

  0
ENDTAB
  0
TABLE
  2
VIEW
  5
6
330
0
100
AcDbSymbolTable
 70
     0
  0
ENDTAB
  0
TABLE
  2
UCS
  5
7
330
0
100
AcDbSymbolTable
 70
     0
  0
ENDTAB
  0
TABLE
  2
APPID
  5
9
330
0
100
AcDbSymbolTable
 70
     1
  0
APPID
  5
12
330
9
100
AcDbSymbolTableRecord
100
AcDbRegAppTableRecord
  2
ACAD
 70
     0
  0
ENDTAB
  0
TABLE
  2
DIMSTYLE
  5
A
330
0
100
AcDbSymbolTable
 70
     1
100
AcDbDimStyleTable
  0
DIMSTYLE
105
27
330
A
100
AcDbSymbolTableRecord
100
AcDbDimStyleTableRecord
  2
ISO-25
 70
     0
 41
2.5
 42
0.625
 43
3.75
 44
1.25
 73
     0
 74
     0
 77
     1
 78
     8
140
2.5
141
2.5
143
0.0393700787
147
0.625
171
     3
172
     1
178
     0
271
     2
272
     2
274
     3
278
    44
283
     0
284
     8
340
11
  0
ENDTAB
  0
TABLE
  2
BLOCK_RECORD
  5
1
330
0
100
AcDbSymbolTable
 70
     1
  0
BLOCK_RECORD
  5
1F
330
1
100
AcDbSymbolTableRecord
100
AcDbBlockTableRecord
  2
*Model_Space
340
22
  0
BLOCK_RECORD
  5
1B
330
1
100
AcDbSymbolTableRecord
100
AcDbBlockTableRecord
  2
*Paper_Space
340
1E
  0
BLOCK_RECORD
  5
23
330
1
100
AcDbSymbolTableRecord
100
AcDbBlockTableRecord
  2
*Paper_Space0
340
26
  0
ENDTAB
  0
ENDSEC
  0
SECTION
  2
BLOCKS
  0
BLOCK
  5
20
330
1F
100
AcDbEntity
  8
0
100
AcDbBlockBegin
  2
*Model_Space
 70
     0
 10
0.0
 20
0.0
 30
0.0
  3
*Model_Space
  1

  0
ENDBLK
  5
21
330
1F
100
AcDbEntity
  8
0
100
AcDbBlockEnd
  0
BLOCK
  5
1C
330
1B
100
AcDbEntity
 67
     1
  8
0
100
AcDbBlockBegin
  2
*Paper_Space
 70
     0
 10
0.0
 20
0.0
 30
0.0
  3
*Paper_Space
  1

  0
ENDBLK
  5
1D
330
1B
100
AcDbEntity
 67
     1
  8
0
100
AcDbBlockEnd
  0
BLOCK
  5
24
330
23
100
AcDbEntity
  8
0
100
AcDbBlockBegin
  2
*Paper_Space0
 70
     0
 10
0.0
 20
0.0
 30
0.0
  3
*Paper_Space0
  1

  0
SPLINE
  5
F2
330
23
100
AcDbEntity
  8
0
  6
Continuous
 62
     7
370
    25
100
AcDbSpline
210
0.0
220
0.0
230
1.0
 70
     8
 71
     3
 72
    15
 73
    11
 74
     0
 42
0.000000001
 43
0.00000001
 40
0.0
 40
0.0
 40
0.0
 40
0.0
 40
0.0034235077169588
 40
0.2011854123938164
 40
0.4065494947509953
 40
0.5726586350271303
 40
0.7142638048018378
 40
0.8355864899319594
 40
0.9368362686029423
 40
1.0
 40
1.0
 40
1.0
 40
1.0
 10
37.49925735285672
 20
40.75876226132662
 30
0.0
 10
37.49952588896393
 20
40.75686734529931
 30
0.0
 10
37.51530664716223
 20
40.64551095474152
 30
0.0
 10
37.44912598669971
 20
40.41562270972974
 30
0.0
 10
37.29708795074389
 20
40.13481707294845
 30
0.0
 10
37.07989205839538
 20
39.93959235619343
 30
0.0
 10
36.8653855619664
 20
39.82794812183423
 30
0.0
 10
36.66718272423584
 20
39.7765416452977
 30
0.0
 10
36.50689026784487
 20
39.76315053375843
 30
0.0
 10
36.41540846545405
 20
39.77284023075785
 30
0.0
 10
36.38026334878119
 20
39.77656278019029
 30
0.0
  0
SPLINE
  5
F3
330
23
100
AcDbEntity
  8
0
  6
Continuous
 62
     7
370
    25
100
AcDbSpline
210
0.0
220
0.0
230
1.0
 70
     8
 71
     3
 72
    13
 73
     9
 74
     0
 42
0.000000001
 43
0.00000001
 40
0.0
 40
0.0
 40
0.0
 40
0.0
 40
0.0926717039497873
 40
0.2236565095203134
 40
0.4009951621343922
 40
0.6253485972123073
 40
0.8439938746441573
 40
1.0
 40
1.0
 40
1.0
 40
1.0
 10
52.40312584193308
 20
37.52957456222612
 30
0.0
 10
52.35789690061135
 20
37.53349891491806
 30
0.0
 10
52.24874009530652
 20
37.54297005861991
 30
0.0
 10
52.06248660786461
 20
37.6117424759414
 30
0.0
 10
51.83771615475975
 20
37.74891120246572
 30
0.0
 10
51.63728172393711
 20
37.98267689190973
 30
0.0
 10
51.51276927176432
 20
38.25789458057783
 30
0.0
 10
51.51208222765032
 20
38.44266783550353
 30
0.0
 10
51.51179614013168
 20
38.51960805074324
 30
0.0
  0
SPLINE
  5
FE
330
23
100
AcDbEntity
  8
0
  6
Continuous
 62
     8
370
    25
100
AcDbSpline
210
0.0
220
0.0
230
1.0
 70
     8
 71
     3
 72
    13
 73
     9
 74
     0
 42
0.000000001
 43
0.00000001
 40
0.0
 40
0.0
 40
0.0
 40
0.0
 40
0.1274636228871203
 40
0.3343034634280243
 40
0.5476623344505424
 40
0.7461330554369309
 40
0.9511758999096234
 40
0.9999999999999999
 40
0.9999999999999999
 40
0.9999999999999999
 40
0.9999999999999999
 10
38.96433772307068
 20
38.98843751103242
 30
0.0
 10
38.76569054755446
 20
39.04367048895216
 30
0.0
 10
38.24469140073058
 20
39.18853202195881
 30
0.0
 10
37.52975863540798
 20
39.4027947049867
 30
0.0
 10
36.90315024686086
 20
39.59985976571026
 30
0.0
 10
36.51291764839508
 20
39.72714077670712
 30
0.0
 10
36.34448244289295
 20
39.78308404998898
 30
0.0
 10
36.37450751540779
 20
39.77313076609551
 30
0.0
 10
36.38028198576355
 20
39.77121653448935
 30
0.0
  0
SPLINE
  5
FF
330
23
100
AcDbEntity
  8
0
  6
Continuous
 62
     8
370
    25
100
AcDbSpline
210
0.0
220
0.0
230
1.0
 70
     8
 71
     3
 72
    21
 73
    17
 74
     0
 42
0.000000001
 43
0.00000001
 40
0.0
 40
0.0
 40
0.0
 40
0.0
 40
0.0296870182618429
 40
0.099944110709698
 40
0.1723354813395989
 40
0.243135510303679
 40
0.3160345060752011
 40
0.3875139035190279
 40
0.4610773661290122
 40
0.53244041763417
 40
0.6058186877344056
 40
0.6768949316391112
 40
0.7498709077677735
 40
0.8219270506343966
 40
0.895871877562238
 40
1.0
 40
1.0
 40
1.0
 40
1.0
 10
52.33243957674546
 20
37.52727039149875
 30
0.0
 10
52.33943528738247
 20
37.52769885676508
 30
0.0
 10
52.36298699851196
 20
37.52914132497244
 30
0.0
 10
52.16342310808874
 20
37.51688196735619
 30
0.0
 10
51.74847235260366
 20
37.49480623262424
 30
0.0
 10
51.10542846806695
 20
37.46935342626572
 30
0.0
 10
50.2807527635519
 20
37.45248623373209
 30
0.0
 10
49.27988442011981
 20
37.45584848814009
 30
0.0
 10
48.15192529070364
 20
37.49097485726762
 30
0.0
 10
46.91352067485356
 20
37.56774498742806
 30
0.0
 10
45.62472590627134
 20
37.68977372837502
 30
0.0
 10
44.29927338806269
 20
37.85972801203039
 30
0.0
 10
42.98828569380943
 20
38.07136953011061
 30
0.0
 10
41.70484438387922
 20
38.32025208053125
 30
0.0
 10
40.30908141364286
 20
38.63210722848158
 30
0.0
 10
39.46052873596972
 20
38.85695677974876
 30
0.0
 10
38.96433772307068
 20
38.98843751103242
 30
0.0
  0
SPLINE
  5
101
330
23
100
AcDbEntity
  8
0
  6
Continuous
 62
     8
370
    25
100
AcDbSpline
210
0.0
220
0.0
230
1.0
 70
     8
 71
     3
 72
    21
 73
    17
 74
     0
 42
0.000000001
 43
0.00000001
 40
0.0
 40
0.0
 40
0.0
 40
0.0
 40
0.1045072703857294
 40
0.1781180301591947
 40
0.2517174282671142
 40
0.322366947717183
 40
0.3930046505156253
 40
0.4647758765756457
 40
0.5365454326590134
 40
0.6088991028032331
 40
0.6812582150787817
 40
0.7535664404468232
 40
0.8258764642013152
 40
0.8981212961088666
 40
0.9703649058627694
 40
1.0
 40
1.0
 40
1.0
 40
1.0
 10
39.77807197102864
 20
39.96806891703631
 30
0.0
 10
40.21160280302156
 20
39.83512003148302
 30
0.0
 10
40.95049548984461
 20
39.60852724497919
 30
0.0
 10
42.18078444744932
 20
39.29173263204922
 30
0.0
 10
43.30331663796385
 20
39.04074017709045
 30
0.0
 10
44.45266746995379
 20
38.82909215789605
 30
0.0
 10
45.59984172513118
 20
38.66037018928946
 30
0.0
 10
46.72914965698862
 20
38.54016987047172
 30
0.0
 10
47.81047843895692
 20
38.46500076530254
 30
0.0
 10
48.80131396213805
 20
38.43325104950025
 30
0.0
 10
49.67566503242173
 20
38.43297052942229
 30
0.0
 10
50.39895676476188
 20
38.45327488018443
 30
0.0
 10
50.96142394480294
 20
38.48182393160101
 30
0.0
 10
51.32502788685814
 20
38.50566838875087
 30
0.0
 10
51.50165420689974
 20
38.51947205924586
 30
0.0
 10
51.48149243969132
 20
38.51783264508414
 30
0.0
 10
51.47562766279119
 20
38.51735576236814
 30
0.0
  0
SPLINE
  5
102
330
23
100
AcDbEntity
  8
0
  6
Continuous
 62
     8
370
    25
100
AcDbSpline
210
0.0
220
0.0
230
1.0
 70
     8
 71
     3
 72
    13
 73
     9
 74
     0
 42
0.000000001
 43
0.00000001
 40
0.0
 40
0.0
 40
0.0
 40
0.0
 40
0.0477524128100247
 40
0.2500914103630701
 40
0.4524746845478313
 40
0.6626377302529352
 40
0.8728710133459416
 40
1.0
 40
1.0
 40
1.0
 40
1.0
 10
37.51726799402503
 20
40.76127052885145
 30
0.0
 10
37.51215580142725
 20
40.76324675517769
 30
0.0
 10
37.48538196149759
 20
40.77359675007931
 30
0.0
 10
37.63370402881494
 20
40.71622331436144
 30
0.0
 10
37.96853285016757
 20
40.58989353195565
 30
0.0
 10
38.51979225606012
 20
40.3888369931764
 30
0.0
 10
39.14266432514253
 20
40.17253575343917
 30
0.0
 10
39.60416400393446
 20
40.02403049081845
 30
0.0
 10
39.77807197102864
 20
39.9680689170363
 30
0.0
  0
SPLINE
  5
103
330
23
100
AcDbEntity
  8
0
  6
Continuous
 62
     8
370
    25
100
AcDbSpline
210
0.0
220
0.0
230
1.0
 70
     8
 71
     3
 72
    16
 73
    12
 74
     0
 42
0.000000001
 43
0.00000001
 40
0.0
 40
0.0
 40
0.0
 40
0.0
 40
0.181456889799281
 40
0.289744605175391
 40
0.3980030616275338
 40
0.5066880277982154
 40
0.61536396183224
 40
0.7299587641642804
 40
0.8445824074668786
 40
0.9631097608594397
 40
1.0
 40
1.0
 40
1.0
 40
1.0
 10
-35.21418884373286
 20
39.96922717825645
 30
0.0
 10
-34.76422137251274
 20
40.10905902480895
 30
0.0
 10
-34.04572758903248
 20
40.33233808142187
 30
0.0
 10
-32.82358165194621
 20
40.56211627702397
 30
0.0
 10
-31.75917386899629
 20
40.69900302704305
 30
0.0
 10
-30.63907677231019
 20
40.76942205313772
 30
0.0
 10
-29.4809581146
 20
40.77181546635653
 30
0.0
 10
-28.31729735088124
 20
40.69734191859497
 30
0.0
 10
-27.18535530339943
 20
40.54804461102122
 30
0.0
 10
-26.35180046595644
 20
40.39092097434472
 30
0.0
 10
-25.94641973466922
 20
40.27703274431549
 30
0.0
 10
-25.8501977312498
 20
40.25000000000001
 30
0.0
  0
SPLINE
  5
104
330
23
100
AcDbEntity
  8
0
  6
Continuous
 62
     8
370
    25
100
AcDbSpline
210
0.0
220
0.0
230
1.0
 70
     8
 71
     3
 72
     9
 73
     5
 74
     0
 42
0.000000001
 43
0.00000001
 40
0.0
 40
0.0
 40
0.0
 40
0.0
 40
0.0283953016923826
 40
1.0
 40
1.0
 40
1.0
 40
1.0
 10
-35.49597542463985
 20
39.86672529894639
 30
0.0
 10
-35.49368086768149
 20
39.86771431934532
 30
0.0
 10
-35.41287324030628
 20
39.90254474339358
 30
0.0
 10
-35.31210030304154
 20
39.93636614528014
 30
0.0
 10
-35.21418884373286
 20
39.96922717825645
 30
0.0
  0
LINE
  5
105
330
23
100
AcDbEntity
  8
0
  6
Continuous
 62
     7
370
    25
100
AcDbLine
 10
-30.05
 20
-40.25
 30
0.0
 11
33.0
 21
-40.25
 31
0.0
  0
LINE
  5
106
330
23
100
AcDbEntity
  8
0
  6
Continuous
 62
     7
370
    25
100
AcDbLine
 10
33.0
 20
40.25
 30
0.0
 11
-30.05
 21
40.25
 31
0.0
  0
LINE
  5
107
330
23
100
AcDbEntity
  8
0
  6
Continuous
 62
     7
370
    25
100
AcDbLine
 10
33.0
 20
-40.25
 30
0.0
 11
52.5695865505
 21
-37.4996739714
 31
0.0
  0
LINE
  5
108
330
23
100
AcDbEntity
  8
0
  6
Continuous
 62
     7
370
    25
100
AcDbLine
 10
36.3807940943
 20
39.774860376
 30
0.0
 11
33.0
 21
40.25
 31
0.0
  0
LINE
  5
109
330
23
100
AcDbEntity
  8
0
  6
Continuous
 62
     7
370
    25
100
AcDbLine
 10
52.5695865505
 20
37.4996739714
 30
0.0
 11
52.3332296104
 21
37.5328917731
 31
0.0
  0
LINE
  5
10A
330
23
100
AcDbEntity
  8
0
  6
Continuous
 62
     7
370
    25
100
AcDbLine
 10
51.5
 20
38.5173462096
 30
0.0
 11
51.5
 21
57.4038651834
 31
0.0
  0
LINE
  5
10B
330
23
100
AcDbEntity
  8
0
  6
Continuous
 62
     7
370
    25
100
AcDbLine
 10
37.5
 20
57.4038651834
 30
0.0
 11
37.5
 21
40.76116662
 31
0.0
  0
LINE
  5
10C
330
23
100
AcDbEntity
  8
0
  6
Continuous
 62
     7
370
    25
100
AcDbLine
 10
-23.05
 20
40.25
 30
0.0
 11
-23.05
 21
57.4553736503
 31
0.0
  0
LINE
  5
10D
330
23
100
AcDbEntity
  8
0
  6
Continuous
 62
     7
370
    25
100
AcDbLine
 10
-37.05
 20
57.4553736503
 30
0.0
 11
-37.05
 21
39.6366307852
 31
0.0
  0
LINE
  5
10E
330
23
100
AcDbEntity
  8
0
  6
Continuous
 62
     7
370
    25
100
AcDbLine
 10
33.0
 20
-40.25
 30
0.0
 11
33.0
 21
40.25
 31
0.0
  0
LINE
  5
10F
330
23
100
AcDbEntity
  8
0
  6
Continuous
 62
     7
370
    25
100
AcDbLine
 10
53.0
 20
37.004539937
 30
0.0
 11
53.0
 21
-37.004539937
 31
0.0
  0
LINE
  5
110
330
23
100
AcDbEntity
  8
0
  6
Continuous
 62
     7
370
    25
100
AcDbLine
 10
51.5
 20
57.4038651834
 30
0.0
 11
37.5
 21
57.4038651834
 31
0.0
  0
LINE
  5
111
330
23
100
AcDbEntity
  8
0
  6
Continuous
 62
     7
370
    25
100
AcDbLine
 10
-23.05
 20
57.4553736503
 30
0.0
 11
-37.05
 21
57.4553736503
 31
0.0
  0
LINE
  5
112
330
23
100
AcDbEntity
  8
0
  6
Continuous
 62
     8
370
    25
100
AcDbLine
 10
0.0
 20
40.25
 30
0.0
 11
0.0
 21
-40.25
 31
0.0
  0
LINE
  5
113
330
23
100
AcDbEntity
  8
0
  6
Continuous
 62
     8
370
    25
100
AcDbLine
 10
52.5695865505
 20
-37.4996739714
 30
0.0
 11
52.5695865505
 21
37.4996739714
 31
0.0
  0
ARC
  5
114
330
23
100
AcDbEntity
  8
0
  6
Continuous
 62
     7
370
    25
100
AcDbCircle
 10
52.5
 20
37.004539937
 30
0.0
 40
0.5000000000000104
100
AcDbArc
 50
0.0
 51
82.0
  0
ARC
  5
115
330
23
100
AcDbEntity
  8
0
  6
Continuous
 62
     7
370
    25
100
AcDbCircle
 10
52.5
 20
-37.004539937
 30
0.0
 40
0.5000000000000114
100
AcDbArc
 50
278.0
 51
0.0
  0
ARC
  5
116
330
23
100
AcDbEntity
  8
0
  6
Continuous
 62
     7
370
    25
100
AcDbCircle
 10
-30.05
 20
0.0
 30
0.0
 40
40.25000000000001
100
AcDbArc
 50
90.0
 51
270.0
  0
VIEWPORT
  5
119
330
23
100
AcDbEntity
  8
0
100
AcDbViewport
 10
0.0
 20
0.0
 30
0.0
 40
205.6
 41
156.0
 68
     1
 69
     1
 12
21.4
 22
8.6026868252
 13
0.0
 23
0.0
 14
10.0
 24
10.0
 15
10.0
 25
10.0
 16
0.0
 26
0.0
 36
1.0
 17
0.0
 27
0.0
 37
0.0
 42
50.0
 43
0.0
 44
0.0
 45
99.6594811233
 50
0.0
 51
0.0
 72
   100
 90
   557152
  1

281
     0
 71
     1
 74
     0
110
0.0
120
0.0
130
0.0
111
1.0
121
0.0
131
0.0
112
0.0
122
1.0
132
0.0
 79
     0
146
0.0
  0
ENDBLK
  5
25
330
23
100
AcDbEntity
  8
0
100
AcDbBlockEnd
  0
ENDSEC
  0
SECTION
  2
ENTITIES
  0
SPLINE
  5
73
330
1F
100
AcDbEntity
  8
0
  6
Continuous
 62
     7
370
    25
100
AcDbSpline
210
0.0
220
0.0
230
1.0
 70
     8
 71
     3
 72
    11
 73
     7
 74
     0
 42
0.000000001
 43
0.00000001
 40
0.0
 40
0.0
 40
0.0
 40
0.0
 40
0.1394134313707602
 40
0.4332150477831168
 40
0.7153922001349228
 40
1.0
 40
1.0
 40
1.0
 40
1.0
 10
-7.013308530127327
 20
38.82865598922961
 30
0.0
 10
-7.010237166370323
 20
38.78295906314158
 30
0.0
 10
-7.000693172053065
 20
38.6409598610265
 30
0.0
 10
-7.078747880566567
 20
38.46995855291308
 30
0.0
 10
-7.152563081861414
 20
38.36089959630083
 30
0.0
 10
-7.162804682380633
 20
38.35271023458004
 30
0.0
 10
-7.167947443104024
 20
38.34859799375123
 30
0.0
  0
SPLINE
  5
74
330
1F
100
AcDbEntity
  8
0
  6
Continuous
 62
     7
370
    25
100
AcDbSpline
210
0.0
220
0.0
230
1.0
 70
     8
 71
     3
 72
    11
 73
     7
 74
     0
 42
0.000000001
 43
0.00000001
 40
0.0
 40
0.0
 40
0.0
 40
0.0
 40
0.1828836223023711
 40
0.4763581582961919
 40
0.7591516419361766
 40
1.0
 40
1.0
 40
1.0
 40
1.0
 10
7.158547188984294
 20
38.357074237786
 30
0.0
 10
7.159872812653446
 20
38.35563005474197
 30
0.0
 10
7.163325673230471
 20
38.35186838179146
 30
0.0
 10
7.105409332962571
 20
38.42232369368007
 30
0.0
 10
7.019125974203882
 20
38.5853059878915
 30
0.0
 10
7.01009417717594
 20
38.75597235026792
 30
0.0
 10
7.005940014327784
 20
38.83447011320706
 30
0.0
  0
SPLINE
  5
80
330
1F
100
AcDbEntity
  8
0
  6
Continuous
 62
     7
370
    25
100
AcDbSpline
210
0.0
220
0.0
230
1.0
 70
     8
 71
     3
 72
    12
 73
     8
 74
     0
 42
0.000000001
 43
0.00000001
 40
0.0
 40
0.0
 40
0.0
 40
0.0
 40
0.1451934358290151
 40
0.3516774448699704
 40
0.5806037159258971
 40
0.8068661005175395
 40
1.0
 40
1.0
 40
1.0
 40
1.0
 10
82.38661204608067
 20
37.53523071589067
 30
0.0
 10
82.31997964888444
 20
37.54929649151131
 30
0.0
 10
82.15858728939014
 20
37.58336563521701
 30
0.0
 10
81.91912925798981
 20
37.72352043072544
 30
0.0
 10
81.706485781619
 20
37.95201425544305
 30
0.0
 10
81.56934516556807
 20
38.23221545442814
 30
0.0
 10
81.56153908432535
 20
38.42967625774889
 30
0.0
 10
81.55794434835046
 20
38.52060785726097
 30
0.0
  0
SPLINE
  5
81
330
1F
100
AcDbEntity
  8
0
  6
Continuous
 62
     7
370
    25
100
AcDbSpline
210
0.0
220
0.0
230
1.0
 70
     8
 71
     3
 72
    15
 73
    11
 74
     0
 42
0.000000001
 43
0.00000001
 40
0.0
 40
0.0
 40
0.0
 40
0.0
 40
0.0022965347387554
 40
0.2012219498649152
 40
0.4073668280110105
 40
0.5741901106881073
 40
0.7164359170252906
 40
0.8382952375670778
 40
0.9399635874265065
 40
1.0
 40
1.0
 40
1.0
 40
1.0
 10
67.54979508565357
 20
40.75569870834163
 30
0.0
 10
67.54997188366082
 20
40.75443442938776
 30
0.0
 10
67.56546289241734
 20
40.64365854083837
 30
0.0
 10
67.49899550920298
 20
40.41464574288956
 30
0.0
 10
67.3469800120874
 20
40.13424917209163
 30
0.0
 10
67.13002201161015
 20
39.93938663832634
 30
0.0
 10
66.91577932289509
 20
39.82785689746288
 30
0.0
 10
66.71783668428641
 20
39.776528134971
 30
0.0
 10
66.55965123313601
 20
39.76306864302322
 30
0.0
 10
66.47017421672244
 20
39.77240344203953
 30
0.0
 10
66.43695392690272
 20
39.77586918934718
 30
0.0
  0
CIRCLE
  5
84
330
1F
100
AcDbEntity
  8
0
  6
Continuous
 62
     7
370
    25
100
AcDbCircle
 10
0.0
 20
0.0
 30
0.0
 40
33.12185742572769
  0
CIRCLE
  5
85
330
1F
100
AcDbEntity
  8
0
  6
Continuous
 62
     7
370
    25
100
AcDbCircle
 10
0.0
 20
0.0
 30
0.0
 40
32.60440767737636
  0
CIRCLE
  5
86
330
1F
100
AcDbEntity
  8
0
  6
Continuous
 62
     7
370
    25
100
AcDbCircle
 10
0.0
 20
0.0
 30
0.0
 40
37.00453993704399
  0
CIRCLE
  5
87
330
1F
100
AcDbEntity
  8
0
  6
Continuous
 62
     7
370
    25
100
AcDbCircle
 10
0.0
 20
0.0
 30
0.0
 40
37.49967397141484
  0
SPLINE
  5
8A
330
1F
100
AcDbEntity
  8
0
  6
Continuous
 62
     7
370
    25
100
AcDbSpline
210
0.0
220
0.0
230
1.0
 70
     8
 71
     3
 72
    18
 73
    14
 74
     0
 42
0.000000001
 43
0.00000001
 40
0.0
 40
0.0
 40
0.0
 40
0.0
 40
0.1249999999999997
 40
0.1249999999999997
 40
0.2499999999999993
 40
0.2499999999999993
 40
0.4999999999999996
 40
0.4999999999999996
 40
0.6249999999999997
 40
0.6249999999999997
 40
0.7499999999999998
 40
0.7499999999999998
 40
1.0
 40
1.0
 40
1.0
 40
1.0
 10
3.30760723829307
 20
37.48962565557877
 30
0.0
 10
3.061057308066328
 20
37.49465116864045
 30
0.0
 10
2.80825109471828
 20
37.4996577859791
 30
0.0
 10
2.289831224007454
 20
37.50895839270315
 30
0.0
 10
2.022514430984168
 20
37.51327203282764
 30
0.0
 10
1.217095534737457
 20
37.52406719846689
 30
0.0
 10
0.6741011818501494
 20
37.52839063960909
 30
0.0
 10
-0.1493733650428236
 20
37.5292289745033
 30
0.0
 10
-0.4268072139226725
 20
37.528575522399
 30
0.0
 10
-0.9779723614952752
 20
37.5254544954949
 30
0.0
 10
-1.249850494557898
 20
37.5230092701534
 30
0.0
 10
-2.054755613405422
 20
37.51351464698439
 30
0.0
 10
-2.577170603819314
 20
37.50422887760848
 30
0.0
 10
-3.084971209803961
 20
37.49411597139976
 30
0.0
  0
CIRCLE
  5
8B
330
1F
100
AcDbEntity
  8
0
  6
Continuous
 62
     7
370
    25
100
AcDbCircle
 10
0.0
 20
0.0
 30
0.0
 40
32.0499999999999
  0
CIRCLE
  5
8F
330
1F
100
AcDbEntity
  8
0
  6
Continuous
 62
     7
370
    25
100
AcDbCircle
 10
0.0
 20
0.0
 30
0.0
 40
31.04999999999962
  0
CIRCLE
  5
90
330
1F
100
AcDbEntity
  8
0
  6
Continuous
 62
     7
370
    25
100
AcDbCircle
 10
0.0
 20
0.0
 30
0.0
 40
30.05000000000014
  0
SPLINE
  5
92
330
1F
100
AcDbEntity
  8
0
  6
Continuous
 62
     8
370
    25
100
AcDbSpline
210
0.0
220
0.0
230
1.0
 70
     8
 71
     3
 72
    16
 73
    12
 74
     0
 42
0.000000001
 43
0.00000001
 40
0.0
 40
0.0
 40
0.0
 40
0.0
 40
0.0556949334891905
 40
0.1697772087785958
 40
0.2871842134796666
 40
0.3982030084753861
 40
0.5124533167431751
 40
0.6740910939004441
 40
0.781996966292135
 40
0.8930337267747749
 40
1.0
 40
1.0
 40
1.0
 40
1.0
 10
7.199983594961589
 20
38.40551853539193
 30
0.0
 10
7.286837277743232
 20
38.3603457183201
 30
0.0
 10
7.551597012803708
 20
38.22264351967019
 30
0.0
 10
7.765220897198666
 20
38.01563726770777
 30
0.0
 10
7.834000797990599
 20
37.80515872397516
 30
0.0
 10
7.66039524636657
 20
37.64406675158081
 30
0.0
 10
7.212979202909787
 20
37.51884747941003
 30
0.0
 10
6.467075532359038
 20
37.46072033298859
 30
0.0
 10
5.46963545557768
 20
37.45124097701396
 30
0.0
 10
4.464512127157938
 20
37.46536366311223
 30
0.0
 10
3.688411830596913
 20
37.48163962471433
 30
0.0
 10
3.30760723829307
 20
37.48962565557876
 30
0.0
  0
SPLINE
  5
93
330
1F
100
AcDbEntity
  8
0
  6
Continuous
 62
     8
370
    25
100
AcDbSpline
210
0.0
220
0.0
230
1.0
 70
     8
 71
     3
 72
    17
 73
    13
 74
     0
 42
0.000000001
 43
0.00000001
 40
0.0
 40
0.0
 40
0.0
 40
0.0
 40
0.1028556221575735
 40
0.2087605444358726
 40
0.3126031275972906
 40
0.419473362334823
 40
0.523146922487601
 40
0.62974811650456
 40
0.7330050133506181
 40
0.8390217697996573
 40
0.9437022270432783
 40
1.0
 40
1.0
 40
1.0
 40
1.0
 10
-3.084971209803961
 20
37.49411597139976
 30
0.0
 10
-3.474078269915741
 20
37.48598851549202
 30
0.0
 10
-4.263828018240955
 20
37.46949265377258
 30
0.0
 10
-5.297581719381443
 20
37.45244946146749
 30
0.0
 10
-6.195720334369391
 20
37.45585806185007
 30
0.0
 10
-6.907765015847535
 20
37.49097435850365
 30
0.0
 10
-7.42899218397413
 20
37.56773784253696
 30
0.0
 10
-7.736985428025554
 20
37.68980346238035
 30
0.0
 10
-7.836723088408819
 20
37.85961915759376
 30
0.0
 10
-7.715262452853901
 20
38.07178626149518
 30
0.0
 10
-7.467052860539513
 20
38.27901995854355
 30
0.0
 10
-7.186408090678269
 20
38.41685843128249
 30
0.0
 10
-7.088260188844113
 20
38.46506370123298
 30
0.0
  0
SPLINE
  5
94
330
1F
100
AcDbEntity
  8
0
  6
Continuous
 62
     8
370
    25
100
AcDbSpline
210
0.0
220
0.0
230
1.0
 70
     8
 71
     3
 72
    26
 73
    22
 74
     0
 42
0.000000001
 43
0.00000001
 40
0.0
 40
0.0
 40
0.0
 40
0.0
 40
0.0506046128746068
 40
0.1037534046579473
 40
0.1569009597724128
 40
0.2104810692446926
 40
0.2640652087819543
 40
0.3176116650051631
 40
0.3711594529886363
 40
0.4246589644121394
 40
0.478157570793422
 40
0.531765460093984
 40
0.5853738821754924
 40
0.638820077493238
 40
0.6922663824966273
 40
0.74572491858933
 40
0.799179999075419
 40
0.8775587232464276
 40
0.9319924753995005
 40
0.9864309612726389
 40
1.0
 40
1.0
 40
1.0
 40
1.0
 10
-6.996464467444056
 20
38.83047176756806
 30
0.0
 10
-6.981790833402446
 20
38.77362313757736
 30
0.0
 10
-6.951705839089883
 20
38.65706777677872
 30
0.0
 10
-6.665907051936554
 20
38.54071972485728
 30
0.0
 10
-6.2065589846589
 20
38.46485136189976
 30
0.0
 10
-5.562607148403162
 20
38.43329399926512
 30
0.0
 10
-4.763492544994051
 20
38.43294867920584
 30
0.0
 10
-3.826506573036272
 20
38.45331932895254
 30
0.0
 10
-2.784145212731105
 20
38.48166802753295
 30
0.0
 10
-1.661606560805044
 20
38.50624698802851
 30
0.0
 10
-0.4924107257994192
 20
38.52070101671325
 30
0.0
 10
0.6919572380448547
 20
38.51876452213875
 30
0.0
 10
1.856582632966872
 20
38.50312188146464
 30
0.0
 10
2.966217919683035
 20
38.47652666740397
 30
0.0
 10
3.992660508902266
 20
38.44914234075917
 30
0.0
 10
4.904869039680428
 20
38.43136098032537
 30
0.0
 10
5.799922824300764
 20
38.43652344187092
 30
0.0
 10
6.475919932338924
 20
38.48974872988557
 30
0.0
 10
6.863082518976514
 20
38.61667926370117
 30
0.0
 10
7.015574106826496
 20
38.72624609270434
 30
0.0
 10
6.986269486902748
 20
38.81365464606105
 30
0.0
 10
6.980422552685222
 20
38.83109462865955
 30
0.0
  0
SPLINE
  5
95
330
1F
100
AcDbEntity
  8
0
  6
Continuous
 62
     8
370
    25
100
AcDbSpline
210
0.0
220
0.0
230
1.0
 70
     8
 71
     3
 72
    26
 73
    22
 74
     0
 42
0.000000001
 43
0.00000001
 40
0.0
 40
0.0
 40
0.0
 40
0.0
 40
0.0358147369118592
 40
0.0876336106117603
 40
0.1410216158097507
 40
0.2223420184263335
 40
0.274456388700996
 40
0.3280596536036608
 40
0.3805774094044498
 40
0.4345782005363967
 40
0.4869666424421862
 40
0.5407634574622346
 40
0.5937510026172848
 40
0.6481249747930221
 40
0.7024122564549433
 40
0.7582041330733431
 40
0.8127041492316264
 40
0.8689014248792793
 40
0.9213908934169429
 40
0.9756198070450915
 40
1.0
 40
1.0
 40
1.0
 40
1.0
 10
82.38491846777262
 20
37.5274250357963
 30
0.0
 10
82.38500588931915
 20
37.5274201034307
 30
0.0
 10
82.38521979751522
 20
37.52740803462765
 30
0.0
 10
82.1239972987552
 20
37.51173796866304
 30
0.0
 10
81.56066245403947
 20
37.48350243889436
 30
0.0
 10
80.67645188443055
 20
37.45493851962055
 30
0.0
 10
79.54875429017625
 20
37.45299285292324
 30
0.0
 10
78.45543648303011
 20
37.4802657835846
 30
0.0
 10
77.24242112301899
 20
37.54701651809173
 30
0.0
 10
75.96630526468022
 20
37.65843722141164
 30
0.0
 10
74.6446324686344
 20
37.81799289744912
 30
0.0
 10
73.33081829748585
 20
38.02043328867932
 30
0.0
 10
72.03507693546786
 20
38.2623198840151
 30
0.0
 10
70.8015752940621
 20
38.53079299152895
 30
0.0
 10
69.64630461616235
 20
38.81538395697636
 30
0.0
 10
68.62049588136504
 20
39.09458133430417
 30
0.0
 10
67.74672209470191
 20
39.35145122767817
 30
0.0
 10
67.07543035768487
 20
39.56074085869664
 30
0.0
 10
66.62893080187489
 20
39.70534710484888
 30
0.0
 10
66.4151284377959
 20
39.77623589010659
 30
0.0
 10
66.43139560840946
 20
39.77084247825949
 30
0.0
 10
66.43644078416108
 20
39.76916974049114
 30
0.0
  0
SPLINE
  5
99
330
1F
100
AcDbEntity
  8
0
  6
Continuous
 62
     8
370
    25
100
AcDbSpline
210
0.0
220
0.0
230
1.0
 70
     8
 71
     3
 72
    26
 73
    22
 74
     0
 42
0.000000001
 43
0.00000001
 40
0.0
 40
0.0
 40
0.0
 40
0.0
 40
0.0242772039812337
 40
0.0781542130271669
 40
0.132044781721531
 40
0.1877706886646599
 40
0.2435143980452156
 40
0.2986180337291323
 40
0.3537247118840735
 40
0.4070857968181492
 40
0.4604381805199031
 40
0.5129449348082222
 40
0.5654431636312874
 40
0.6181416265527255
 40
0.6708398203958132
 40
0.7234821392210641
 40
0.7761282950564986
 40
0.8577502189825137
 40
0.910859676931678
 40
0.9639682689038235
 40
1.0
 40
1.0
 40
1.0
 40
1.0
 10
67.5732481943514
 20
40.75893933313066
 30
0.0
 10
67.5685519187714
 20
40.76077028798558
 30
0.0
 10
67.5534334676352
 20
40.76666457613693
 30
0.0
 10
67.74095409844037
 20
40.69433407423004
 30
0.0
 10
68.12503294153107
 20
40.55037519521723
 30
0.0
 10
68.71552007750951
 20
40.33695625960438
 30
0.0
 10
69.47290133525149
 20
40.07890507392357
 30
0.0
 10
70.37499255919637
 20
39.7949435817996
 30
0.0
 10
71.37919732576184
 20
39.5083643501483
 30
0.0
 10
72.46417841196421
 20
39.23627556897673
 30
0.0
 10
73.59251619659486
 20
38.99285035658249
 30
0.0
 10
74.74836582891584
 20
38.78925527233037
 30
0.0
 10
75.90120011920173
 20
38.62956572261985
 30
0.0
 10
77.02345972163263
 20
38.51981948176382
 30
0.0
 10
78.0827641606333
 20
38.45486623587685
 30
0.0
 10
79.04313923421918
 20
38.43105491184604
 30
0.0
 10
80.0329708684777
 20
38.43666671666329
 30
0.0
 10
80.80499729559436
 20
38.46955018830985
 30
0.0
 10
81.29682051971133
 20
38.50008515306771
 30
0.0
 10
81.52728316917988
 20
38.51759694539187
 30
0.0
 10
81.5276146111824
 20
38.51750968472554
 30
0.0
 10
81.52774858454819
 20
38.51747441277727
 30
0.0
  0
LINE
  5
9A
330
1F
100
AcDbEntity
  8
0
  6
Continuous
 62
     7
370
    25
100
AcDbLine
 10
7.0
 20
38.8325897041
 30
0.0
 11
7.0
 21
57.4038651834
 31
0.0
  0
LINE
  5
9B
330
1F
100
AcDbEntity
  8
0
  6
Continuous
 62
     7
370
    25
100
AcDbLine
 10
-7.0
 20
57.4038651834
 30
0.0
 11
-7.0
 21
38.829198959
 31
0.0
  0
LINE
  5
9C
330
1F
100
AcDbEntity
  8
0
  6
Continuous
 62
     7
370
    25
100
AcDbLine
 10
63.05
 20
-40.25
 30
0.0
 11
82.6195865505
 21
-37.4996739714
 31
0.0
  0
LINE
  5
9D
330
1F
100
AcDbEntity
  8
0
  6
Continuous
 62
     7
370
    25
100
AcDbLine
 10
66.4371156884
 20
39.7739719339
 30
0.0
 11
63.05
 21
40.25
 31
0.0
  0
LINE
  5
9E
330
1F
100
AcDbEntity
  8
0
  6
Continuous
 62
     7
370
    25
100
AcDbLine
 10
82.6195865505
 20
37.4996739714
 30
0.0
 11
82.3856391745
 21
37.5325531309
 31
0.0
  0
LINE
  5
9F
330
1F
100
AcDbEntity
  8
0
  6
Continuous
 62
     7
370
    25
100
AcDbLine
 10
63.05
 20
40.25
 30
0.0
 11
7.0
 21
40.25
 31
0.0
  0
LINE
  5
A0
330
1F
100
AcDbEntity
  8
0
  6
Continuous
 62
     7
370
    25
100
AcDbLine
 10
0.0
 20
-40.25
 30
0.0
 11
63.05
 21
-40.25
 31
0.0
  0
LINE
  5
A1
330
1F
100
AcDbEntity
  8
0
  6
Continuous
 62
     7
370
    25
100
AcDbLine
 10
81.55
 20
38.5174857427
 30
0.0
 11
81.55
 21
57.4553736503
 31
0.0
  0
LINE
  5
A2
330
1F
100
AcDbEntity
  8
0
  6
Continuous
 62
     7
370
    25
100
AcDbLine
 10
67.55
 20
57.4553736503
 30
0.0
 11
67.55
 21
40.7589277228
 31
0.0
  0
LINE
  5
A3
330
1F
100
AcDbEntity
  8
0
  6
Continuous
 62
     7
370
    25
100
AcDbLine
 10
7.0
 20
57.4038651834
 30
0.0
 11
-7.0
 21
57.4038651834
 31
0.0
  0
LINE
  5
A4
330
1F
100
AcDbEntity
  8
0
  6
Continuous
 62
     7
370
    25
100
AcDbLine
 10
63.05
 20
-40.25
 30
0.0
 11
63.05
 21
40.25
 31
0.0
  0
LINE
  5
A5
330
1F
100
AcDbEntity
  8
0
  6
Continuous
 62
     7
370
    25
100
AcDbLine
 10
83.05
 20
37.004539937
 30
0.0
 11
83.05
 21
-37.004539937
 31
0.0
  0
LINE
  5
A6
330
1F
100
AcDbEntity
  8
0
  6
Continuous
 62
     7
370
    25
100
AcDbLine
 10
81.55
 20
57.4553736503
 30
0.0
 11
67.55
 21
57.4553736503
 31
0.0
  0
LINE
  5
A7
330
1F
100
AcDbEntity
  8
0
  6
Continuous
 62
     8
370
    25
100
AcDbLine
 10
82.6195865505
 20
-37.4996739714
 30
0.0
 11
82.6195865505
 21
37.4996739714
 31
0.0
  0
LINE
  5
A8
330
1F
100
AcDbEntity
  8
0
  6
Continuous
 62
     8
370
    25
100
AcDbLine
 10
30.05
 20
-26.7779760251
 30
0.0
 11
30.05
 21
-40.25
 31
0.0
  0
LINE
  5
A9
330
1F
100
AcDbEntity
  8
0
  6
Continuous
 62
     8
370
    25
100
AcDbLine
 10
30.05
 20
40.25
 30
0.0
 11
30.05
 21
26.7779760251
 31
0.0
  0
ARC
  5
AA
330
1F
100
AcDbEntity
  8
0
  6
Continuous
 62
     7
370
    25
100
AcDbCircle
 10
82.55
 20
37.004539937
 30
0.0
 40
0.5000000000000314
100
AcDbArc
 50
0.0
 51
82.0
  0
ARC
  5
AB
330
1F
100
AcDbEntity
  8
0
  6
Continuous
 62
     7
370
    25
100
AcDbCircle
 10
82.55
 20
-37.004539937
 30
0.0
 40
0.5
100
AcDbArc
 50
278.0
 51
0.0
  0
ARC
  5
AC
330
1F
100
AcDbEntity
  8
0
  6
Continuous
 62
     7
370
    25
100
AcDbCircle
 10
0.0
 20
0.0
 30
0.0
 40
40.25000000000005
100
AcDbArc
 50
100.0154101682
 51
79.9845898318
  0
CIRCLE
  5
BA
330
1B
100
AcDbEntity
 67
     1
  8
0
  6
Continuous
 62
     7
370
    25
100
AcDbCircle
 10
74.55
 20
30.05
 30
0.0
 40
6.99999999999163
  0
CIRCLE
  5
BB
330
1B
100
AcDbEntity
 67
     1
  8
0
  6
Continuous
 62
     7
370
    25
100
AcDbCircle
 10
74.55
 20
30.05
 30
0.0
 40
4.999999999991896
  0
CIRCLE
  5
BC
330
1B
100
AcDbEntity
 67
     1
  8
0
  6
Continuous
 62
     7
370
    25
100
AcDbCircle
 10
0.0
 20
-44.5
 30
0.0
 40
4.9999999999919
  0
CIRCLE
  5
BD
330
1B
100
AcDbEntity
 67
     1
  8
0
  6
Continuous
 62
     7
370
    25
100
AcDbCircle
 10
0.0
 20
-44.5
 30
0.0
 40
6.999999999991658
  0
CIRCLE
  5
BE
330
1B
100
AcDbEntity
 67
     1
  8
0
  6
Continuous
 62
     7
370
    25
100
AcDbCircle
 10
74.55
 20
30.05
 30
0.0
 40
1.919487298099693
  0
CIRCLE
  5
BF
330
1B
100
AcDbEntity
 67
     1
  8
0
  6
Continuous
 62
     7
370
    25
100
AcDbCircle
 10
74.55
 20
30.05
 30
0.0
 40
2.35249999999176
  0
CIRCLE
  5
C0
330
1B
100
AcDbEntity
 67
     1
  8
0
  6
Continuous
 62
     7
370
    25
100
AcDbCircle
 10
0.0
 20
-44.5
 30
0.0
 40
1.919487298099625
  0
CIRCLE
  5
C1
330
1B
100
AcDbEntity
 67
     1
  8
0
  6
Continuous
 62
     7
370
    25
100
AcDbCircle
 10
0.0
 20
-44.5
 30
0.0
 40
2.352499999991785
  0
CIRCLE
  5
C2
330
1B
100
AcDbEntity
 67
     1
  8
0
  6
Continuous
 62
     7
370
    25
100
AcDbCircle
 10
74.55
 20
30.05
 30
0.0
 40
2.412499999991248
  0
CIRCLE
  5
C3
330
1B
100
AcDbEntity
 67
     1
  8
0
  6
Continuous
 62
     7
370
    25
100
AcDbCircle
 10
0.0
 20
-44.5
 30
0.0
 40
2.412499999991276
  0
CIRCLE
  5
C4
330
1B
100
AcDbEntity
 67
     1
  8
0
  6
Continuous
 62
     7
370
    25
100
AcDbCircle
 10
74.55
 20
30.05
 30
0.0
 40
3.564872913272229
  0
CIRCLE
  5
C5
330
1B
100
AcDbEntity
 67
     1
  8
0
  6
Continuous
 62
     7
370
    25
100
AcDbCircle
 10
74.55
 20
30.05
 30
0.0
 40
4.007596123485357
  0
CIRCLE
  5
C6
330
1B
100
AcDbEntity
 67
     1
  8
0
  6
Continuous
 62
     7
370
    25
100
AcDbCircle
 10
0.0
 20
-44.5
 30
0.0
 40
3.564872913272239
  0
CIRCLE
  5
C7
330
1B
100
AcDbEntity
 67
     1
  8
0
  6
Continuous
 62
     7
370
    25
100
AcDbCircle
 10
0.0
 20
-44.5
 30
0.0
 40
4.007596123485342
  0
SPLINE
  5
C8
330
1B
100
AcDbEntity
 67
     1
  8
0
  6
Continuous
 62
     7
370
    25
100
AcDbSpline
210
0.0
220
0.0
230
1.0
 70
    11
 71
     3
 72
    92
 73
    88
 74
     0
 42
0.000000001
 43
0.00000001
 40
0.0
 40
0.0
 40
0.0
 40
0.0
 40
0.0312500000000005
 40
0.0312500000000005
 40
0.062500000000001
 40
0.062500000000001
 40
0.0781250000000012
 40
0.0781250000000012
 40
0.0937500000000014
 40
0.0937500000000014
 40
0.1250000000000018
 40
0.1250000000000018
 40
0.1562500000000022
 40
0.1562500000000022
 40
0.1718750000000024
 40
0.1718750000000024
 40
0.1875000000000026
 40
0.1875000000000026
 40
0.218750000000003
 40
0.218750000000003
 40
0.2343750000000031
 40
0.2343750000000031
 40
0.2500000000000033
 40
0.2500000000000033
 40
0.2812500000000039
 40
0.2812500000000039
 40
0.3125000000000044
 40
0.3125000000000044
 40
0.3281250000000047
 40
0.3281250000000047
 40
0.3437500000000049
 40
0.3437500000000049
 40
0.3750000000000048
 40
0.3750000000000048
 40
0.4062500000000048
 40
0.4062500000000048
 40
0.4375000000000048
 40
0.4375000000000048
 40
0.453125000000005
 40
0.453125000000005
 40
0.4687500000000052
 40
0.4687500000000052
 40
0.5000000000000052
 40
0.5000000000000052
 40
0.5312500000000052
 40
0.5312500000000052
 40
0.5468750000000052
 40
0.5468750000000052
 40
0.5625000000000053
 40
0.5625000000000053
 40
0.5781250000000053
 40
0.5781250000000053
 40
0.5937500000000053
 40
0.5937500000000053
 40
0.6250000000000053
 40
0.6250000000000053
 40
0.6562500000000054
 40
0.6562500000000054
 40
0.6875000000000054
 40
0.6875000000000054
 40
0.7031250000000053
 40
0.7031250000000053
 40
0.7187500000000052
 40
0.7187500000000052
 40
0.750000000000005
 40
0.750000000000005
 40
0.7812500000000049
 40
0.7812500000000049
 40
0.7968750000000047
 40
0.7968750000000047
 40
0.8125000000000044
 40
0.8125000000000044
 40
0.8437500000000036
 40
0.8437500000000036
 40
0.8593750000000032
 40
0.8593750000000032
 40
0.8750000000000028
 40
0.8750000000000028
 40
0.9062500000000022
 40
0.9062500000000022
 40
0.9375000000000017
 40
0.9375000000000017
 40
0.9531250000000013
 40
0.9531250000000013
 40
0.9687500000000009
 40
0.9687500000000009
 40
1.0
 40
1.0
 40
1.0
 40
1.0
 10
-5.760999769938115
 20
-38.96433772307067
 30
0.0
 10
-5.418500241610613
 20
-38.57988176711683
 30
0.0
 10
-5.037159761828537
 20
-38.22818153325579
 30
0.0
 10
-4.221386429549657
 20
-37.61193831819028
 30
0.0
 10
-3.785666571478854
 20
-37.34503537654887
 30
0.0
 10
-3.088054175517534
 20
-37.00885529530932
 30
0.0
 10
-2.846585758266389
 20
-36.90709395076622
 30
0.0
 10
-2.358335970149637
 20
-36.73010147194193
 30
0.0
 10
-2.111121028934154
 20
-36.65446353692892
 30
0.0
 10
-1.360303301437042
 20
-36.46555339854254
 30
0.0
 10
-0.8476220949467164
 20
-36.38987728076853
 30
0.0
 10
0.2036569077135675
 20
-36.34539469465707
 30
0.0
 10
0.7218913971094171
 20
-36.37746907462268
 30
0.0
 10
1.488497442727221
 20
-36.503156714833
 30
0.0
 10
1.742239402834994
 20
-36.55808309360152
 30
0.0
 10
2.246072692069674
 20
-36.69454512355222
 30
0.0
 10
2.495131803402693
 20
-36.77598122697345
 30
0.0
 10
3.219590669573197
 20
-37.05398835642034
 30
0.0
 10
3.678177053103818
 20
-37.28536266022894
 30
0.0
 10
4.330656834610501
 20
-37.70017327591755
 30
0.0
 10
4.542823685072493
 20
-37.85045938267738
 30
0.0
 10
4.946665158193253
 20
-38.16752366932069
 30
0.0
 10
5.139423358250017
 20
-38.33488931637964
 30
0.0
 10
5.691231084855801
 20
-38.86276566501851
 30
0.0
 10
6.02546288850453
 20
-39.25080746624761
 30
0.0
 10
6.616821197137655
 20
-40.08898762999519
 30
0.0
 10
6.868282806762975
 20
-40.53024948897177
 30
0.0
 10
7.182168099648028
 20
-41.22470461956789
 30
0.0
 10
7.276163796089193
 20
-41.46165589045989
 30
0.0
 10
7.442429481145454
 20
-41.94684577420326
 30
0.0
 10
7.514610032855424
 20
-42.19536978420344
 30
0.0
 10
7.693909861531663
 20
-42.94267773859372
 30
0.0
 10
7.766053772630843
 20
-43.44819404687236
 30
0.0
 10
7.815366615640635
 20
-44.47420761323949
 30
0.0
 10
7.791152200760848
 20
-44.99872840655915
 30
0.0
 10
7.645867314917298
 20
-46.02059646271179
 30
0.0
 10
7.525735320586199
 20
-46.52256353788565
 30
0.0
 10
7.271920772095606
 20
-47.26141965790568
 30
0.0
 10
7.174525723099548
 20
-47.50604723493741
 30
0.0
 10
6.958018643641845
 20
-47.9813720195236
 30
0.0
 10
6.838631645763899
 20
-48.21310988484728
 30
0.0
 10
6.447020448289988
 20
-48.89048060077564
 30
0.0
 10
6.138655544629546
 20
-49.32073354581969
 30
0.0
 10
5.453584046802018
 20
-50.10167833698685
 30
0.0
 10
5.075340050255464
 20
-50.45637378636251
 30
0.0
 10
4.452504431125448
 20
-50.93284700526802
 30
0.0
 10
4.235190403042138
 20
-51.08237217536755
 30
0.0
 10
3.791547715516489
 20
-51.35574461155343
 30
0.0
 10
3.564061949999274
 20
-51.48055286085833
 30
0.0
 10
3.097868308074788
 20
-51.70666401986826
 30
0.0
 10
2.85916067909044
 20
-51.80796740788344
 30
0.0
 10
2.370294675200047
 20
-51.98661298186939
 30
0.0
 10
2.118685125809816
 20
-52.06429413112934
 30
0.0
 10
1.357186919548808
 20
-52.25687188244359
 30
0.0
 10
0.8440613302577865
 20
-52.33159519815644
 30
0.0
 10
-0.1928791082638215
 20
-52.37609278927545
 30
0.0
 10
-0.7223154329186916
 20
-52.34422390906272
 30
0.0
 10
-1.748140732533602
 20
-52.17523472026631
 30
0.0
 10
-2.248205487004145
 20
-52.03941218176962
 30
0.0
 10
-2.978981297816492
 20
-51.75836017288808
 30
0.0
 10
-3.22023853106658
 20
-51.65109329784806
 30
0.0
 10
-3.685609841151543
 20
-51.41514935171281
 30
0.0
 10
-3.9109377219366
 20
-51.28611896280628
 30
0.0
 10
-4.565455685544718
 20
-50.86673908135064
 30
0.0
 10
-4.974878116504735
 20
-50.54296528182735
 30
0.0
 10
-5.728715604563492
 20
-49.81301404440552
 30
0.0
 10
-6.063726891861253
 20
-49.41653020995098
 30
0.0
 10
-6.506407570082817
 20
-48.77690812165564
 30
0.0
 10
-6.643919360751941
 20
-48.55616098404937
 30
0.0
 10
-6.898462883847191
 20
-48.09931386448955
 30
0.0
 10
-7.015169162388111
 20
-47.86343806369779
 30
0.0
 10
-7.327141563967805
 20
-47.14839338081166
 30
0.0
 10
-7.48753401673009
 20
-46.65690856580144
 30
0.0
 10
-7.657911579496104
 20
-45.89806702152445
 30
0.0
 10
-7.703061230354455
 20
-45.64012061516566
 30
0.0
 10
-7.768159553059512
 20
-45.12431944375643
 30
0.0
 10
-7.78822317265417
 20
-44.86686523879251
 30
0.0
 10
-7.812182418289939
 20
-44.09581436889528
 30
0.0
 10
-7.780181453286808
 20
-43.58352737457946
 30
0.0
 10
-7.618463535861601
 20
-42.56235273701331
 30
0.0
 10
-7.490423526515768
 20
-42.0658429738065
 30
0.0
 10
-7.232013790725085
 20
-41.34773672605598
 30
0.0
 10
-7.134674682005893
 20
-41.11244932312989
 30
0.0
 10
-6.917142329092799
 20
-40.6500918652152
 30
0.0
 10
-6.796391534049858
 20
-40.42220073384576
 30
0.0
 10
-6.404562316164573
 20
-39.76143049063204
 30
0.0
 10
-6.103499298265602
 20
-39.34879367902449
 30
0.0
 10
-5.760999769938115
 20
-38.96433772307067
 30
0.0
  0
SPLINE
  5
C9
330
1B
100
AcDbEntity
 67
     1
  8
0
  6
Continuous
 62
     7
370
    25
100
AcDbSpline
210
0.0
220
0.0
230
1.0
 70
    11
 71
     3
 72
    92
 73
    88
 74
     0
 42
0.000000001
 43
0.00000001
 40
0.0
 40
0.0
 40
0.0
 40
0.0
 40
0.0312500000000025
 40
0.0312500000000025
 40
0.062500000000005
 40
0.062500000000005
 40
0.0937500000000075
 40
0.0937500000000075
 40
0.1093750000000083
 40
0.1093750000000083
 40
0.1250000000000092
 40
0.1250000000000092
 40
0.1562500000000117
 40
0.1562500000000117
 40
0.1718750000000126
 40
0.1718750000000126
 40
0.1875000000000134
 40
0.1875000000000134
 40
0.218750000000015
 40
0.218750000000015
 40
0.2343750000000157
 40
0.2343750000000157
 40
0.2500000000000163
 40
0.2500000000000163
 40
0.2812500000000168
 40
0.2812500000000168
 40
0.3125000000000173
 40
0.3125000000000173
 40
0.3281250000000171
 40
0.3281250000000171
 40
0.343750000000017
 40
0.343750000000017
 40
0.3750000000000167
 40
0.3750000000000167
 40
0.3906250000000165
 40
0.3906250000000165
 40
0.4062500000000162
 40
0.4062500000000162
 40
0.4375000000000155
 40
0.4375000000000155
 40
0.4687500000000149
 40
0.4687500000000149
 40
0.4843750000000148
 40
0.4843750000000148
 40
0.5000000000000147
 40
0.5000000000000147
 40
0.5312500000000144
 40
0.5312500000000144
 40
0.5625000000000143
 40
0.5625000000000143
 40
0.5781250000000142
 40
0.5781250000000142
 40
0.5937500000000141
 40
0.5937500000000141
 40
0.625000000000014
 40
0.625000000000014
 40
0.6562500000000138
 40
0.6562500000000138
 40
0.6875000000000137
 40
0.6875000000000137
 40
0.7031250000000132
 40
0.7031250000000132
 40
0.7187500000000128
 40
0.7187500000000128
 40
0.7500000000000118
 40
0.7500000000000118
 40
0.7812500000000109
 40
0.7812500000000109
 40
0.7968750000000101
 40
0.7968750000000101
 40
0.8125000000000093
 40
0.8125000000000093
 40
0.843750000000008
 40
0.843750000000008
 40
0.8593750000000071
 40
0.8593750000000071
 40
0.8750000000000062
 40
0.8750000000000062
 40
0.9062500000000048
 40
0.9062500000000048
 40
0.9375000000000032
 40
0.9375000000000032
 40
0.9531250000000022
 40
0.9531250000000022
 40
0.9687500000000013
 40
0.9687500000000013
 40
1.0
 40
1.0
 40
1.0
 40
1.0
 10
69.01015832834534
 20
35.80727383048334
 30
0.0
 10
69.39435511642678
 20
36.15002988398551
 30
0.0
 10
69.81001926401963
 20
36.45324952728535
 30
0.0
 10
70.6828004879936
 20
36.9717447376383
 30
0.0
 10
71.14225711021346
 20
37.18926511044107
 30
0.0
 10
72.10943969705446
 20
37.53891519917683
 30
0.0
 10
72.60627902638376
 20
37.66668038248925
 30
0.0
 10
73.36224307498112
 20
37.78761495965492
 30
0.0
 10
73.6165081705266
 20
37.81623087483234
 30
0.0
 10
74.12972413038258
 20
37.84958092369959
 30
0.0
 10
74.39002955286055
 20
37.85425141495263
 30
0.0
 10
75.16766832367811
 20
37.83109401974512
 30
0.0
 10
75.67887880486786
 20
37.7671279388262
 30
0.0
 10
76.43489505088041
 20
37.59918629685811
 30
0.0
 10
76.68508653868551
 20
37.53112545458961
 30
0.0
 10
77.18166694847292
 20
37.36994592302391
 30
0.0
 10
77.4273287582718
 20
37.27689358898745
 30
0.0
 10
78.14251884326882
 20
36.96592864992732
 30
0.0
 10
78.59573915671841
 20
36.71490596957047
 30
0.0
 10
79.23940108231794
 20
36.27162965577888
 30
0.0
 10
79.44898042627067
 20
36.11168035414368
 30
0.0
 10
79.84853689226931
 20
35.77416003560414
 30
0.0
 10
80.038704537394
 20
35.59668110862685
 30
0.0
 10
80.58086465001432
 20
35.03852311262429
 30
0.0
 10
80.90480816290827
 20
34.63238963773954
 30
0.0
 10
81.47348668411453
 20
33.74819491014332
 30
0.0
 10
81.70869333783696
 20
33.28483982301627
 30
0.0
 10
81.98943407736496
 20
32.55972730913745
 30
0.0
 10
82.07094606945668
 20
32.31292025816446
 30
0.0
 10
82.2091025706717
 20
31.80878238657485
 30
0.0
 10
82.26563996567761
 20
31.55098057085809
 30
0.0
 10
82.39360026219485
 20
30.77977873303254
 30
0.0
 10
82.42566795449503
 20
30.26269377570135
 30
0.0
 10
82.39407402350513
 20
29.48264787919276
 30
0.0
 10
82.36992032874763
 20
29.22041796206062
 30
0.0
 10
82.29486983719946
 20
28.70206631192929
 30
0.0
 10
82.24428243750373
 20
28.44680407505705
 30
0.0
 10
82.05459588949897
 20
27.6923731245737
 30
0.0
 10
81.87794600995855
 20
27.2044494794142
 30
0.0
 10
81.4217252196455
 20
26.25935925415622
 30
0.0
 10
81.1472716156831
 20
25.81362112590023
 30
0.0
 10
80.67218546223089
 20
25.1908270558291
 30
0.0
 10
80.50207609403809
 20
24.98959742536163
 30
0.0
 10
80.1445608047711
 20
24.60718996468558
 30
0.0
 10
79.95754775742704
 20
24.42619663372609
 30
0.0
 10
79.37259193650655
 20
23.91281817967471
 30
0.0
 10
78.95095845927075
 20
23.60975496028795
 30
0.0
 10
78.04321725228105
 20
23.0835359251698
 30
0.0
 10
77.56912803246927
 20
22.86769944736722
 30
0.0
 10
76.83584150468191
 20
22.61418618377775
 30
0.0
 10
76.58734359512076
 20
22.5412740847272
 30
0.0
 10
76.08214443821232
 20
22.41890134323716
 30
0.0
 10
75.82435196837324
 20
22.36938084806518
 30
0.0
 10
75.05390537324982
 20
22.25907920044095
 30
0.0
 10
74.54023421390323
 20
22.23484148384841
 30
0.0
 10
73.51284653510183
 20
22.28229239938935
 30
0.0
 10
72.9962021914083
 20
22.35556556206922
 30
0.0
 10
72.0023955888305
 20
22.59336825693448
 30
0.0
 10
71.52040544585839
 20
22.7575517578305
 30
0.0
 10
70.81967941983763
 20
23.07312328064509
 30
0.0
 10
70.58987143932237
 20
23.19011489114877
 30
0.0
 10
70.14691163587591
 20
23.44284396208447
 30
0.0
 10
69.93254094086456
 20
23.57908582094349
 30
0.0
 10
69.3103964186483
 20
24.0172745577506
 30
0.0
 10
68.92190477318027
 20
24.34990076396294
 30
0.0
 10
68.20974939982958
 20
25.09298080083122
 30
0.0
 10
67.89445872764655
 20
25.49412786069228
 30
0.0
 10
67.48190337115719
 20
26.1404859199361
 30
0.0
 10
67.35452278248226
 20
26.36343123347813
 30
0.0
 10
67.12085867734596
 20
26.82503624405449
 30
0.0
 10
67.01448686208587
 20
27.06439584251342
 30
0.0
 10
66.73548211719519
 20
27.78922480413552
 30
0.0
 10
66.59951308510742
 20
28.28669824240013
 30
0.0
 10
66.47166844424922
 20
29.0547640717311
 30
0.0
 10
66.44176230001827
 20
29.31578400279474
 30
0.0
 10
66.40922608245639
 20
29.83931598691779
 30
0.0
 10
66.40657336794173
 20
30.09977280527913
 30
0.0
 10
66.43814195173589
 20
30.877341993236
 30
0.0
 10
66.51149886509631
 20
31.39068870166806
 30
0.0
 10
66.7654943703613
 20
32.40710486993631
 30
0.0
 10
66.94241478111744
 20
32.89426013744684
 30
0.0
 10
67.27611891415066
 20
33.58994111068269
 30
0.0
 10
67.39892135716221
 20
33.81628806484277
 30
0.0
 10
67.66791938606286
 20
34.25784455724008
 30
0.0
 10
67.81405783633366
 20
34.47265839933102
 30
0.0
 10
68.27871425845888
 20
35.08806691983418
 30
0.0
 10
68.62596154026394
 20
35.46451777698122
 30
0.0
 10
69.01015832834534
 20
35.80727383048335
 30
0.0
  0
LINE
  5
D3
330
1B
100
AcDbEntity
 67
     1
  8
0
  6
Continuous
 62
     7
370
    25
100
AcDbLine
 10
-40.25
 20
-33.0
 30
0.0
 11
-37.4996739714
 21
-52.5695865505
 31
0.0
  0
LINE
  5
D4
330
1B
100
AcDbEntity
 67
     1
  8
0
  6
Continuous
 62
     7
370
    25
100
AcDbLine
 10
37.4996739714
 20
-52.5695865505
 30
0.0
 11
40.25
 21
-33.0
 31
0.0
  0
LINE
  5
D5
330
1B
100
AcDbEntity
 67
     1
  8
0
  6
Continuous
 62
     7
370
    25
100
AcDbLine
 10
63.05
 20
-10.2
 30
0.0
 11
82.6195865505
 21
-7.4496739714
 31
0.0
  0
LINE
  5
D6
330
1B
100
AcDbEntity
 67
     1
  8
0
  6
Continuous
 62
     7
370
    25
100
AcDbLine
 10
82.6195865505
 20
67.5496739714
 30
0.0
 11
63.05
 21
70.3
 31
0.0
  0
LINE
  5
D7
330
1B
100
AcDbEntity
 67
     1
  8
0
  6
Continuous
 62
     7
370
    25
100
AcDbLine
 10
-40.25
 20
0.0
 30
0.0
 11
-40.25
 21
-33.0
 31
0.0
  0
LINE
  5
D8
330
1B
100
AcDbEntity
 67
     1
  8
0
  6
Continuous
 62
     7
370
    25
100
AcDbLine
 10
40.25
 20
-33.0
 30
0.0
 11
40.25
 21
-10.2
 31
0.0
  0
LINE
  5
D9
330
1B
100
AcDbEntity
 67
     1
  8
0
  6
Continuous
 62
     7
370
    25
100
AcDbLine
 10
63.05
 20
70.3
 30
0.0
 11
30.05
 21
70.3
 31
0.0
  0
LINE
  5
DA
330
1B
100
AcDbEntity
 67
     1
  8
0
  6
Continuous
 62
     7
370
    25
100
AcDbLine
 10
40.25
 20
-10.2
 30
0.0
 11
63.05
 21
-10.2
 31
0.0
  0
LINE
  5
DB
330
1B
100
AcDbEntity
 67
     1
  8
0
  6
Continuous
 62
     7
370
    25
100
AcDbLine
 10
-40.25
 20
-33.0
 30
0.0
 11
40.25
 21
-33.0
 31
0.0
  0
LINE
  5
DC
330
1B
100
AcDbEntity
 67
     1
  8
0
  6
Continuous
 62
     7
370
    25
100
AcDbLine
 10
63.05
 20
-10.2
 30
0.0
 11
63.05
 21
70.3
 31
0.0
  0
LINE
  5
DD
330
1B
100
AcDbEntity
 67
     1
  8
0
  6
Continuous
 62
     7
370
    25
100
AcDbLine
 10
40.25
 20
-10.2
 30
0.0
 11
30.05
 21
0.0
 31
0.0
  0
LINE
  5
DE
330
1B
100
AcDbEntity
 67
     1
  8
0
  6
Continuous
 62
     7
370
    25
100
AcDbLine
 10
83.05
 20
67.054539937
 30
0.0
 11
83.05
 21
-6.9545399341
 31
0.0
  0
LINE
  5
DF
330
1B
100
AcDbEntity
 67
     1
  8
0
  6
Continuous
 62
     7
370
    25
100
AcDbLine
 10
37.004539937
 20
-53.0
 30
0.0
 11
-37.0045399341
 21
-53.0
 31
0.0
  0
LINE
  5
E0
330
1B
100
AcDbEntity
 67
     1
  8
0
  6
Continuous
 62
     8
370
    25
100
AcDbLine
 10
-37.4996739714
 20
-52.5695865505
 30
0.0
 11
37.4996739714
 21
-52.5695865505
 31
0.0
  0
LINE
  5
E1
330
1B
100
AcDbEntity
 67
     1
  8
0
  6
Continuous
 62
     8
370
    25
100
AcDbLine
 10
82.6195865505
 20
-7.4496739714
 30
0.0
 11
82.6195865505
 21
67.5496739714
 31
0.0
  0
LINE
  5
E2
330
1B
100
AcDbEntity
 67
     1
  8
0
  6
Continuous
 62
     8
370
    25
100
AcDbLine
 10
30.05
 20
0.0
 30
0.0
 11
-40.25
 21
0.0
 31
0.0
  0
LINE
  5
E3
330
1B
100
AcDbEntity
 67
     1
  8
0
  6
Continuous
 62
     8
370
    25
100
AcDbLine
 10
30.05
 20
70.3
 30
0.0
 11
30.05
 21
0.0
 31
0.0
  0
ARC
  5
E4
330
1B
100
AcDbEntity
 67
     1
  8
0
  6
Continuous
 62
     7
370
    25
100
AcDbCircle
 10
30.05
 20
0.0
 30
0.0
 40
70.2999999999998
100
AcDbArc
 50
90.0
 51
180.0
  0
ARC
  5
E5
330
1B
100
AcDbEntity
 67
     1
  8
0
  6
Continuous
 62
     7
370
    25
100
AcDbCircle
 10
82.55
 20
67.054539937
 30
0.0
 40
0.5000000000000426
100
AcDbArc
 50
0.0
 51
82.0
  0
ARC
  5
E6
330
1B
100
AcDbEntity
 67
     1
  8
0
  6
Continuous
 62
     7
370
    25
100
AcDbCircle
 10
82.55
 20
-6.954539937
 30
0.0
 40
0.4999999999999923
100
AcDbArc
 50
278.0
 51
0.0
  0
ARC
  5
E7
330
1B
100
AcDbEntity
 67
     1
  8
0
  6
Continuous
 62
     7
370
    25
100
AcDbCircle
 10
37.004539937
 20
-52.5
 30
0.0
 40
0.5000000000000094
100
AcDbArc
 50
270.0
 51
352.0
  0
ARC
  5
E8
330
1B
100
AcDbEntity
 67
     1
  8
0
  6
Continuous
 62
     7
370
    25
100
AcDbCircle
 10
-37.004539937
 20
-52.5
 30
0.0
 40
0.5000000000000114
100
AcDbArc
 50
188.0
 51
270.0
  0
VIEWPORT
  5
117
330
1B
100
AcDbEntity
 67
     1
  8
0
100
AcDbViewport
 10
0.0
 20
0.0
 30
0.0
 40
205.6
 41
156.0
 68
     1
 69
     1
 12
21.4
 22
8.6026868252
 13
0.0
 23
0.0
 14
10.0
 24
10.0
 15
10.0
 25
10.0
 16
0.0
 26
0.0
 36
1.0
 17
0.0
 27
0.0
 37
0.0
 42
50.0
 43
0.0
 44
0.0
 45
99.6594811233
 50
0.0
 51
0.0
 72
   100
 90
   557152
  1

281
     0
 71
     1
 74
     0
110
0.0
120
0.0
130
0.0
111
1.0
121
0.0
131
0.0
112
0.0
122
1.0
132
0.0
 79
     0
146
0.0
  0
ENDSEC
  0
SECTION
  2
OBJECTS
  0
DICTIONARY
  5
C
330
0
100
AcDbDictionary
281
     1
  3
ACAD_GROUP
350
D
  3
ACAD_LAYOUT
350
1A
  3
ACAD_MLINESTYLE
350
17
  3
ACAD_PLOTSETTINGS
350
19
  3
ACAD_PLOTSTYLENAME
350
E
  3
ACAD_SCALELIST
350
47
  0
DICTIONARY
  5
D
102
{ACAD_REACTORS
330
C
102
}
330
C
100
AcDbDictionary
281
     1
  0
DICTIONARY
  5
1A
102
{ACAD_REACTORS
330
C
102
}
330
C
100
AcDbDictionary
281
     1
  3
_Left
350
26
  3
_Top
350
1E
  3
Model
350
22
  0
DICTIONARY
  5
17
102
{ACAD_REACTORS
330
C
102
}
330
C
100
AcDbDictionary
281
     1
  3
Standard
350
18
  0
DICTIONARY
  5
19
102
{ACAD_REACTORS
330
C
102
}
330
C
100
AcDbDictionary
281
     1
  0
ACDBDICTIONARYWDFLT
  5
E
102
{ACAD_REACTORS
330
C
102
}
330
C
100
AcDbDictionary
281
     1
  3
Normal
350
F
100
AcDbDictionaryWithDefault
340
F
  0
DICTIONARY
  5
47
102
{ACAD_REACTORS
330
C
102
}
330
C
100
AcDbDictionary
281
     1
  3
A0
350
48
  3
A1
350
49
  3
A2
350
4A
  3
A3
350
4B
  3
A4
350
4C
  3
A5
350
4D
  3
A6
350
4E
  3
A7
350
4F
  3
A8
350
50
  3
A9
350
51
  3
B0
350
52
  3
B1
350
53
  3
B2
350
54
  3
B3
350
55
  3
B4
350
56
  3
B5
350
57
  3
B6
350
58
  3
B7
350
59
  3
B8
350
5A
  3
B9
350
5B
  3
C0
350
5C
  3
C1
350
5D
  3
C2
350
5E
  3
C3
350
5F
  3
C4
350
60
  3
C5
350
61
  3
C6
350
62
  3
C7
350
63
  3
C8
350
64
  3
C9
350
65
  3
D0
350
66
  3
D1
350
67
  3
D2
350
68
  0
LAYOUT
  5
26
102
{ACAD_REACTORS
330
1A
102
}
330
1A
100
AcDbPlotSettings
  1

  2
none_device
  4
ISO_A4_(210.00_x_297.00_MM)
  6

 40
7.5
 41
20.0
 42
7.5
 43
20.0
 44
210.0
 45
297.0
 46
0.0
 47
0.0
 48
0.0
 49
0.0
140
0.0
141
0.0
142
1.0
143
0.6323076923
 70
   688
 72
     1
 73
     1
 74
     1
  7

 75
     0
147
1.5815085158
148
40.25
149
53.0
100
AcDbLayout
  1
_Left
 70
     1
 71
     2
 10
0.0
 20
0.0
 11
0.0
 21
0.0
 12
0.0
 22
0.0
 32
0.0
 14
0.0
 24
0.0
 34
0.0
 15
0.0
 25
0.0
 35
0.0
146
0.0
 13
0.0
 23
0.0
 33
0.0
 16
1.0
 26
0.0
 36
0.0
 17
0.0
 27
1.0
 37
0.0
 76
     0
330
23
331
119
  0
LAYOUT
  5
1E
102
{ACAD_REACTORS
330
1A
102
}
330
1A
100
AcDbPlotSettings
  1

  2
none_device
  4
ISO_A4_(210.00_x_297.00_MM)
  6

 40
7.5
 41
20.0
 42
7.5
 43
20.0
 44
210.0
 45
297.0
 46
0.0
 47
0.0
 48
0.0
 49
0.0
140
0.0
141
0.0
142
1.0
143
0.6323076923
 70
   688
 72
     1
 73
     1
 74
     1
  7

 75
     0
147
1.5815085158
148
40.25
149
53.0
100
AcDbLayout
  1
_Top
 70
     1
 71
     1
 10
-52.8961538462
 20
-57.7423076923
 11
134.8992307692
 21
75.0423076923
 12
0.0
 22
0.0
 32
0.0
 14
-40.25
 24
-53.0
 34
0.0
 15
83.05
 25
70.3
 35
0.0
146
0.0
 13
0.0
 23
0.0
 33
0.0
 16
1.0
 26
0.0
 36
0.0
 17
0.0
 27
1.0
 37
0.0
 76
     0
330
1B
331
117
  0
LAYOUT
  5
22
102
{ACAD_REACTORS
330
1A
102
}
330
1A
100
AcDbPlotSettings
  1

  2
none_device
  4
ANSI_A_(11.00_x_8.50_Inches)
  6

 40
6.35
 41
19.05
 42
6.35000508
 43
19.05000254
 44
279.4
 45
215.9
 46
86.5351987533
 47
70.080697232
 48
0.0
 49
0.0
140
0.0
141
0.0
142
0.0861262762
143
1.0
 70
  1696
 72
     0
 73
     0
 74
     0
  7

 75
     0
147
0.0179189148
148
-1300.4909072572
149
0.0
100
AcDbLayout
  1
Model
 70
     1
 71
     0
 10
0.0
 20
0.0
 11
420.0
 21
297.0
 12
0.0
 22
0.0
 32
0.0
 14
-40.25
 24
-40.25
 34
0.0
 15
83.05
 25
57.4553736503
 35
0.0
146
0.0
 13
0.0
 23
0.0
 33
0.0
 16
1.0
 26
0.0
 36
0.0
 17
0.0
 27
1.0
 37
0.0
 76
     0
330
1F
331
29
  0
MLINESTYLE
  5
18
102
{ACAD_REACTORS
330
17
102
}
330
17
100
AcDbMlineStyle
  2
Standard
 70
     0
  3

 62
   256
 51
90.0
 52
90.0
 71
     2
 49
0.5
 62
   256
  6
BYLAYER
 49
-0.5
 62
   256
  6
BYLAYER
  0
ACDBPLACEHOLDER
  5
F
102
{ACAD_REACTORS
330
E
102
}
330
E
  0
SCALE
  5
48
102
{ACAD_REACTORS
330
47
102
}
330
47
100
AcDbScale
 70
     0
300
1:1
140
1.0
141
1.0
290
     1
  0
SCALE
  5
49
102
{ACAD_REACTORS
330
47
102
}
330
47
100
AcDbScale
 70
     0
300
1:2
140
1.0
141
2.0
290
     0
  0
SCALE
  5
4A
102
{ACAD_REACTORS
330
47
102
}
330
47
100
AcDbScale
 70
     0
300
1:4
140
1.0
141
4.0
290
     0
  0
SCALE
  5
4B
102
{ACAD_REACTORS
330
47
102
}
330
47
100
AcDbScale
 70
     0
300
1:5
140
1.0
141
5.0
290
     0
  0
SCALE
  5
4C
102
{ACAD_REACTORS
330
47
102
}
330
47
100
AcDbScale
 70
     0
300
1:8
140
1.0
141
8.0
290
     0
  0
SCALE
  5
4D
102
{ACAD_REACTORS
330
47
102
}
330
47
100
AcDbScale
 70
     0
300
1:10
140
1.0
141
10.0
290
     0
  0
SCALE
  5
4E
102
{ACAD_REACTORS
330
47
102
}
330
47
100
AcDbScale
 70
     0
300
1:16
140
1.0
141
16.0
290
     0
  0
SCALE
  5
4F
102
{ACAD_REACTORS
330
47
102
}
330
47
100
AcDbScale
 70
     0
300
1:20
140
1.0
141
20.0
290
     0
  0
SCALE
  5
50
102
{ACAD_REACTORS
330
47
102
}
330
47
100
AcDbScale
 70
     0
300
1:30
140
1.0
141
30.0
290
     0
  0
SCALE
  5
51
102
{ACAD_REACTORS
330
47
102
}
330
47
100
AcDbScale
 70
     0
300
1:40
140
1.0
141
40.0
290
     0
  0
SCALE
  5
52
102
{ACAD_REACTORS
330
47
102
}
330
47
100
AcDbScale
 70
     0
300
1:50
140
1.0
141
50.0
290
     0
  0
SCALE
  5
53
102
{ACAD_REACTORS
330
47
102
}
330
47
100
AcDbScale
 70
     0
300
1:100
140
1.0
141
100.0
290
     0
  0
SCALE
  5
54
102
{ACAD_REACTORS
330
47
102
}
330
47
100
AcDbScale
 70
     0
300
2:1
140
2.0
141
1.0
290
     0
  0
SCALE
  5
55
102
{ACAD_REACTORS
330
47
102
}
330
47
100
AcDbScale
 70
     0
300
4:1
140
4.0
141
1.0
290
     0
  0
SCALE
  5
56
102
{ACAD_REACTORS
330
47
102
}
330
47
100
AcDbScale
 70
     0
300
8:1
140
8.0
141
1.0
290
     0
  0
SCALE
  5
57
102
{ACAD_REACTORS
330
47
102
}
330
47
100
AcDbScale
 70
     0
300
10:1
140
10.0
141
1.0
290
     0
  0
SCALE
  5
58
102
{ACAD_REACTORS
330
47
102
}
330
47
100
AcDbScale
 70
     0
300
100:1
140
100.0
141
1.0
290
     0
  0
SCALE
  5
59
102
{ACAD_REACTORS
330
47
102
}
330
47
100
AcDbScale
 70
     0
300
1/128" = 1'-0"
140
0.0078125
141
12.0
290
     0
  0
SCALE
  5
5A
102
{ACAD_REACTORS
330
47
102
}
330
47
100
AcDbScale
 70
     0
300
1/64" = 1'-0"
140
0.015625
141
12.0
290
     0
  0
SCALE
  5
5B
102
{ACAD_REACTORS
330
47
102
}
330
47
100
AcDbScale
 70
     0
300
1/32" = 1'-0"
140
0.03125
141
12.0
290
     0
  0
SCALE
  5
5C
102
{ACAD_REACTORS
330
47
102
}
330
47
100
AcDbScale
 70
     0
300
1/16" = 1'-0"
140
0.0625
141
12.0
290
     0
  0
SCALE
  5
5D
102
{ACAD_REACTORS
330
47
102
}
330
47
100
AcDbScale
 70
     0
300
3/32" = 1'-0"
140
0.09375
141
12.0
290
     0
  0
SCALE
  5
5E
102
{ACAD_REACTORS
330
47
102
}
330
47
100
AcDbScale
 70
     0
300
1/8" = 1'-0"
140
0.125
141
12.0
290
     0
  0
SCALE
  5
5F
102
{ACAD_REACTORS
330
47
102
}
330
47
100
AcDbScale
 70
     0
300
3/16" = 1'-0"
140
0.1875
141
12.0
290
     0
  0
SCALE
  5
60
102
{ACAD_REACTORS
330
47
102
}
330
47
100
AcDbScale
 70
     0
300
1/4" = 1'-0"
140
0.25
141
12.0
290
     0
  0
SCALE
  5
61
102
{ACAD_REACTORS
330
47
102
}
330
47
100
AcDbScale
 70
     0
300
3/8" = 1'-0"
140
0.375
141
12.0
290
     0
  0
SCALE
  5
62
102
{ACAD_REACTORS
330
47
102
}
330
47
100
AcDbScale
 70
     0
300
1/2" = 1'-0"
140
0.5
141
12.0
290
     0
  0
SCALE
  5
63
102
{ACAD_REACTORS
330
47
102
}
330
47
100
AcDbScale
 70
     0
300
3/4" = 1'-0"
140
0.75
141
12.0
290
     0
  0
SCALE
  5
64
102
{ACAD_REACTORS
330
47
102
}
330
47
100
AcDbScale
 70
     0
300
1" = 1'-0"
140
1.0
141
12.0
290
     0
  0
SCALE
  5
65
102
{ACAD_REACTORS
330
47
102
}
330
47
100
AcDbScale
 70
     0
300
1-1/2" = 1'-0"
140
1.5
141
12.0
290
     0
  0
SCALE
  5
66
102
{ACAD_REACTORS
330
47
102
}
330
47
100
AcDbScale
 70
     0
300
3" = 1'-0"
140
3.0
141
12.0
290
     0
  0
SCALE
  5
67
102
{ACAD_REACTORS
330
47
102
}
330
47
100
AcDbScale
 70
     0
300
6" = 1'-0"
140
6.0
141
12.0
290
     0
  0
SCALE
  5
68
102
{ACAD_REACTORS
330
47
102
}
330
47
100
AcDbScale
 70
     0
300
1'-0" = 1'-0"
140
12.0
141
12.0
290
     0
  0
ENDSEC
  0
EOF
