  0
SECTION
  2
HEADER
  9
$ACADVER
  1
AC1015
  9
$ACADMAINTVER
 70
     6
  9
$DWGCODEPAGE
  3
ANSI_1252
  9
$INSBASE
 10
0.0
 20
0.0
 30
0.0
  9
$EXTMIN
 10
-68.5
 20
-68.5
 30
0.0
  9
$EXTMAX
 10
135.5
 20
84.0
 30
0.0
  9
$LIMMIN
 10
0.0
 20
0.0
  9
$LIMMAX
 10
420.0
 20
297.0
  9
$ORTHOMODE
 70
     0
  9
$REGENMODE
 70
     1
  9
$FILLMODE
 70
     1
  9
$QTEXTMODE
 70
     0
  9
$MIRRTEXT
 70
     1
  9
$LTSCALE
 40
1.0
  9
$ATTMODE
 70
     1
  9
$TEXTSIZE
 40
6.35
  9
$TRACEWID
 40
1.0
  9
$TEXTSTYLE
  7
Standard
  9
$CLAYER
  8
0
  9
$CELTYPE
  6
ByLayer
  9
$CECOLOR
 62
   256
  9
$CELTSCALE
 40
1.0
  9
$DISPSILH
 70
     0
  9
$DIMSCALE
 40
1.0
  9
$DIMASZ
 40
5.9944
  9
$DIMEXO
 40
0.9906
  9
$DIMDLI
 40
3.75
  9
$DIMRND
 40
0.0
  9
$DIMDLE
 40
0.0
  9
$DIMEXE
 40
0.9906
  9
$DIMTP
 40
0.0
  9
$DIMTM
 40
0.0
  9
$DIMTXT
 40
6.35
  9
$DIMCEN
 40
2.5
  9
$DIMTSZ
 40
0.0
  9
$DIMTOL
 70
     0
  9
$DIMLIM
 70
     0
  9
$DIMTIH
 70
     1
  9
$DIMTOH
 70
     1
  9
$DIMSE1
 70
     0
  9
$DIMSE2
 70
     0
  9
$DIMTAD
 70
     1
  9
$DIMZIN
 70
     0
  9
$DIMBLK
  1

  9
$DIMASO
 70
     1
  9
$DIMSHO
 70
     1
  9
$DIMPOST
  1

  9
$DIMAPOST
  1

  9
$DIMALT
 70
     0
  9
$DIMALTD
 70
     3
  9
$DIMALTF
 40
0.0393700787
  9
$DIMLFAC
 40
1.0
  9
$DIMTOFL
 70
     1
  9
$DIMTVP
 40
0.0
  9
$DIMTIX
 70
     0
  9
$DIMSOXD
 70
     0
  9
$DIMSAH
 70
     0
  9
$DIMBLK1
  1

  9
$DIMBLK2
  1

  9
$DIMSTYLE
  2
ISO-25
  9
$DIMCLRD
 70
     0
  9
$DIMCLRE
 70
     0
  9
$DIMCLRT
 70
     0
  9
$DIMTFAC
 40
1.0
  9
$DIMGAP
 40
1.524
  9
$DIMJUST
 70
     0
  9
$DIMSD1
 70
     0
  9
$DIMSD2
 70
     0
  9
$DIMTOLJ
 70
     0
  9
$DIMTZIN
 70
     0
  9
$DIMALTZ
 70
     0
  9
$DIMALTTZ
 70
     0
  9
$DIMUPT
 70
     0
  9
$DIMDEC
 70
     2
  9
$DIMTDEC
 70
     2
  9
$DIMALTU
 70
     2
  9
$DIMALTTD
 70
     3
  9
$DIMTXSTY
  7
Standard
  9
$DIMAUNIT
 70
     0
  9
$DIMADEC
 70
     2
  9
$DIMALTRND
 40
0.0
  9
$DIMAZIN
 70
     0
  9
$DIMDSEP
 70
    44
  9
$DIMATFIT
 70
     3
  9
$DIMFRAC
 70
     0
  9
$DIMLDRBLK
  1

  9
$DIMLUNIT
 70
     2
  9
$DIMLWD
 70
    -2
  9
$DIMLWE
 70
    -2
  9
$DIMTMOVE
 70
     0
  9
$LUNITS
 70
     2
  9
$LUPREC
 70
     2
  9
$SKETCHINC
 40
1.0
  9
$FILLETRAD
 40
10.0
  9
$AUNITS
 70
     0
  9
$AUPREC
 70
     2
  9
$MENU
  1
.
  9
$ELEVATION
 40
0.0
  9
$PELEVATION
 40
0.0
  9
$THICKNESS
 40
0.0
  9
$LIMCHECK
 70
     0
  9
$CHAMFERA
 40
0.0
  9
$CHAMFERB
 40
0.0
  9
$CHAMFERC
 40
0.0
  9
$CHAMFERD
 40
0.0
  9
$SKPOLY
 70
     0
  9
$TDCREATE
 40
2458382.516118553
  9
$TDUCREATE
 40
2458382.474451886
  9
$TDUPDATE
 40
2458382.516151227
  9
$TDUUPDATE
 40
2458382.47448456
  9
$TDINDWG
 40
0.0000000116
  9
$TDUSRTIMER
 40
0.0000000116
  9
$USRTIMER
 70
     1
  9
$ANGBASE
 50
0.0
  9
$ANGDIR
 70
     0
  9
$PDMODE
 70
     0
  9
$PDSIZE
 40
-1.0
  9
$PLINEWID
 40
0.0
  9
$SPLFRAME
 70
     0
  9
$SPLINETYPE
 70
     6
  9
$SPLINESEGS
 70
     8
  9
$HANDSEED
  5
105
  9
$SURFTAB1
 70
     6
  9
$SURFTAB2
 70
     6
  9
$SURFTYPE
 70
     6
  9
$SURFU
 70
     6
  9
$SURFV
 70
     6
  9
$UCSBASE
  2

  9
$UCSNAME
  2

  9
$UCSORG
 10
0.0
 20
0.0
 30
0.0
  9
$UCSXDIR
 10
1.0
 20
0.0
 30
0.0
  9
$UCSYDIR
 10
0.0
 20
1.0
 30
0.0
  9
$UCSORTHOREF
  2

  9
$UCSORTHOVIEW
 70
     0
  9
$UCSORGTOP
 10
0.0
 20
0.0
 30
0.0
  9
$UCSORGBOTTOM
 10
0.0
 20
0.0
 30
0.0
  9
$UCSORGLEFT
 10
0.0
 20
0.0
 30
0.0
  9
$UCSORGRIGHT
 10
0.0
 20
0.0
 30
0.0
  9
$UCSORGFRONT
 10
0.0
 20
0.0
 30
0.0
  9
$UCSORGBACK
 10
0.0
 20
0.0
 30
0.0
  9
$PUCSBASE
  2

  9
$PUCSNAME
  2

  9
$PUCSORG
 10
0.0
 20
0.0
 30
0.0
  9
$PUCSXDIR
 10
1.0
 20
0.0
 30
0.0
  9
$PUCSYDIR
 10
0.0
 20
1.0
 30
0.0
  9
$PUCSORTHOREF
  2

  9
$PUCSORTHOVIEW
 70
     0
  9
$PUCSORGTOP
 10
0.0
 20
0.0
 30
0.0
  9
$PUCSORGBOTTOM
 10
0.0
 20
0.0
 30
0.0
  9
$PUCSORGLEFT
 10
0.0
 20
0.0
 30
0.0
  9
$PUCSORGRIGHT
 10
0.0
 20
0.0
 30
0.0
  9
$PUCSORGFRONT
 10
0.0
 20
0.0
 30
0.0
  9
$PUCSORGBACK
 10
0.0
 20
0.0
 30
0.0
  9
$USERI1
 70
     0
  9
$USERI2
 70
     0
  9
$USERI3
 70
     0
  9
$USERI4
 70
     0
  9
$USERI5
 70
     0
  9
$USERR1
 40
0.0
  9
$USERR2
 40
0.0
  9
$USERR3
 40
0.0
  9
$USERR4
 40
0.0
  9
$USERR5
 40
0.0
  9
$WORLDVIEW
 70
     1
  9
$SHADEDGE
 70
     3
  9
$SHADEDIF
 70
    70
  9
$TILEMODE
 70
     1
  9
$MAXACTVP
 70
    64
  9
$PINSBASE
 10
0.0
 20
0.0
 30
0.0
  9
$PLIMCHECK
 70
     0
  9
$PEXTMIN
 10
-68.5
 20
0.0
 30
0.0
  9
$PEXTMAX
 10
135.5
 20
204.0
 30
0.0
  9
$PLIMMIN
 10
-89.4230769231
 20
-7.8461538462
  9
$PLIMMAX
 10
221.2846153846
 20
211.8461538462
  9
$UNITMODE
 70
     0
  9
$VISRETAIN
 70
     1
  9
$PLINEGEN
 70
     0
  9
$PSLTSCALE
 70
     1
  9
$TREEDEPTH
 70
  3020
  9
$CMLSTYLE
  2
Standard
  9
$CMLJUST
 70
     0
  9
$CMLSCALE
 40
20.0
  9
$PROXYGRAPHICS
 70
     1
  9
$MEASUREMENT
 70
     1
  9
$CELWEIGHT
370
    -1
  9
$ENDCAPS
280
     0
  9
$JOINSTYLE
280
     0
  9
$LWDISPLAY
290
     1
  9
$INSUNITS
 70
     4
  9
$HYPERLINKBASE
  1

  9
$STYLESHEET
  1

  9
$XEDIT
290
     1
  9
$CEPSNTYPE
380
     0
  9
$PSTYLEMODE
290
     1
  9
$FINGERPRINTGUID
  2
{5BEEDDDC-D75D-4292-8122-CB15284DCB4B}
  9
$VERSIONGUID
  2
{FAEB1C32-E019-11D5-929B-00C0DF256EC4}
  9
$EXTNAMES
290
     1
  9
$PSVPSCALE
 40
0.0
  9
$OLESTARTUP
290
     0
  0
ENDSEC
  0
SECTION
  2
CLASSES
  0
CLASS
  1
ACDBDICTIONARYWDFLT
  2
AcDbDictionaryWithDefault
  3
ObjectDBX Classes
 90
        0
280
     0
281
     0
  0
CLASS
  1
VISUALSTYLE
  2
AcDbVisualStyle
  3
ObjectDBX Classes
 90
     4095
280
     0
281
     0
  0
CLASS
  1
MATERIAL
  2
AcDbMaterial
  3
ObjectDBX Classes
 90
     1153
280
     0
281
     0
  0
CLASS
  1
SCALE
  2
AcDbScale
  3
ObjectDBX Classes
 90
     1153
280
     0
281
     0
  0
CLASS
  1
TABLESTYLE
  2
AcDbTableStyle
  3
ObjectDBX Classes
 90
     4095
280
     0
281
     0
  0
CLASS
  1
MLEADERSTYLE
  2
AcDbMLeaderStyle
  3
ACDB_MLEADERSTYLE_CLASS
 90
     4095
280
     0
281
     0
  0
CLASS
  1
SUN
  2
AcDbSun
  3
SCENEOE
 90
     1153
280
     0
281
     0
  0
CLASS
  1
ACDBPLACEHOLDER
  2
AcDbPlaceHolder
  3
ObjectDBX Classes
 90
        0
280
     0
281
     0
  0
CLASS
  1
LAYOUT
  2
AcDbLayout
  3
ObjectDBX Classes
 90
        0
280
     0
281
     0
  0
ENDSEC
  0
SECTION
  2
TABLES
  0
TABLE
  2
VPORT
  5
8
330
0
100
AcDbSymbolTable
 70
     1
  0
VPORT
  5
29
330
8
100
AcDbSymbolTableRecord
100
AcDbViewportTableRecord
  2
*Active
 70
     0
 10
0.0
 20
0.0
 11
1.0
 21
1.0
 12
33.5
 22
7.75
 13
0.0
 23
0.0
 14
10.0
 24
10.0
 15
10.0
 25
10.0
 16
0.0
 26
0.0
 36
1.0
 17
0.0
 27
0.0
 37
0.0
 40
155.55
 41
1.337704918
 42
50.0
 43
0.0
 44
0.0
 50
0.0
 51
0.0
 71
     0
 72
   100
 73
     1
 74
     3
 75
     0
 76
     0
 77
     0
 78
     0
281
     0
 65
     1
110
0.0
120
0.0
130
0.0
111
1.0
121
0.0
131
0.0
112
0.0
122
1.0
132
0.0
 79
     0
146
0.0
  0
ENDTAB
  0
TABLE
  2
LTYPE
  5
5
330
0
100
AcDbSymbolTable
 70
     6
  0
LTYPE
  5
14
330
5
100
AcDbSymbolTableRecord
100
AcDbLinetypeTableRecord
  2
ByBlock
 70
     0
  3

 72
    65
 73
     0
 40
0.0
  0
LTYPE
  5
15
330
5
100
AcDbSymbolTableRecord
100
AcDbLinetypeTableRecord
  2
ByLayer
 70
     0
  3

 72
    65
 73
     0
 40
0.0
  0
LTYPE
  5
16
330
5
100
AcDbSymbolTableRecord
100
AcDbLinetypeTableRecord
  2
Continuous
 70
     0
  3
Solid line
 72
    65
 73
     0
 40
0.0
  0
LTYPE
  5
6E
330
5
100
AcDbSymbolTableRecord
100
AcDbLinetypeTableRecord
  2
HIDDEN
 70
     0
  3
Hidden __ __ __ __ __ __ __ __ __ __ __ __ __ __
 72
    65
 73
     2
 40
1.905
 49
1.27
 74
     0
 49
-0.635
 74
     0
  0
LTYPE
  5
6F
330
5
100
AcDbSymbolTableRecord
100
AcDbLinetypeTableRecord
  2
PHANTOM
 70
     0
  3
Phantom ______  __  __  ______  __  __  ______
 72
    65
 73
     6
 40
12.7
 49
6.35
 74
     0
 49
-1.27
 74
     0
 49
1.27
 74
     0
 49
-1.27
 74
     0
 49
1.27
 74
     0
 49
-1.27
 74
     0
  0
LTYPE
  5
70
330
5
100
AcDbSymbolTableRecord
100
AcDbLinetypeTableRecord
  2
CENTER
 70
     0
  3
Center ____ _ ____ _ ____ _ ____ _ ____ _ ____
 72
    65
 73
     4
 40
10.16
 49
6.35
 74
     0
 49
-1.27
 74
     0
 49
1.27
 74
     0
 49
-1.27
 74
     0
  0
LTYPE
  5
71
330
5
100
AcDbSymbolTableRecord
100
AcDbLinetypeTableRecord
  2
CENTERX2
 70
     0
  3
Center (2x) ________  __  ________  __  _____
 72
    65
 73
     4
 40
20.32
 49
12.7
 74
     0
 49
-2.54
 74
     0
 49
2.54
 74
     0
 49
-2.54
 74
     0
  0
LTYPE
  5
72
330
5
100
AcDbSymbolTableRecord
100
AcDbLinetypeTableRecord
  2
DOT2
 70
     0
  3
Dot (.5x) ........................................
 72
    65
 73
     2
 40
0.635
 49
0.0
 74
     0
 49
-0.635
 74
     0
  0
ENDTAB
  0
TABLE
  2
LAYER
  5
2
330
0
100
AcDbSymbolTable
 70
     1
  0
LAYER
  5
10
330
2
100
AcDbSymbolTableRecord
100
AcDbLayerTableRecord
  2
0
 70
     0
 62
     7
  6
Continuous
370
    -3
390
F
  0
ENDTAB
  0
TABLE
  2
STYLE
  5
3
330
0
100
AcDbSymbolTable
 70
     1
  0
STYLE
  5
11
330
3
100
AcDbSymbolTableRecord
100
AcDbTextStyleTableRecord
  2
Standard
 70
     0
 40
0.0
 41
1.0
 50
0.0
 71
     0
 42
6.35
  3
txt
  4

  0
ENDTAB
  0
TABLE
  2
VIEW
  5
6
330
0
100
AcDbSymbolTable
 70
     0
  0
ENDTAB
  0
TABLE
  2
UCS
  5
7
330
0
100
AcDbSymbolTable
 70
     0
  0
ENDTAB
  0
TABLE
  2
APPID
  5
9
330
0
100
AcDbSymbolTable
 70
     1
  0
APPID
  5
12
330
9
100
AcDbSymbolTableRecord
100
AcDbRegAppTableRecord
  2
ACAD
 70
     0
  0
ENDTAB
  0
TABLE
  2
DIMSTYLE
  5
A
330
0
100
AcDbSymbolTable
 70
     1
100
AcDbDimStyleTable
  0
DIMSTYLE
105
27
330
A
100
AcDbSymbolTableRecord
100
AcDbDimStyleTableRecord
  2
ISO-25
 70
     0
 41
2.5
 42
0.625
 43
3.75
 44
1.25
 73
     0
 74
     0
 77
     1
 78
     8
140
2.5
141
2.5
143
0.0393700787
147
0.625
171
     3
172
     1
178
     0
271
     2
272
     2
274
     3
278
    44
283
     0
284
     8
340
11
  0
ENDTAB
  0
TABLE
  2
BLOCK_RECORD
  5
1
330
0
100
AcDbSymbolTable
 70
     1
  0
BLOCK_RECORD
  5
1F
330
1
100
AcDbSymbolTableRecord
100
AcDbBlockTableRecord
  2
*Model_Space
340
22
  0
BLOCK_RECORD
  5
1B
330
1
100
AcDbSymbolTableRecord
100
AcDbBlockTableRecord
  2
*Paper_Space
340
1E
  0
BLOCK_RECORD
  5
23
330
1
100
AcDbSymbolTableRecord
100
AcDbBlockTableRecord
  2
*Paper_Space0
340
26
  0
ENDTAB
  0
ENDSEC
  0
SECTION
  2
BLOCKS
  0
BLOCK
  5
20
330
1F
100
AcDbEntity
  8
0
100
AcDbBlockBegin
  2
*Model_Space
 70
     0
 10
0.0
 20
0.0
 30
0.0
  3
*Model_Space
  1

  0
ENDBLK
  5
21
330
1F
100
AcDbEntity
  8
0
100
AcDbBlockEnd
  0
BLOCK
  5
1C
330
1B
100
AcDbEntity
 67
     1
  8
0
100
AcDbBlockBegin
  2
*Paper_Space
 70
     0
 10
0.0
 20
0.0
 30
0.0
  3
*Paper_Space
  1

  0
ENDBLK
  5
1D
330
1B
100
AcDbEntity
 67
     1
  8
0
100
AcDbBlockEnd
  0
BLOCK
  5
24
330
23
100
AcDbEntity
  8
0
100
AcDbBlockBegin
  2
*Paper_Space0
 70
     0
 10
0.0
 20
0.0
 30
0.0
  3
*Paper_Space0
  1

  0
SPLINE
  5
E2
330
23
100
AcDbEntity
  8
0
  6
Continuous
 62
     7
370
    25
100
AcDbSpline
210
0.0
220
0.0
230
1.0
 70
     8
 71
     3
 72
    12
 73
     8
 74
     0
 42
0.000000001
 43
0.00000001
 40
0.0
 40
0.0
 40
0.0
 40
0.0
 40
0.0236699697977491
 40
0.3044270422368331
 40
0.6134068916397943
 40
0.9312735047021842
 40
0.9999999999999999
 40
0.9999999999999999
 40
0.9999999999999999
 40
0.9999999999999999
 10
-3.428472766136059
 20
62.80179983300563
 30
0.0
 10
-3.436856904670951
 20
62.80459793417803
 30
0.0
 10
-3.544687988431938
 20
62.84058520712643
 30
0.0
 10
-3.727708512604649
 20
62.99567717396304
 30
0.0
 10
-3.920570951976093
 20
63.27060500172784
 30
0.0
 10
-4.011310232543614
 20
63.53033168056734
 30
0.0
 10
-3.992465468715817
 20
63.67380491991155
 30
0.0
 10
-3.989115345434793
 20
63.69931083994976
 30
0.0
  0
SPLINE
  5
E3
330
23
100
AcDbEntity
  8
0
  6
Continuous
 62
     7
370
    25
100
AcDbSpline
210
0.0
220
0.0
230
1.0
 70
     8
 71
     3
 72
    14
 73
    10
 74
     0
 42
0.000000001
 43
0.00000001
 40
0.0
 40
0.0
 40
0.0
 40
0.0
 40
0.1737274961937976
 40
0.395456093069236
 40
0.5675482466697166
 40
0.7103276408952088
 40
0.830906649643486
 40
0.9298999049001075
 40
1.0
 40
1.0
 40
1.0
 40
1.0
 10
-24.00758120434556
 20
68.17196479296538
 30
0.0
 10
-24.01362971698807
 20
68.07070205984765
 30
0.0
 10
-24.02739795305256
 20
67.8401975876737
 30
0.0
 10
-24.20020315036275
 20
67.54530830814123
 30
0.0
 10
-24.43384148220869
 20
67.33670441628952
 30
0.0
 10
-24.66340542017256
 20
67.22569681039273
 30
0.0
 10
-24.86917363667738
 20
67.17992415066804
 30
0.0
 10
-25.03778044017424
 20
67.17309383640193
 30
0.0
 10
-25.13464035342104
 20
67.18747107808522
 30
0.0
 10
-25.17479503197967
 20
67.19343137165765
 30
0.0
  0
SPLINE
  5
EA
330
23
100
AcDbEntity
  8
0
  6
Continuous
 62
     7
370
    25
100
AcDbSpline
210
0.0
220
0.0
230
1.0
 70
     8
 71
     3
 72
    21
 73
    17
 74
     0
 42
0.000000001
 43
0.00000001
 40
0.0
 40
0.0
 40
0.0
 40
0.0
 40
0.0578519926970651
 40
0.1294263967327921
 40
0.199164389070446
 40
0.2709725278222188
 40
0.3409330549837231
 40
0.4129379003270139
 40
0.4829406446035748
 40
0.5549220276289512
 40
0.6253361815566215
 40
0.6976499733859732
 40
0.7696012868394845
 40
0.8434637323208264
 40
0.9205465177926793
 40
1.0
 40
1.0
 40
1.0
 40
1.0
 10
-3.22050907824821
 20
62.72254781480665
 30
0.0
 10
-3.232374899911281
 20
62.7229233245239
 30
0.0
 10
-3.25892109945479
 20
62.72376341433547
 30
0.0
 10
-3.672285402313374
 20
62.738565608545
 30
0.0
 10
-4.380782571115252
 20
62.77064394371029
 30
0.0
 10
-5.368068587549221
 20
62.82871429906292
 30
0.0
 10
-6.610144654712033
 20
62.92429301592646
 30
0.0
 10
-8.049707085770727
 20
63.06603405891513
 30
0.0
 10
-9.66632875274108
 20
63.26479747032822
 30
0.0
 10
-11.38629566083672
 20
63.52161828585191
 30
0.0
 10
-13.19046483079901
 20
63.84079549132429
 30
0.0
 10
-15.0112033339143
 20
64.21362084238523
 30
0.0
 10
-16.83070769847835
 20
64.63631336633514
 30
0.0
 10
-18.60707440975846
 20
65.09635109064688
 30
0.0
 10
-20.32863400720475
 20
65.58463088371498
 30
0.0
 10
-21.32951349241397
 20
65.89648871327437
 30
0.0
 10
-21.83753225093406
 20
66.0547791266046
 30
0.0
  0
SPLINE
  5
EE
330
23
100
AcDbEntity
  8
0
  6
Continuous
 62
     8
370
    25
100
AcDbSpline
210
0.0
220
0.0
230
1.0
 70
     8
 71
     3
 72
    12
 73
     8
 74
     0
 42
0.000000001
 43
0.00000001
 40
0.0
 40
0.0
 40
0.0
 40
0.0
 40
0.2080211453482525
 40
0.4220089419685529
 40
0.6302000908713458
 40
0.845288639176796
 40
1.0
 40
1.0
 40
1.0
 40
1.0
 10
-21.83753225093404
 20
66.05477912660459
 30
0.0
 10
-22.25073918618463
 20
66.188055977196
 30
0.0
 10
-23.08900503299187
 20
66.45843244595748
 30
0.0
 10
-24.05355145679419
 20
66.7899446116197
 30
0.0
 10
-24.7581852351837
 20
67.03834182899226
 30
0.0
 10
-25.1499265156596
 20
67.1798448770108
 30
0.0
 10
-25.16817745774708
 20
67.18647543292653
 30
0.0
 10
-25.17581301421141
 20
67.18924942584383
 30
0.0
  0
SPLINE
  5
F0
330
23
100
AcDbEntity
  8
0
  6
Continuous
 62
     8
370
    25
100
AcDbSpline
210
0.0
220
0.0
230
1.0
 70
     8
 71
     3
 72
    22
 73
    18
 74
     0
 42
0.000000001
 43
0.00000001
 40
0.0
 40
0.0
 40
0.0
 40
0.0
 40
0.006635348753268
 40
0.0812494849241274
 40
0.1580128138973349
 40
0.229244832803462
 40
0.302352271926306
 40
0.3723994255169952
 40
0.4443686153026998
 40
0.5140096733023674
 40
0.585659203420375
 40
0.655510747719629
 40
0.7274158467199862
 40
0.7973947254235502
 40
0.8694166326927374
 40
0.9393812222536768
 40
1.0
 40
1.0
 40
1.0
 40
1.0
 10
-20.94378574228803
 20
67.0279411851496
 30
0.0
 10
-20.90701807298412
 20
67.01506878993587
 30
0.0
 10
-20.45679996028412
 20
66.85744701001956
 30
0.0
 10
-19.5015412492877
 20
66.53385210064556
 30
0.0
 10
-18.00079194120627
 20
66.06316563485383
 30
0.0
 10
-16.39465309202419
 20
65.60425808899556
 30
0.0
 10
-14.76478045233066
 20
65.18633537687957
 30
0.0
 10
-13.09880957082378
 20
64.81024355888127
 30
0.0
 10
-11.47188911283127
 20
64.49360081384631
 30
0.0
 10
-9.892674769049231
 20
64.2348852396856
 30
0.0
 10
-8.433713445640908
 20
64.03901384887743
 30
0.0
 10
-7.110896715755335
 20
63.8975356900278
 30
0.0
 10
-5.989043155293902
 20
63.80473772320588
 30
0.0
 10
-5.080640278075463
 20
63.74790690591635
 30
0.0
 10
-4.439264918392055
 20
63.71765299856308
 30
0.0
 10
-4.056419037433617
 20
63.70359556428139
 30
0.0
 10
-4.031146736678953
 20
63.70279575605176
 30
0.0
 10
-4.019414951734398
 20
63.7024244729526
 30
0.0
  0
SPLINE
  5
F1
330
23
100
AcDbEntity
  8
0
  6
Continuous
 62
     8
370
    25
100
AcDbSpline
210
0.0
220
0.0
230
1.0
 70
     8
 71
     3
 72
    12
 73
     8
 74
     0
 42
0.000000001
 43
0.00000001
 40
0.0
 40
0.0
 40
0.0
 40
0.0
 40
0.154269356689754
 40
0.3626253776655657
 40
0.577983274725087
 40
0.785960644641615
 40
1.0
 40
1.0
 40
1.0
 40
1.0
 10
-23.97522551182796
 20
68.16777250096507
 30
0.0
 10
-23.96961755145718
 20
68.16551498414802
 30
0.0
 10
-23.95643548606828
 20
68.16020846763729
 30
0.0
 10
-23.60415012223061
 20
68.01934370386246
 30
0.0
 10
-22.97436553884891
 20
67.77347378288827
 30
0.0
 10
-22.09176110677206
 20
67.43766390840015
 30
0.0
 10
-21.33009115538434
 20
67.16581705841051
 30
0.0
 10
-20.94378574228803
 20
67.0279411851496
 30
0.0
  0
LINE
  5
F2
330
23
100
AcDbEntity
  8
0
  6
Continuous
 62
     7
370
    25
100
AcDbLine
 10
-31.6
 20
-68.5
 30
0.0
 11
0.0
 21
-62.0709073382
 31
0.0
  0
LINE
  5
F3
330
23
100
AcDbEntity
  8
0
  6
Continuous
 62
     7
370
    25
100
AcDbLine
 10
-25.1750833316
 20
67.1928359302
 30
0.0
 11
-31.6
 21
68.5
 31
0.0
  0
LINE
  5
F4
330
23
100
AcDbEntity
  8
0
  6
Continuous
 62
     7
370
    25
100
AcDbLine
 10
0.0
 20
62.0709073382
 30
0.0
 11
-3.2198097671
 21
62.725985039
 31
0.0
  0
LINE
  5
F5
330
23
100
AcDbEntity
  8
0
  6
Continuous
 62
     7
370
    25
100
AcDbLine
 10
-135.5
 20
-68.5
 30
0.0
 11
-31.6
 21
-68.5
 31
0.0
  0
LINE
  5
F6
330
23
100
AcDbEntity
  8
0
  6
Continuous
 62
     7
370
    25
100
AcDbLine
 10
-31.6
 20
68.5
 30
0.0
 11
-135.5
 21
68.5
 31
0.0
  0
LINE
  5
F7
330
23
100
AcDbEntity
  8
0
  6
Continuous
 62
     7
370
    25
100
AcDbLine
 10
-24.0
 20
84.0
 30
0.0
 11
-24.0
 21
68.167876226
 31
0.0
  0
LINE
  5
F8
330
23
100
AcDbEntity
  8
0
  6
Continuous
 62
     7
370
    25
100
AcDbLine
 10
-4.0
 20
63.7024389066
 30
0.0
 11
-4.0
 21
84.0
 31
0.0
  0
LINE
  5
F9
330
23
100
AcDbEntity
  8
0
  6
Continuous
 62
     7
370
    25
100
AcDbLine
 10
-145.5
 20
84.0
 30
0.0
 11
-145.5
 21
67.7661419885
 31
0.0
  0
LINE
  5
FA
330
23
100
AcDbEntity
  8
0
  6
Continuous
 62
     7
370
    25
100
AcDbLine
 10
-125.5
 20
68.5
 30
0.0
 11
-125.5
 21
84.0
 31
0.0
  0
LINE
  5
FB
330
23
100
AcDbEntity
  8
0
  6
Continuous
 62
     7
370
    25
100
AcDbLine
 10
0.0
 20
62.0709073382
 30
0.0
 11
0.0
 21
-62.0709073382
 31
0.0
  0
LINE
  5
FC
330
23
100
AcDbEntity
  8
0
  6
Continuous
 62
     7
370
    25
100
AcDbLine
 10
-31.6
 20
-68.5
 30
0.0
 11
-31.6
 21
68.5
 31
0.0
  0
LINE
  5
FD
330
23
100
AcDbEntity
  8
0
  6
Continuous
 62
     7
370
    25
100
AcDbLine
 10
-24.0
 20
84.0
 30
0.0
 11
-4.0
 21
84.0
 31
0.0
  0
LINE
  5
FE
330
23
100
AcDbEntity
  8
0
  6
Continuous
 62
     7
370
    25
100
AcDbLine
 10
-145.5
 20
84.0
 30
0.0
 11
-125.5
 21
84.0
 31
0.0
  0
LINE
  5
FF
330
23
100
AcDbEntity
  8
0
  6
Continuous
 62
     8
370
    25
100
AcDbLine
 10
-86.5
 20
68.5
 30
0.0
 11
-86.5
 21
-68.5
 31
0.0
  0
ARC
  5
100
330
23
100
AcDbEntity
  8
0
  6
Continuous
 62
     7
370
    25
100
AcDbCircle
 10
-135.5
 20
0.0
 30
0.0
 40
68.5
100
AcDbArc
 50
90.0
 51
270.0
  0
VIEWPORT
  5
103
330
23
100
AcDbEntity
  8
0
100
AcDbViewport
 10
0.0
 20
0.0
 30
0.0
 40
205.6
 41
156.0
 68
     1
 69
     1
 12
33.5
 22
7.75
 13
0.0
 23
0.0
 14
10.0
 24
10.0
 15
10.0
 25
10.0
 16
0.0
 26
0.0
 36
1.0
 17
0.0
 27
0.0
 37
0.0
 42
50.0
 43
0.0
 44
0.0
 45
157.8817120623
 50
0.0
 51
0.0
 72
   100
 90
   557152
  1

281
     0
 71
     1
 74
     0
110
0.0
120
0.0
130
0.0
111
1.0
121
0.0
131
0.0
112
0.0
122
1.0
132
0.0
 79
     0
146
0.0
  0
ENDBLK
  5
25
330
23
100
AcDbEntity
  8
0
100
AcDbBlockEnd
  0
ENDSEC
  0
SECTION
  2
ENTITIES
  0
SPLINE
  5
73
330
1F
100
AcDbEntity
  8
0
  6
Continuous
 62
     7
370
    25
100
AcDbSpline
210
0.0
220
0.0
230
1.0
 70
     8
 71
     3
 72
    10
 73
     6
 74
     0
 42
0.000000001
 43
0.00000001
 40
0.0
 40
0.0
 40
0.0
 40
0.0
 40
0.3227881500625116
 40
0.9918833740258249
 40
1.0
 40
1.0
 40
1.0
 40
1.0
 10
-10.01495497068048
 20
65.02416576745482
 30
0.0
 10
-10.01055275352915
 20
64.98643591148554
 30
0.0
 10
-9.997025348633969
 20
64.87049727856774
 30
0.0
 10
-10.0588528759899
 20
64.80445061709764
 30
0.0
 10
-10.04021962757521
 20
64.82651366377934
 30
0.0
 10
-10.03999630143571
 20
64.82677809727646
 30
0.0
  0
SPLINE
  5
74
330
1F
100
AcDbEntity
  8
0
  6
Continuous
 62
     7
370
    25
100
AcDbSpline
210
0.0
220
0.0
230
1.0
 70
     8
 71
     3
 72
     9
 73
     5
 74
     0
 42
0.000000001
 43
0.00000001
 40
0.0
 40
0.0
 40
0.0
 40
0.0
 40
0.6415001425348231
 40
1.0
 40
1.0
 40
1.0
 40
1.0
 10
10.03952845854957
 20
64.82871563522988
 30
0.0
 10
10.02728515149724
 20
64.83981194247156
 30
0.0
 10
10.00819971995866
 20
64.85710937782025
 30
0.0
 10
10.01180425017338
 20
64.97996959613904
 30
0.0
 10
10.01309647374158
 20
65.02401496689444
 30
0.0
  0
SPLINE
  5
7E
330
1F
100
AcDbEntity
  8
0
  6
Continuous
 62
     7
370
    25
100
AcDbSpline
210
0.0
220
0.0
230
1.0
 70
     8
 71
     3
 72
    12
 73
     8
 74
     0
 42
0.000000001
 43
0.00000001
 40
0.0
 40
0.0
 40
0.0
 40
0.0
 40
0.0788724330596788
 40
0.3426796348321802
 40
0.6615654998151375
 40
0.9852126547186548
 40
1.0
 40
1.0
 40
1.0
 40
1.0
 10
132.062321133558
 20
62.80726127760658
 30
0.0
 10
132.0357269176919
 20
62.81916693429535
 30
0.0
 10
131.9201821598076
 20
62.87089382959041
 30
0.0
 10
131.7301714381417
 20
63.03645781066111
 30
0.0
 10
131.5595491527187
 20
63.32163725507785
 30
0.0
 10
131.4784189166091
 20
63.56889438676261
 30
0.0
 10
131.5011133594097
 20
63.69185509408646
 30
0.0
 10
131.5021049561928
 20
63.69722766229166
 30
0.0
  0
SPLINE
  5
7F
330
1F
100
AcDbEntity
  8
0
  6
Continuous
 62
     7
370
    25
100
AcDbSpline
210
0.0
220
0.0
230
1.0
 70
     8
 71
     3
 72
    13
 73
     9
 74
     0
 42
0.000000001
 43
0.00000001
 40
0.0
 40
0.0
 40
0.0
 40
0.0
 40
0.168565644782542
 40
0.4092311683004825
 40
0.6178008413514725
 40
0.7891715751148434
 40
0.9340900624435964
 40
1.0
 40
1.0
 40
1.0
 40
1.0
 10
111.487232610783
 20
68.16850179685308
 30
0.0
 10
111.4854623682256
 20
68.0836313470883
 30
0.0
 10
111.4811647046601
 20
67.87758916479049
 30
0.0
 10
111.3333022440203
 20
67.59355912002906
 30
0.0
 10
111.1141561508115
 20
67.36956236484365
 30
0.0
 10
110.8812172921949
 20
67.24407038784348
 30
0.0
 10
110.6960188344892
 20
67.1886337160678
 30
0.0
 10
110.5906652098341
 20
67.18440366465309
 30
0.0
 10
110.5577291822271
 20
67.18308125082413
 30
0.0
  0
CIRCLE
  5
82
330
1F
100
AcDbEntity
  8
0
  6
Continuous
 62
     7
370
    25
100
AcDbCircle
 10
0.0
 20
0.0
 30
0.0
 40
56.80646649685738
  0
CIRCLE
  5
83
330
1F
100
AcDbEntity
  8
0
  6
Continuous
 62
     7
370
    25
100
AcDbCircle
 10
0.0
 20
0.0
 30
0.0
 40
62.07090733821116
  0
SPLINE
  5
86
330
1F
100
AcDbEntity
  8
0
  6
Continuous
 62
     7
370
    25
100
AcDbSpline
210
0.0
220
0.0
230
1.0
 70
     8
 71
     3
 72
    14
 73
    10
 74
     0
 42
0.000000001
 43
0.00000001
 40
0.0
 40
0.0
 40
0.0
 40
0.0
 40
0.1430508910316736
 40
0.2855799412255931
 40
0.4281053980409484
 40
0.5708374385557557
 40
0.7135721666105351
 40
0.8567828060904652
 40
1.0
 40
1.0
 40
1.0
 40
1.0
 10
5.500082673166051
 20
62.79144136111768
 30
0.0
 10
4.96167910802996
 20
62.77614689567386
 30
0.0
 10
3.886836040794744
 20
62.74561375805396
 30
0.0
 10
2.118291814280332
 20
62.72717619218727
 30
0.0
 10
0.3019897006735356
 20
62.72033688493801
 30
0.0
 10
-1.528229736297175
 20
62.72327768590367
 30
0.0
 10
-3.313038705185782
 20
62.73911291943403
 30
0.0
 10
-5.014905264793375
 20
62.76923579608822
 30
0.0
 10
-6.020891257712255
 20
62.81340989539711
 30
0.0
 10
-6.523895764338664
 20
62.83549745047734
 30
0.0
  0
CIRCLE
  5
87
330
1F
100
AcDbEntity
  8
0
  6
Continuous
 62
     7
370
    25
100
AcDbCircle
 10
0.0
 20
0.0
 30
0.0
 40
56.30646649685808
  0
CIRCLE
  5
88
330
1F
100
AcDbEntity
  8
0
  6
Continuous
 62
     7
370
    25
100
AcDbCircle
 10
0.0
 20
0.0
 30
0.0
 40
55.79999999999938
  0
SPLINE
  5
8C
330
1F
100
AcDbEntity
  8
0
  6
Continuous
 62
     7
370
    25
100
AcDbSpline
210
0.0
220
0.0
230
1.0
 70
     8
 71
     3
 72
    20
 73
    16
 74
     0
 42
0.000000001
 43
0.00000001
 40
0.0
 40
0.0
 40
0.0
 40
0.0
 40
0.1249999999999993
 40
0.1249999999999993
 40
0.2499999999999987
 40
0.2499999999999987
 40
0.374999999999998
 40
0.374999999999998
 40
0.4999999999999973
 40
0.4999999999999973
 40
0.7500000000000007
 40
0.7500000000000007
 40
0.8750000000000003
 40
0.8750000000000003
 40
1.0
 40
1.0
 40
1.0
 40
1.0
 10
49.00000000000001
 20
-49.88492368964137
 30
0.0
 10
48.87846011535787
 20
-49.85781111942238
 30
0.0
 10
48.75606874133606
 20
-49.83314618442079
 30
0.0
 10
48.52032812725813
 20
-49.79057630442517
 30
0.0
 10
48.40526666116371
 20
-49.77239723657431
 30
0.0
 10
48.18112651676528
 20
-49.74269780954435
 30
0.0
 10
48.07161759511298
 20
-49.73118756282626
 30
0.0
 10
47.86530693938204
 20
-49.7159288825089
 30
0.0
 10
47.76773001936049
 20
-49.71204939645767
 30
0.0
 10
47.49226090966675
 20
-49.71202800787786
 30
0.0
 10
47.33955569955123
 20
-49.72731907515654
 30
0.0
 10
47.15434934842467
 20
-49.77183554938591
 30
0.0
 10
47.10059027374061
 20
-49.79024647144454
 30
0.0
 10
47.01017758840883
 20
-49.83305319566136
 30
0.0
 10
46.97286701436701
 20
-49.85781111942067
 30
0.0
 10
46.94405594405596
 20
-49.88492368964138
 30
0.0
  0
SPLINE
  5
8D
330
1F
100
AcDbEntity
  8
0
  6
Continuous
 62
     7
370
    25
100
AcDbSpline
210
0.0
220
0.0
230
1.0
 70
     8
 71
     3
 72
    14
 73
    10
 74
     0
 42
0.000000001
 43
0.00000001
 40
0.0
 40
0.0
 40
0.0
 40
0.0
 40
0.25
 40
0.25
 40
0.5
 40
0.5
 40
0.75
 40
0.75
 40
1.0
 40
1.0
 40
1.0
 40
1.0
 10
46.94405594405596
 20
49.88492368964138
 30
0.0
 10
47.00247578977583
 20
49.82994787124021
 30
0.0
 10
47.09330916913161
 20
49.78661022475041
 30
0.0
 10
47.33709506552273
 20
49.72780829230509
 30
0.0
 10
47.49274075481089
 20
49.71200889475151
 30
0.0
 10
47.85975296874853
 20
49.7120757273951
 30
0.0
 10
48.06454932029172
 20
49.72738368225502
 30
0.0
 10
48.51436450498473
 20
49.78672250987675
 30
0.0
 10
48.75355510107642
 20
49.82994787122364
 30
0.0
 10
49.00000000000001
 20
49.88492368964138
 30
0.0
  0
SPLINE
  5
90
330
1F
100
AcDbEntity
  8
0
  6
Continuous
 62
     7
370
    25
100
AcDbSpline
210
0.0
220
0.0
230
1.0
 70
     8
 71
     3
 72
    26
 73
    22
 74
     0
 42
0.000000001
 43
0.00000001
 40
0.0
 40
0.0
 40
0.0
 40
0.0
 40
0.038892590938458
 40
0.0907993682036845
 40
0.1442548911402538
 40
0.2190672174825025
 40
0.2711140974410419
 40
0.3246672073615011
 40
0.3769517316770032
 40
0.4307070611770664
 40
0.4833468170024188
 40
0.5373981216034427
 40
0.5913115555993527
 40
0.6466624991060893
 40
0.7019634941012604
 40
0.7588450214167511
 40
0.8138599504342909
 40
0.8706247008964554
 40
0.9230438883443455
 40
0.9771964533878742
 40
1.0
 40
1.0
 40
1.0
 40
1.0
 10
132.2689894943113
 20
62.72290053882293
 30
0.0
 10
132.2651343406287
 20
62.72301333998581
 30
0.0
 10
132.2561340269379
 20
62.72327668768461
 30
0.0
 10
131.8760660214396
 20
62.73670342424285
 30
0.0
 10
131.1064606483165
 20
62.77065815307602
 30
0.0
 10
129.9339826738611
 20
62.84017316486793
 30
0.0
 10
128.4482309815762
 20
62.96428221640317
 30
0.0
 10
126.9538562222543
 20
63.12264180573053
 30
0.0
 10
125.295306759208
 20
63.34016893284372
 30
0.0
 10
123.5462637937162
 20
63.6165291743453
 30
0.0
 10
121.7281015734075
 20
63.95435759930768
 30
0.0
 10
119.9063830068238
 20
64.34352148411381
 30
0.0
 10
118.1005693139575
 20
64.77859542002807
 30
0.0
 10
116.3732598931846
 20
65.23982624511979
 30
0.0
 10
114.754999980041
 20
65.71105326137878
 30
0.0
 10
113.3241969195428
 20
66.15884663810876
 30
0.0
 10
112.1123616668151
 20
66.56022470084397
 30
0.0
 10
111.1914258620624
 20
66.87889794358719
 30
0.0
 10
110.5865307598732
 20
67.09421924498258
 30
0.0
 10
110.302733078788
 20
67.19701283500923
 30
0.0
 10
110.3277019333647
 20
67.18797016359639
 30
0.0
 10
110.335100675673
 20
67.18529064958996
 30
0.0
  0
CIRCLE
  5
91
330
1F
100
AcDbEntity
  8
0
  6
Continuous
 62
     7
370
    25
100
AcDbCircle
 10
0.0
 20
0.0
 30
0.0
 40
52.3999999999995
  0
CIRCLE
  5
92
330
1F
100
AcDbEntity
  8
0
  6
Continuous
 62
     7
370
    25
100
AcDbCircle
 10
0.0
 20
0.0
 30
0.0
 40
48.99999999999987
  0
SPLINE
  5
95
330
1F
100
AcDbEntity
  8
0
  6
Continuous
 62
     8
370
    25
100
AcDbSpline
210
0.0
220
0.0
230
1.0
 70
     8
 71
     3
 72
    15
 73
    11
 74
     0
 42
0.000000001
 43
0.00000001
 40
0.0
 40
0.0
 40
0.0
 40
0.0
 40
0.1174812538888083
 40
0.2408670885869445
 40
0.3635638943544283
 40
0.4862402163852942
 40
0.6047027027730566
 40
0.7231526068932612
 40
0.8848963741306575
 40
1.0
 40
1.0
 40
1.0
 40
1.0
 10
9.999999999999787
 20
65.05473174688196
 30
0.0
 10
10.20496811391751
 20
64.90534579433263
 30
0.0
 10
10.62520599203248
 20
64.59906578560548
 30
0.0
 10
10.87175653502659
 20
64.16948718395734
 30
0.0
 10
10.81313122368997
 20
63.78396304975637
 30
0.0
 10
10.42951607303592
 20
63.46207081151929
 30
0.0
 10
9.735205744413836
 20
63.21049008610899
 30
0.0
 10
8.645955496281923
 20
62.99973202644725
 30
0.0
 10
7.22853563442551
 20
62.86298452690956
 30
0.0
 10
6.007674676639593
 20
62.81245132764442
 30
0.0
 10
5.500082673166051
 20
62.79144136111768
 30
0.0
  0
SPLINE
  5
96
330
1F
100
AcDbEntity
  8
0
  6
Continuous
 62
     8
370
    25
100
AcDbSpline
210
0.0
220
0.0
230
1.0
 70
     8
 71
     3
 72
    15
 73
    11
 74
     0
 42
0.000000001
 43
0.00000001
 40
0.0
 40
0.0
 40
0.0
 40
0.0
 40
0.1253962448672792
 40
0.250800046000633
 40
0.3762103350103368
 40
0.5016338994443672
 40
0.6276997180051486
 40
0.7537834441012963
 40
0.8825798670492484
 40
0.9999999999999999
 40
0.9999999999999999
 40
0.9999999999999999
 40
0.9999999999999999
 10
-6.523895764338664
 20
62.83549745047734
 30
0.0
 10
-6.990952656704602
 20
62.86485733882954
 30
0.0
 10
-7.925094585868993
 20
62.92357888473464
 30
0.0
 10
-9.051106001686383
 20
63.06781665636059
 30
0.0
 10
-9.928605242227343
 20
63.26641247371116
 30
0.0
 10
-10.53073565859024
 20
63.52393542015307
 30
0.0
 10
-10.83982554461958
 20
63.84294844857288
 30
0.0
 10
-10.8529246561855
 20
64.21704051460259
 30
0.0
 10
-10.59530517064192
 20
64.6254132971808
 30
0.0
 10
-10.19222706186265
 20
64.91428369500572
 30
0.0
 10
-9.999999999999787
 20
65.05204535118006
 30
0.0
  0
SPLINE
  5
97
330
1F
100
AcDbEntity
  8
0
  6
Continuous
 62
     8
370
    25
100
AcDbSpline
210
0.0
220
0.0
230
1.0
 70
     8
 71
     3
 72
    26
 73
    22
 74
     0
 42
0.000000001
 43
0.00000001
 40
0.0
 40
0.0
 40
0.0
 40
0.0
 40
0.0300163084159299
 40
0.0832914284195257
 40
0.1363002889272447
 40
0.1893053332608713
 40
0.2424866664264458
 40
0.2956689161308274
 40
0.3489418605345474
 40
0.4022160106755299
 40
0.4554735551785256
 40
0.5087313265336588
 40
0.561896518215177
 40
0.6150613686843469
 40
0.6682380109682171
 40
0.721413306285811
 40
0.7958357750318645
 40
0.8501721669520989
 40
0.9045119018099695
 40
0.9607572374696851
 40
1.0
 40
1.0
 40
1.0
 40
1.0
 10
-9.966322729964144
 20
65.02634121901849
 30
0.0
 10
-9.971351343309767
 20
64.95541044826795
 30
0.0
 10
-9.98530510413613
 20
64.7585866039483
 30
0.0
 10
-9.7117573372454
 20
64.49197808468895
 30
0.0
 10
-9.16507338988963
 20
64.23412791616803
 30
0.0
 10
-8.355204577848705
 20
64.03722737514464
 30
0.0
 10
-7.306307386113945
 20
63.89736196267026
 30
0.0
 10
-6.051339075944267
 20
63.80392280832754
 30
0.0
 10
-4.619846227788771
 20
63.74774554601466
 30
0.0
 10
-3.058924230177028
 20
63.71734588534736
 30
0.0
 10
-1.40947034746821
 20
63.70312044655913
 30
0.0
 10
0.2779967111223025
 20
63.70046343812208
 30
0.0
 10
1.956437294124147
 20
63.70630790435327
 30
0.0
 10
3.579753457787643
 20
63.72506566894133
 30
0.0
 10
5.100018285106398
 20
63.76270630429948
 30
0.0
 10
6.660957514986666
 20
63.8383474820981
 30
0.0
 10
7.98090602881624
 20
63.97003467576805
 30
0.0
 10
8.98630494531824
 20
64.17864535219493
 30
0.0
 10
9.61960946686145
 20
64.43010041063143
 30
0.0
 10
9.96472116795645
 20
64.71352944673124
 30
0.0
 10
9.966878817670297
 20
64.936053344769
 30
0.0
 10
9.967765547398386
 20
65.02750403499677
 30
0.0
  0
SPLINE
  5
9A
330
1F
100
AcDbEntity
  8
0
  6
Continuous
 62
     8
370
    25
100
AcDbSpline
210
0.0
220
0.0
230
1.0
 70
     8
 71
     3
 72
    26
 73
    22
 74
     0
 42
0.000000001
 43
0.00000001
 40
0.0
 40
0.0
 40
0.0
 40
0.0
 40
0.0225663125861729
 40
0.0761147633707418
 40
0.129676802844112
 40
0.1857924049284023
 40
0.2419288129858211
 40
0.2981160343034768
 40
0.3543109028289392
 40
0.4088375872629901
 40
0.4633584419232297
 40
0.516431724159662
 40
0.569495731695429
 40
0.622218036184889
 40
0.6749355249275618
 40
0.7275931018252558
 40
0.7802511404246046
 40
0.8551670929435155
 40
0.9080972174025342
 40
0.9610279420574348
 40
1.0
 40
1.0
 40
1.0
 40
1.0
 10
111.5322614303973
 20
68.16470776546582
 30
0.0
 10
111.5252380675017
 20
68.16754981230523
 30
0.0
 10
111.5015487029754
 20
68.17713585884451
 30
0.0
 10
111.7603266913688
 20
68.07309002058747
 30
0.0
 10
112.3010568778845
 20
67.86027162586663
 30
0.0
 10
113.1430682650149
 20
67.53771281161268
 30
0.0
 10
114.2347528589661
 20
67.13742547913937
 30
0.0
 10
115.5421661658885
 20
66.68514259944669
 30
0.0
 10
117.0039467942462
 20
66.21393266934257
 30
0.0
 10
118.5820847020929
 20
65.74908534571574
 30
0.0
 10
120.2157056484957
 20
65.31383567082906
 30
0.0
 10
121.8800335994744
 20
64.92295282863988
 30
0.0
 10
123.5267686429098
 20
64.58544255368061
 30
0.0
 10
125.1242877120235
 20
64.30951596043123
 30
0.0
 10
126.6281891236626
 20
64.09321147006078
 30
0.0
 10
127.9923120452269
 20
63.93672935904392
 30
0.0
 10
129.3468201696699
 20
63.81435801091731
 30
0.0
 10
130.4117219063919
 20
63.74789257571149
 30
0.0
 10
131.1105376471658
 20
63.71536939631041
 30
0.0
 10
131.4591376383102
 20
63.70319426277733
 30
0.0
 10
131.4680598745262
 20
63.70276126966257
 30
0.0
 10
131.4718434150998
 20
63.70257765571444
 30
0.0
  0
LINE
  5
9B
330
1F
100
AcDbEntity
  8
0
  6
Continuous
 62
     7
370
    25
100
AcDbLine
 10
-10.0
 20
84.0
 30
0.0
 11
-10.0
 21
65.0221812523
 31
0.0
  0
LINE
  5
9C
330
1F
100
AcDbEntity
  8
0
  6
Continuous
 62
     7
370
    25
100
AcDbLine
 10
10.0
 20
65.0221960868
 30
0.0
 11
10.0
 21
84.0
 31
0.0
  0
LINE
  5
9D
330
1F
100
AcDbEntity
  8
0
  6
Continuous
 62
     7
370
    25
100
AcDbLine
 10
103.9
 20
68.5
 30
0.0
 11
10.0
 21
68.5
 31
0.0
  0
LINE
  5
9E
330
1F
100
AcDbEntity
  8
0
  6
Continuous
 62
     7
370
    25
100
AcDbLine
 10
0.0
 20
-68.5
 30
0.0
 11
103.9
 21
-68.5
 31
0.0
  0
LINE
  5
9F
330
1F
100
AcDbEntity
  8
0
  6
Continuous
 62
     7
370
    25
100
AcDbLine
 10
103.9
 20
-68.5
 30
0.0
 11
135.5
 21
-62.0709073382
 31
0.0
  0
LINE
  5
A0
330
1F
100
AcDbEntity
  8
0
  6
Continuous
 62
     7
370
    25
100
AcDbLine
 10
110.3361699741
 20
67.1905464193
 30
0.0
 11
103.9
 21
68.5
 31
0.0
  0
LINE
  5
A1
330
1F
100
AcDbEntity
  8
0
  6
Continuous
 62
     7
370
    25
100
AcDbLine
 10
135.5
 20
62.0709073382
 30
0.0
 11
132.2700373016
 21
62.7280506763
 31
0.0
  0
LINE
  5
A2
330
1F
100
AcDbEntity
  8
0
  6
Continuous
 62
     7
370
    25
100
AcDbLine
 10
111.5
 20
84.0
 30
0.0
 11
111.5
 21
68.1646719568
 31
0.0
  0
LINE
  5
A3
330
1F
100
AcDbEntity
  8
0
  6
Continuous
 62
     7
370
    25
100
AcDbLine
 10
131.5
 20
63.7025681919
 30
0.0
 11
131.5
 21
84.0
 31
0.0
  0
LINE
  5
A4
330
1F
100
AcDbEntity
  8
0
  6
Continuous
 62
     7
370
    25
100
AcDbLine
 10
-10.0
 20
84.0
 30
0.0
 11
10.0
 21
84.0
 31
0.0
  0
LINE
  5
A5
330
1F
100
AcDbEntity
  8
0
  6
Continuous
 62
     7
370
    25
100
AcDbLine
 10
103.9
 20
-68.5
 30
0.0
 11
103.9
 21
68.5
 31
0.0
  0
LINE
  5
A6
330
1F
100
AcDbEntity
  8
0
  6
Continuous
 62
     7
370
    25
100
AcDbLine
 10
135.5
 20
62.0709073382
 30
0.0
 11
135.5
 21
-62.0709073382
 31
0.0
  0
LINE
  5
A7
330
1F
100
AcDbEntity
  8
0
  6
Continuous
 62
     7
370
    25
100
AcDbLine
 10
111.5
 20
84.0
 30
0.0
 11
131.5
 21
84.0
 31
0.0
  0
LINE
  5
A8
330
1F
100
AcDbEntity
  8
0
  6
Continuous
 62
     8
370
    25
100
AcDbLine
 10
49.0
 20
-49.8849236896
 30
0.0
 11
49.0
 21
-68.5
 31
0.0
  0
LINE
  5
A9
330
1F
100
AcDbEntity
  8
0
  6
Continuous
 62
     8
370
    25
100
AcDbLine
 10
49.0
 20
68.5
 30
0.0
 11
49.0
 21
49.8849236896
 31
0.0
  0
ARC
  5
AA
330
1F
100
AcDbEntity
  8
0
  6
Continuous
 62
     7
370
    25
100
AcDbCircle
 10
0.0
 20
0.0
 30
0.0
 40
68.5000000000005
100
AcDbArc
 50
98.394345763
 51
81.605654237
  0
ARC
  5
AB
330
1F
100
AcDbEntity
  8
0
  6
Continuous
 62
     7
370
    25
100
AcDbCircle
 10
4.7700942464
 20
0.0
 30
0.0
 40
66.66925959160038
100
AcDbArc
 50
311.5614390982
 51
48.4385609018
  0
CIRCLE
  5
B6
330
1B
100
AcDbEntity
 67
     1
  8
0
  6
Continuous
 62
     7
370
    25
100
AcDbCircle
 10
121.5
 20
135.5
 30
0.0
 40
10.00000000000006
  0
CIRCLE
  5
B7
330
1B
100
AcDbEntity
 67
     1
  8
0
  6
Continuous
 62
     7
370
    25
100
AcDbCircle
 10
121.5
 20
135.5
 30
0.0
 40
6.250000000000057
  0
CIRCLE
  5
B8
330
1B
100
AcDbEntity
 67
     1
  8
0
  6
Continuous
 62
     7
370
    25
100
AcDbCircle
 10
0.0
 20
14.0
 30
0.0
 40
6.249999999999639
  0
CIRCLE
  5
B9
330
1B
100
AcDbEntity
 67
     1
  8
0
  6
Continuous
 62
     7
370
    25
100
AcDbCircle
 10
0.0
 20
14.0
 30
0.0
 40
9.999999999999785
  0
CIRCLE
  5
BA
330
1B
100
AcDbEntity
 67
     1
  8
0
  6
Continuous
 62
     7
370
    25
100
AcDbCircle
 10
121.5
 20
135.5
 30
0.0
 40
1.906987298107907
  0
CIRCLE
  5
BB
330
1B
100
AcDbEntity
 67
     1
  8
0
  6
Continuous
 62
     7
370
    25
100
AcDbCircle
 10
121.5
 20
135.5
 30
0.0
 40
2.340000000000117
  0
CIRCLE
  5
BC
330
1B
100
AcDbEntity
 67
     1
  8
0
  6
Continuous
 62
     7
370
    25
100
AcDbCircle
 10
0.0
 20
14.0
 30
0.0
 40
1.906987298107136
  0
CIRCLE
  5
BD
330
1B
100
AcDbEntity
 67
     1
  8
0
  6
Continuous
 62
     7
370
    25
100
AcDbCircle
 10
0.0
 20
14.0
 30
0.0
 40
2.339999999999334
  0
SPLINE
  5
BE
330
1B
100
AcDbEntity
 67
     1
  8
0
  6
Continuous
 62
     7
370
    25
100
AcDbSpline
210
0.0
220
0.0
230
1.0
 70
    11
 71
     3
 72
    98
 73
    94
 74
     0
 42
0.000000001
 43
0.00000001
 40
0.0
 40
0.0
 40
0.0
 40
0.0
 40
0.0312500000000001
 40
0.0312500000000001
 40
0.0625000000000002
 40
0.0625000000000002
 40
0.0781250000000005
 40
0.0781250000000005
 40
0.0937500000000008
 40
0.0937500000000008
 40
0.1250000000000014
 40
0.1250000000000014
 40
0.1562500000000021
 40
0.1562500000000021
 40
0.1718750000000025
 40
0.1718750000000025
 40
0.187500000000003
 40
0.187500000000003
 40
0.2187500000000039
 40
0.2187500000000039
 40
0.2500000000000047
 40
0.2500000000000047
 40
0.2812500000000056
 40
0.2812500000000056
 40
0.2968750000000055
 40
0.2968750000000055
 40
0.3125000000000054
 40
0.3125000000000054
 40
0.3281250000000053
 40
0.3281250000000053
 40
0.3437500000000053
 40
0.3437500000000053
 40
0.375000000000004
 40
0.375000000000004
 40
0.3906250000000039
 40
0.3906250000000039
 40
0.4062500000000038
 40
0.4062500000000038
 40
0.4375000000000025
 40
0.4375000000000025
 40
0.4531250000000021
 40
0.4531250000000021
 40
0.4687500000000017
 40
0.4687500000000017
 40
0.5000000000000011
 40
0.5000000000000011
 40
0.5312500000000007
 40
0.5312500000000007
 40
0.5468750000000003
 40
0.5468750000000003
 40
0.5625
 40
0.5625
 40
0.5781249999999992
 40
0.5781249999999992
 40
0.5937499999999983
 40
0.5937499999999983
 40
0.6249999999999976
 40
0.6249999999999976
 40
0.6562499999999967
 40
0.6562499999999967
 40
0.6874999999999959
 40
0.6874999999999959
 40
0.7031249999999952
 40
0.7031249999999952
 40
0.7187499999999947
 40
0.7187499999999947
 40
0.7499999999999939
 40
0.7499999999999939
 40
0.7656249999999943
 40
0.7656249999999943
 40
0.7812499999999947
 40
0.7812499999999947
 40
0.7968749999999951
 40
0.7968749999999951
 40
0.8124999999999954
 40
0.8124999999999954
 40
0.8437499999999951
 40
0.8437499999999951
 40
0.8593749999999956
 40
0.8593749999999956
 40
0.874999999999996
 40
0.874999999999996
 40
0.9062499999999971
 40
0.9062499999999971
 40
0.9218749999999976
 40
0.9218749999999976
 40
0.9374999999999981
 40
0.9374999999999981
 40
0.9531249999999986
 40
0.9531249999999986
 40
0.968749999999999
 40
0.968749999999999
 40
1.0
 40
1.0
 40
1.0
 40
1.0
 10
113.6523464703324
 20
143.2911491578324
 30
0.0
 10
114.1670474865394
 20
143.7816695721841
 30
0.0
 10
114.7280140673727
 20
144.2195657447801
 30
0.0
 10
115.9078098553008
 20
144.9725856397583
 30
0.0
 10
116.529576430085
 20
145.2910479492969
 30
0.0
 10
117.5114672660456
 20
145.6810237373842
 30
0.0
 10
117.8474798193052
 20
145.7962071113809
 30
0.0
 10
118.5226230327146
 20
145.9923405923065
 30
0.0
 10
118.8634112172421
 20
146.0740217284662
 30
0.0
 10
119.8954282845113
 20
146.2706036755349
 30
0.0
 10
120.5962312227904
 20
146.3375292317352
 30
0.0
 10
122.0253039964419
 20
146.3355112001531
 30
0.0
 10
122.7303840450613
 20
146.2665663178743
 30
0.0
 10
123.7740334003306
 20
146.063580779497
 30
0.0
 10
124.1195686152086
 20
145.9792090818643
 30
0.0
 10
124.8057379383936
 20
145.7760259886271
 30
0.0
 10
125.1481391244869
 20
145.6563929823013
 30
0.0
 10
126.1478804549421
 20
145.2513017483601
 30
0.0
 10
126.781662887015
 20
144.9198264643018
 30
0.0
 10
127.9831672233493
 20
144.1341421933978
 30
0.0
 10
128.5551432267372
 20
143.6743185930886
 30
0.0
 10
129.5824913966003
 20
142.6648211959614
 30
0.0
 10
130.0435284187047
 20
142.1129682793051
 30
0.0
 10
130.6535836792153
 20
141.2126425075713
 30
0.0
 10
130.843492321458
 20
140.8994571550507
 30
0.0
 10
131.1870325222342
 20
140.262507364181
 30
0.0
 10
131.3418739330307
 20
139.9371427039154
 30
0.0
 10
131.618156440957
 20
139.2728341583193
 30
0.0
 10
131.7395977428185
 20
138.9338903355714
 30
0.0
 10
131.9485415214029
 20
138.2422163404192
 30
0.0
 10
132.0363859185142
 20
137.8875654263225
 30
0.0
 10
132.2439876422841
 20
136.8165682564536
 30
0.0
 10
132.3081343285135
 20
136.0992731577552
 30
0.0
 10
132.2958472509119
 20
135.0185142866953
 30
0.0
 10
132.2735324189081
 20
134.6574526114044
 30
0.0
 10
132.1912758881225
 20
133.933658870038
 30
0.0
 10
132.1315687018749
 20
133.5743127231095
 30
0.0
 10
131.900412434627
 20
132.5164809248688
 30
0.0
 10
131.6768531459181
 20
131.8326029062793
 30
0.0
 10
131.2368251480421
 20
130.839001110356
 30
0.0
 10
131.0717591120968
 20
130.5120496689177
 30
0.0
 10
130.7120319671371
 20
129.8811572525202
 30
0.0
 10
130.5169510963641
 20
129.5759302747535
 30
0.0
 10
129.8865994746819
 20
128.6905973129231
 30
0.0
 10
129.4027669818865
 20
128.1386446654126
 30
0.0
 10
128.3524476702338
 20
127.1554414608613
 30
0.0
 10
127.782748641789
 20
126.7184019751137
 30
0.0
 10
126.8611572190226
 20
126.1455918080653
 30
0.0
 10
126.5433040934757
 20
125.9691899239922
 30
0.0
 10
125.8992020181976
 20
125.6515965757324
 30
0.0
 10
125.5712997664277
 20
125.5093326203571
 30
0.0
 10
124.9041421427384
 20
125.2571294123672
 30
0.0
 10
124.5648862325207
 20
125.1471912928213
 30
0.0
 10
123.8750308649408
 20
124.9598048191053
 30
0.0
 10
123.5225230285744
 20
124.8820922380572
 30
0.0
 10
122.4647395222911
 20
124.7018781865023
 30
0.0
 10
121.7591967788204
 20
124.6508044936513
 30
0.0
 10
120.3475353949952
 20
124.6813627887431
 30
0.0
 10
119.6354589537373
 20
124.7651369445226
 30
0.0
 10
118.2614206989792
 20
125.0608074877346
 30
0.0
 10
117.5946104564665
 20
125.2716851288196
 30
0.0
 10
116.6241975467334
 20
125.6832651163824
 30
0.0
 10
116.3042868662594
 20
125.837334112911
 30
0.0
 10
115.6857904859949
 20
126.1726384257083
 30
0.0
 10
115.3863203819048
 20
126.3540662152455
 30
0.0
 10
114.5165561952139
 20
126.9391320070436
 30
0.0
 10
113.9746153993625
 20
127.3831188165261
 30
0.0
 10
113.2209347895264
 20
128.1353085655365
 30
0.0
 10
112.9815264680272
 20
128.3988807414545
 30
0.0
 10
112.5325854016969
 20
128.9443036055599
 30
0.0
 10
112.3219875414092
 20
129.2271975816588
 30
0.0
 10
111.9285271141818
 20
129.8135091019113
 30
0.0
 10
111.7456623813119
 20
130.1169247648587
 30
0.0
 10
111.4085106536836
 20
130.7450581389206
 30
0.0
 10
111.253433829902
 20
131.0717763937482
 30
0.0
 10
110.8400038420836
 20
132.0704816636028
 30
0.0
 10
110.6339393384929
 20
132.7558232825668
 30
0.0
 10
110.4284852215454
 20
133.8131773273557
 30
0.0
 10
110.3773996952413
 20
134.1705527907279
 30
0.0
 10
110.3115312868457
 20
134.895597674427
 30
0.0
 10
110.2972224554174
 20
135.2602333230956
 30
0.0
 10
110.3095159770553
 20
136.3433690100656
 30
0.0
 10
110.3901050796059
 20
137.0581155943843
 30
0.0
 10
110.6201476522758
 20
138.1191956787974
 30
0.0
 10
110.7155988765856
 20
138.4715883621479
 30
0.0
 10
110.9385405024167
 20
139.1560391044603
 30
0.0
 10
111.0664010168999
 20
139.4902488099208
 30
0.0
 10
111.3539736414873
 20
140.1431682793297
 30
0.0
 10
111.5136878214228
 20
140.4618768927103
 30
0.0
 10
111.8650282811716
 20
141.0838589520724
 30
0.0
 10
112.0576305813988
 20
141.388358968211
 30
0.0
 10
112.6740731106214
 20
142.2637646813625
 30
0.0
 10
113.1376454541255
 20
142.8006287434808
 30
0.0
 10
113.6523464703324
 20
143.2911491578325
 30
0.0
  0
SPLINE
  5
BF
330
1B
100
AcDbEntity
 67
     1
  8
0
  6
Continuous
 62
     7
370
    25
100
AcDbSpline
210
0.0
220
0.0
230
1.0
 70
    11
 71
     3
 72
    99
 73
    95
 74
     0
 42
0.000000001
 43
0.00000001
 40
0.0
 40
0.0
 40
0.0
 40
0.0
 40
0.0312500000000001
 40
0.0312500000000001
 40
0.0468750000000002
 40
0.0468750000000002
 40
0.0625000000000004
 40
0.0625000000000004
 40
0.0937500000000007
 40
0.0937500000000007
 40
0.109375000000001
 40
0.109375000000001
 40
0.1250000000000012
 40
0.1250000000000012
 40
0.1562500000000016
 40
0.1562500000000016
 40
0.1718750000000018
 40
0.1718750000000018
 40
0.1875000000000021
 40
0.1875000000000021
 40
0.2031250000000023
 40
0.2031250000000023
 40
0.2187500000000025
 40
0.2187500000000025
 40
0.2500000000000029
 40
0.2500000000000029
 40
0.2656250000000031
 40
0.2656250000000031
 40
0.2812500000000033
 40
0.2812500000000033
 40
0.3125000000000038
 40
0.3125000000000038
 40
0.3437500000000042
 40
0.3437500000000042
 40
0.3593750000000043
 40
0.3593750000000043
 40
0.3750000000000045
 40
0.3750000000000045
 40
0.4062500000000047
 40
0.4062500000000047
 40
0.4218750000000048
 40
0.4218750000000048
 40
0.4375000000000049
 40
0.4375000000000049
 40
0.4687500000000049
 40
0.4687500000000049
 40
0.4843750000000048
 40
0.4843750000000048
 40
0.5000000000000048
 40
0.5000000000000048
 40
0.5312500000000047
 40
0.5312500000000047
 40
0.5625000000000044
 40
0.5625000000000044
 40
0.5781250000000044
 40
0.5781250000000044
 40
0.5937500000000043
 40
0.6093750000000042
 40
0.6093750000000042
 40
0.6250000000000042
 40
0.6250000000000042
 40
0.656250000000004
 40
0.656250000000004
 40
0.6718750000000039
 40
0.6718750000000039
 40
0.6875000000000039
 40
0.6875000000000039
 40
0.7187500000000037
 40
0.7187500000000037
 40
0.7343750000000037
 40
0.7343750000000037
 40
0.7500000000000036
 40
0.7500000000000036
 40
0.7812500000000033
 40
0.7812500000000033
 40
0.812500000000003
 40
0.812500000000003
 40
0.8281250000000029
 40
0.8281250000000029
 40
0.8437500000000027
 40
0.8437500000000027
 40
0.8750000000000023
 40
0.8750000000000023
 40
0.8906250000000021
 40
0.8906250000000021
 40
0.9062500000000019
 40
0.9062500000000019
 40
0.9375000000000013
 40
0.9375000000000013
 40
0.953125000000001
 40
0.953125000000001
 40
0.9687500000000007
 40
0.9687500000000007
 40
1.0
 40
1.0
 40
1.0
 40
1.0
 10
-7.800782590826927
 20
21.83753225093405
 30
0.0
 10
-7.310780312762326
 20
22.35300865863343
 30
0.0
 10
-6.777330553725286
 20
22.81435594115702
 30
0.0
 10
-5.912034862278148
 20
23.42665409951006
 30
0.0
 10
-5.612671539401662
 20
23.61736805720845
 30
0.0
 10
-4.991086425946166
 20
23.97102239103485
 30
0.0
 10
-4.667716187748964
 20
24.13424873138215
 30
0.0
 10
-3.684984666504805
 20
24.56988133413898
 30
0.0
 10
-3.00653932470759
 20
24.79307372185686
 30
0.0
 10
-1.95312124471636
 20
25.02554589191777
 30
0.0
 10
-1.594590286299748
 20
25.08601391855742
 30
0.0
 10
-0.8710158202859669
 20
25.1700354231434
 30
0.0
 10
-0.5100129122051835
 20
25.19326888076132
 30
0.0
 10
0.5707151784547435
 20
25.20841724124252
 30
0.0
 10
1.28818121642349
 20
25.14631940264358
 30
0.0
 10
2.35974137514609
 20
24.94198797045302
 30
0.0
 10
2.712581301284968
 20
24.8557350826003
 30
0.0
 10
3.401344048960704
 20
24.65035178733452
 30
0.0
 10
3.738655765364435
 20
24.53096179262365
 30
0.0
 10
4.399482962687981
 20
24.25944461395978
 30
0.0
 10
4.722998031581115
 20
24.10731676164708
 30
0.0
 10
5.356167446059768
 20
23.7699817173522
 30
0.0
 10
5.665380276899615
 20
23.58472883544903
 30
0.0
 10
6.552552865303221
 20
22.99201694871064
 30
0.0
 10
7.097577113551964
 20
22.54439757861284
 30
0.0
 10
7.848066286686793
 20
21.79582826806509
 30
0.0
 10
8.087995535973697
 20
21.53196503856168
 30
0.0
 10
8.537054120713567
 20
20.9872919319212
 30
0.0
 10
8.746885658390907
 20
20.70603406211885
 30
0.0
 10
9.33379170414956
 20
19.83610153503432
 30
0.0
 10
9.66869192330476
 20
19.22152018471574
 30
0.0
 10
10.2234317429376
 20
17.92014365131303
 30
0.0
 10
10.43561449610542
 20
17.25065786265371
 30
0.0
 10
10.65796808701935
 20
16.22408885241623
 30
0.0
 10
10.71610916013816
 20
15.87784864114283
 30
0.0
 10
10.79973697006061
 20
15.17701420243356
 30
0.0
 10
10.82521786397336
 20
14.82048183167724
 30
0.0
 10
10.85006332545883
 20
13.75454943077653
 30
0.0
 10
10.79922130621117
 20
13.04957420843221
 30
0.0
 10
10.62248787968086
 20
12.00059809503903
 30
0.0
 10
10.54671854610973
 20
11.65236688528196
 30
0.0
 10
10.36013128908887
 20
10.95893026490852
 30
0.0
 10
10.24925384229143
 20
10.61442777187843
 30
0.0
 10
9.870875561222732
 20
9.608568426864043
 30
0.0
 10
9.556166144839603
 20
8.966906893719262
 30
0.0
 10
8.9888350679901
 20
8.049042790601119
 30
0.0
 10
8.782711290050056
 20
7.749278461366596
 30
0.0
 10
8.34210347089993
 20
7.172342248921729
 30
0.0
 10
8.108430815861697
 20
6.895919923582349
 30
0.0
 10
7.36756991952009
 20
6.10267498071064
 30
0.0
 10
6.81518609228797
 20
5.618388264767765
 30
0.0
 10
5.640388835209357
 20
4.780212515190216
 30
0.0
 10
5.016040411752763
 20
4.422399005667585
 30
0.0
 10
4.023004060026578
 20
3.979690118177268
 30
0.0
 10
3.680960464510573
 20
3.847567994108514
 30
0.0
 10
2.992481124835484
 20
3.621161551196475
 30
0.0
 10
2.296685886575708
 20
3.430952141949883
 30
0.0
 10
1.586527394438118
 20
3.311845539107128
 30
0.0
 10
0.8691048429005157
 20
3.228710605762339
 30
0.0
 10
0.5052834502098924
 20
3.205118630348072
 30
0.0
 10
-0.587425216318209
 20
3.190664952971212
 30
0.0
 10
-1.30522800887966
 20
3.255077904144532
 30
0.0
 10
-2.366477429990778
 20
3.458918127315011
 30
0.0
 10
-2.717631789878702
 20
3.544870532335695
 30
0.0
 10
-3.41460278756723
 20
3.753788331604099
 30
0.0
 10
-3.758741808176487
 20
3.87648374441249
 30
0.0
 10
-4.760068721645943
 20
4.291454671642089
 30
0.0
 10
-5.393758877176552
 20
4.63223364646341
 30
0.0
 10
-6.293594576270892
 20
5.239164920477379
 30
0.0
 10
-6.586528476105413
 20
5.45892930480063
 30
0.0
 10
-7.143917291964029
 20
5.922579573326231
 30
0.0
 10
-7.409153548283497
 20
6.166722751274639
 30
0.0
 10
-8.165640028267882
 20
6.934929262574954
 30
0.0
 10
-8.618204319310887
 20
7.494681244545248
 30
0.0
 10
-9.415801885731899
 20
8.7100161272511
 30
0.0
 10
-9.747826750253902
 20
9.345648835048543
 30
0.0
 10
-10.15125517980531
 20
10.33815510930591
 30
0.0
 10
-10.26984566802924
 20
10.67555158144652
 30
0.0
 10
-10.47482516876584
 20
11.36357428253387
 30
0.0
 10
-10.56109204737523
 20
11.71470307568701
 30
0.0
 10
-10.76636233164031
 20
12.76556000671492
 30
0.0
 10
-10.83480238138771
 20
13.47003768246261
 30
0.0
 10
-10.83734775493396
 20
14.53235039097722
 30
0.0
 10
-10.82121971463063
 20
14.8890061178165
 30
0.0
 10
-10.7551879575648
 20
15.59627133862265
 30
0.0
 10
-10.70559844775042
 20
15.94545562503258
 30
0.0
 10
-10.50871522107214
 20
16.98019345246257
 30
0.0
 10
-10.31376500669119
 20
17.65303766860502
 30
0.0
 10
-9.923737260291755
 20
18.63696304127559
 30
0.0
 10
-9.777491336984946
 20
18.95976747045336
 30
0.0
 10
-9.458147899450529
 20
19.58391327416761
 30
0.0
 10
-9.284430264987646
 20
19.88690596952236
 30
0.0
 10
-8.72147464137099
 20
20.76914888251272
 30
0.0
 10
-8.290784868891517
 20
21.32205584323468
 30
0.0
 10
-7.800782590826927
 20
21.83753225093405
 30
0.0
  0
SPLINE
  5
C4
330
1B
100
AcDbEntity
 67
     1
  8
0
  6
Continuous
 62
     7
370
    25
100
AcDbSpline
210
0.0
220
0.0
230
1.0
 70
     8
 71
     3
 72
    14
 73
    10
 74
     0
 42
0.000000001
 43
0.00000001
 40
0.0
 40
0.0
 40
0.0
 40
0.0
 40
0.25
 40
0.25
 40
0.5
 40
0.5
 40
0.75
 40
0.75
 40
1.0
 40
1.0
 40
1.0
 40
1.0
 10
46.94405594405596
 20
86.49999999999999
 30
0.0
 10
47.00247578977583
 20
86.74644489893146
 30
0.0
 10
47.09330916913161
 20
86.98680031464724
 30
0.0
 10
47.33709506552273
 20
87.43191995865025
 30
0.0
 10
47.49274075481089
 20
87.64154589527075
 30
0.0
 10
47.85975296874853
 20
88.0083296208412
 30
0.0
 10
48.06454932029172
 20
88.16082752165421
 30
0.0
 10
48.51436450498473
 20
88.40747171842406
 30
0.0
 10
48.75355510107642
 20
88.49752421020655
 30
0.0
 10
49.00000000000001
 20
88.55594405594405
 30
0.0
  0
LINE
  5
C9
330
1B
100
AcDbEntity
 67
     1
  8
0
  6
Continuous
 62
     7
370
    25
100
AcDbLine
 10
103.9
 20
67.0
 30
0.0
 11
135.5
 21
73.4290926618
 31
0.0
  0
LINE
  5
CA
330
1B
100
AcDbEntity
 67
     1
  8
0
  6
Continuous
 62
     7
370
    25
100
AcDbLine
 10
135.5
 20
197.5709073382
 30
0.0
 11
103.9
 21
204.0
 31
0.0
  0
LINE
  5
CB
330
1B
100
AcDbEntity
 67
     1
  8
0
  6
Continuous
 62
     7
370
    25
100
AcDbLine
 10
-68.5
 20
31.6
 30
0.0
 11
-62.0709073382
 21
0.0
 31
0.0
  0
LINE
  5
CC
330
1B
100
AcDbEntity
 67
     1
  8
0
  6
Continuous
 62
     7
370
    25
100
AcDbLine
 10
62.0709073382
 20
0.0
 30
0.0
 11
68.5
 21
31.6
 31
0.0
  0
LINE
  5
CD
330
1B
100
AcDbEntity
 67
     1
  8
0
  6
Continuous
 62
     7
370
    25
100
AcDbLine
 10
103.9
 20
204.0
 30
0.0
 11
49.0
 21
204.0
 31
0.0
  0
LINE
  5
CE
330
1B
100
AcDbEntity
 67
     1
  8
0
  6
Continuous
 62
     7
370
    25
100
AcDbLine
 10
71.5
 20
67.0
 30
0.0
 11
103.9
 21
67.0
 31
0.0
  0
LINE
  5
CF
330
1B
100
AcDbEntity
 67
     1
  8
0
  6
Continuous
 62
     7
370
    25
100
AcDbLine
 10
68.5
 20
31.6
 30
0.0
 11
68.5
 21
64.0
 31
0.0
  0
LINE
  5
D0
330
1B
100
AcDbEntity
 67
     1
  8
0
  6
Continuous
 62
     7
370
    25
100
AcDbLine
 10
-68.5
 20
86.5
 30
0.0
 11
-68.5
 21
31.6
 31
0.0
  0
LINE
  5
D1
330
1B
100
AcDbEntity
 67
     1
  8
0
  6
Continuous
 62
     7
370
    25
100
AcDbLine
 10
103.9
 20
67.0
 30
0.0
 11
103.9
 21
204.0
 31
0.0
  0
LINE
  5
D2
330
1B
100
AcDbEntity
 67
     1
  8
0
  6
Continuous
 62
     7
370
    25
100
AcDbLine
 10
135.5
 20
197.5709073382
 30
0.0
 11
135.5
 21
73.4290926618
 31
0.0
  0
LINE
  5
D3
330
1B
100
AcDbEntity
 67
     1
  8
0
  6
Continuous
 62
     7
370
    25
100
AcDbLine
 10
62.0709073382
 20
0.0
 30
0.0
 11
-62.0709073382
 21
0.0
 31
0.0
  0
LINE
  5
D4
330
1B
100
AcDbEntity
 67
     1
  8
0
  6
Continuous
 62
     7
370
    25
100
AcDbLine
 10
-68.5
 20
31.6
 30
0.0
 11
68.5
 21
31.6
 31
0.0
  0
LINE
  5
D5
330
1B
100
AcDbEntity
 67
     1
  8
0
  6
Continuous
 62
     8
370
    25
100
AcDbLine
 10
49.0
 20
88.5559440559
 30
0.0
 11
71.5
 21
67.0
 31
0.0
  0
LINE
  5
D6
330
1B
100
AcDbEntity
 67
     1
  8
0
  6
Continuous
 62
     8
370
    25
100
AcDbLine
 10
49.0
 20
204.0
 30
0.0
 11
49.0
 21
88.5559440559
 31
0.0
  0
LINE
  5
D7
330
1B
100
AcDbEntity
 67
     1
  8
0
  6
Continuous
 62
     8
370
    25
100
AcDbLine
 10
46.9440559441
 20
86.5
 30
0.0
 11
-68.5
 21
86.5
 31
0.0
  0
LINE
  5
D8
330
1B
100
AcDbEntity
 67
     1
  8
0
  6
Continuous
 62
     8
370
    25
100
AcDbLine
 10
68.5
 20
64.0
 30
0.0
 11
46.9440559441
 21
86.5
 31
0.0
  0
ARC
  5
D9
330
1B
100
AcDbEntity
 67
     1
  8
0
  6
Continuous
 62
     7
370
    25
100
AcDbCircle
 10
49.0
 20
86.5
 30
0.0
 40
117.4999999999999
100
AcDbArc
 50
90.0
 51
180.0
  0
ARC
  5
DA
330
1B
100
AcDbEntity
 67
     1
  8
0
  6
Continuous
 62
     7
370
    25
100
AcDbCircle
 10
71.5
 20
64.0
 30
0.0
 40
3.000000000000001
100
AcDbArc
 50
91.1586674224
 51
178.7732842987
  0
VIEWPORT
  5
101
330
1B
100
AcDbEntity
 67
     1
  8
0
100
AcDbViewport
 10
0.0
 20
0.0
 30
0.0
 40
205.6
 41
156.0
 68
     1
 69
     1
 12
33.5
 22
7.75
 13
0.0
 23
0.0
 14
10.0
 24
10.0
 15
10.0
 25
10.0
 16
0.0
 26
0.0
 36
1.0
 17
0.0
 27
0.0
 37
0.0
 42
50.0
 43
0.0
 44
0.0
 45
157.8817120623
 50
0.0
 51
0.0
 72
   100
 90
   557152
  1

281
     0
 71
     1
 74
     0
110
0.0
120
0.0
130
0.0
111
1.0
121
0.0
131
0.0
112
0.0
122
1.0
132
0.0
 79
     0
146
0.0
  0
ENDSEC
  0
SECTION
  2
OBJECTS
  0
DICTIONARY
  5
C
330
0
100
AcDbDictionary
281
     1
  3
ACAD_GROUP
350
D
  3
ACAD_LAYOUT
350
1A
  3
ACAD_MLINESTYLE
350
17
  3
ACAD_PLOTSETTINGS
350
19
  3
ACAD_PLOTSTYLENAME
350
E
  3
ACAD_SCALELIST
350
47
  0
DICTIONARY
  5
D
102
{ACAD_REACTORS
330
C
102
}
330
C
100
AcDbDictionary
281
     1
  0
DICTIONARY
  5
1A
102
{ACAD_REACTORS
330
C
102
}
330
C
100
AcDbDictionary
281
     1
  3
_Left
350
26
  3
_Top
350
1E
  3
Model
350
22
  0
DICTIONARY
  5
17
102
{ACAD_REACTORS
330
C
102
}
330
C
100
AcDbDictionary
281
     1
  3
Standard
350
18
  0
DICTIONARY
  5
19
102
{ACAD_REACTORS
330
C
102
}
330
C
100
AcDbDictionary
281
     1
  0
ACDBDICTIONARYWDFLT
  5
E
102
{ACAD_REACTORS
330
C
102
}
330
C
100
AcDbDictionary
281
     1
  3
Normal
350
F
100
AcDbDictionaryWithDefault
340
F
  0
DICTIONARY
  5
47
102
{ACAD_REACTORS
330
C
102
}
330
C
100
AcDbDictionary
281
     1
  3
A0
350
48
  3
A1
350
49
  3
A2
350
4A
  3
A3
350
4B
  3
A4
350
4C
  3
A5
350
4D
  3
A6
350
4E
  3
A7
350
4F
  3
A8
350
50
  3
A9
350
51
  3
B0
350
52
  3
B1
350
53
  3
B2
350
54
  3
B3
350
55
  3
B4
350
56
  3
B5
350
57
  3
B6
350
58
  3
B7
350
59
  3
B8
350
5A
  3
B9
350
5B
  3
C0
350
5C
  3
C1
350
5D
  3
C2
350
5E
  3
C3
350
5F
  3
C4
350
60
  3
C5
350
61
  3
C6
350
62
  3
C7
350
63
  3
C8
350
64
  3
C9
350
65
  3
D0
350
66
  3
D1
350
67
  3
D2
350
68
  0
LAYOUT
  5
26
102
{ACAD_REACTORS
330
1A
102
}
330
1A
100
AcDbPlotSettings
  1

  2
none_device
  4
ISO_A4_(210.00_x_297.00_MM)
  6

 40
7.5
 41
20.0
 42
7.5
 43
20.0
 44
210.0
 45
297.0
 46
0.0
 47
0.0
 48
0.0
 49
0.0
140
0.0
141
0.0
142
1.0
143
1.0461538462
 70
   688
 72
     1
 73
     1
 74
     1
  7

 75
     0
147
0.9558823529
148
68.5
149
0.0
100
AcDbLayout
  1
_Left
 70
     1
 71
     2
 10
0.0
 20
0.0
 11
0.0
 21
0.0
 12
0.0
 22
0.0
 32
0.0
 14
0.0
 24
0.0
 34
0.0
 15
0.0
 25
0.0
 35
0.0
146
0.0
 13
0.0
 23
0.0
 33
0.0
 16
1.0
 26
0.0
 36
0.0
 17
0.0
 27
1.0
 37
0.0
 76
     0
330
23
331
103
  0
LAYOUT
  5
1E
102
{ACAD_REACTORS
330
1A
102
}
330
1A
100
AcDbPlotSettings
  1

  2
none_device
  4
ISO_A4_(210.00_x_297.00_MM)
  6

 40
7.5
 41
20.0
 42
7.5
 43
20.0
 44
210.0
 45
297.0
 46
0.0
 47
0.0
 48
0.0
 49
0.0
140
0.0
141
0.0
142
1.0
143
1.0461538462
 70
   688
 72
     1
 73
     1
 74
     1
  7

 75
     0
147
0.9558823529
148
68.5
149
0.0
100
AcDbLayout
  1
_Top
 70
     1
 71
     1
 10
-89.4230769231
 20
-7.8461538462
 11
221.2846153846
 21
211.8461538462
 12
0.0
 22
0.0
 32
0.0
 14
-68.5
 24
0.0
 34
0.0
 15
135.5
 25
204.0
 35
0.0
146
0.0
 13
0.0
 23
0.0
 33
0.0
 16
1.0
 26
0.0
 36
0.0
 17
0.0
 27
1.0
 37
0.0
 76
     0
330
1B
331
101
  0
LAYOUT
  5
22
102
{ACAD_REACTORS
330
1A
102
}
330
1A
100
AcDbPlotSettings
  1

  2
none_device
  4
ANSI_A_(11.00_x_8.50_Inches)
  6

 40
6.35
 41
19.05
 42
6.35000508
 43
19.05000254
 44
279.4
 45
215.9
 46
87.9269533424
 47
78.3916825535
 48
0.0
 49
0.0
140
0.0
141
0.0
142
0.0533823529
143
1.0
 70
  1696
 72
     0
 73
     0
 74
     0
  7

 75
     0
147
0.0179189148
148
-1300.4909072572
149
0.0
100
AcDbLayout
  1
Model
 70
     1
 71
     0
 10
0.0
 20
0.0
 11
420.0
 21
297.0
 12
0.0
 22
0.0
 32
0.0
 14
-68.5
 24
-68.5
 34
0.0
 15
135.5
 25
84.0
 35
0.0
146
0.0
 13
0.0
 23
0.0
 33
0.0
 16
1.0
 26
0.0
 36
0.0
 17
0.0
 27
1.0
 37
0.0
 76
     0
330
1F
331
29
  0
MLINESTYLE
  5
18
102
{ACAD_REACTORS
330
17
102
}
330
17
100
AcDbMlineStyle
  2
Standard
 70
     0
  3

 62
   256
 51
90.0
 52
90.0
 71
     2
 49
0.5
 62
   256
  6
BYLAYER
 49
-0.5
 62
   256
  6
BYLAYER
  0
ACDBPLACEHOLDER
  5
F
102
{ACAD_REACTORS
330
E
102
}
330
E
  0
SCALE
  5
48
102
{ACAD_REACTORS
330
47
102
}
330
47
100
AcDbScale
 70
     0
300
1:1
140
1.0
141
1.0
290
     1
  0
SCALE
  5
49
102
{ACAD_REACTORS
330
47
102
}
330
47
100
AcDbScale
 70
     0
300
1:2
140
1.0
141
2.0
290
     0
  0
SCALE
  5
4A
102
{ACAD_REACTORS
330
47
102
}
330
47
100
AcDbScale
 70
     0
300
1:4
140
1.0
141
4.0
290
     0
  0
SCALE
  5
4B
102
{ACAD_REACTORS
330
47
102
}
330
47
100
AcDbScale
 70
     0
300
1:5
140
1.0
141
5.0
290
     0
  0
SCALE
  5
4C
102
{ACAD_REACTORS
330
47
102
}
330
47
100
AcDbScale
 70
     0
300
1:8
140
1.0
141
8.0
290
     0
  0
SCALE
  5
4D
102
{ACAD_REACTORS
330
47
102
}
330
47
100
AcDbScale
 70
     0
300
1:10
140
1.0
141
10.0
290
     0
  0
SCALE
  5
4E
102
{ACAD_REACTORS
330
47
102
}
330
47
100
AcDbScale
 70
     0
300
1:16
140
1.0
141
16.0
290
     0
  0
SCALE
  5
4F
102
{ACAD_REACTORS
330
47
102
}
330
47
100
AcDbScale
 70
     0
300
1:20
140
1.0
141
20.0
290
     0
  0
SCALE
  5
50
102
{ACAD_REACTORS
330
47
102
}
330
47
100
AcDbScale
 70
     0
300
1:30
140
1.0
141
30.0
290
     0
  0
SCALE
  5
51
102
{ACAD_REACTORS
330
47
102
}
330
47
100
AcDbScale
 70
     0
300
1:40
140
1.0
141
40.0
290
     0
  0
SCALE
  5
52
102
{ACAD_REACTORS
330
47
102
}
330
47
100
AcDbScale
 70
     0
300
1:50
140
1.0
141
50.0
290
     0
  0
SCALE
  5
53
102
{ACAD_REACTORS
330
47
102
}
330
47
100
AcDbScale
 70
     0
300
1:100
140
1.0
141
100.0
290
     0
  0
SCALE
  5
54
102
{ACAD_REACTORS
330
47
102
}
330
47
100
AcDbScale
 70
     0
300
2:1
140
2.0
141
1.0
290
     0
  0
SCALE
  5
55
102
{ACAD_REACTORS
330
47
102
}
330
47
100
AcDbScale
 70
     0
300
4:1
140
4.0
141
1.0
290
     0
  0
SCALE
  5
56
102
{ACAD_REACTORS
330
47
102
}
330
47
100
AcDbScale
 70
     0
300
8:1
140
8.0
141
1.0
290
     0
  0
SCALE
  5
57
102
{ACAD_REACTORS
330
47
102
}
330
47
100
AcDbScale
 70
     0
300
10:1
140
10.0
141
1.0
290
     0
  0
SCALE
  5
58
102
{ACAD_REACTORS
330
47
102
}
330
47
100
AcDbScale
 70
     0
300
100:1
140
100.0
141
1.0
290
     0
  0
SCALE
  5
59
102
{ACAD_REACTORS
330
47
102
}
330
47
100
AcDbScale
 70
     0
300
1/128" = 1'-0"
140
0.0078125
141
12.0
290
     0
  0
SCALE
  5
5A
102
{ACAD_REACTORS
330
47
102
}
330
47
100
AcDbScale
 70
     0
300
1/64" = 1'-0"
140
0.015625
141
12.0
290
     0
  0
SCALE
  5
5B
102
{ACAD_REACTORS
330
47
102
}
330
47
100
AcDbScale
 70
     0
300
1/32" = 1'-0"
140
0.03125
141
12.0
290
     0
  0
SCALE
  5
5C
102
{ACAD_REACTORS
330
47
102
}
330
47
100
AcDbScale
 70
     0
300
1/16" = 1'-0"
140
0.0625
141
12.0
290
     0
  0
SCALE
  5
5D
102
{ACAD_REACTORS
330
47
102
}
330
47
100
AcDbScale
 70
     0
300
3/32" = 1'-0"
140
0.09375
141
12.0
290
     0
  0
SCALE
  5
5E
102
{ACAD_REACTORS
330
47
102
}
330
47
100
AcDbScale
 70
     0
300
1/8" = 1'-0"
140
0.125
141
12.0
290
     0
  0
SCALE
  5
5F
102
{ACAD_REACTORS
330
47
102
}
330
47
100
AcDbScale
 70
     0
300
3/16" = 1'-0"
140
0.1875
141
12.0
290
     0
  0
SCALE
  5
60
102
{ACAD_REACTORS
330
47
102
}
330
47
100
AcDbScale
 70
     0
300
1/4" = 1'-0"
140
0.25
141
12.0
290
     0
  0
SCALE
  5
61
102
{ACAD_REACTORS
330
47
102
}
330
47
100
AcDbScale
 70
     0
300
3/8" = 1'-0"
140
0.375
141
12.0
290
     0
  0
SCALE
  5
62
102
{ACAD_REACTORS
330
47
102
}
330
47
100
AcDbScale
 70
     0
300
1/2" = 1'-0"
140
0.5
141
12.0
290
     0
  0
SCALE
  5
63
102
{ACAD_REACTORS
330
47
102
}
330
47
100
AcDbScale
 70
     0
300
3/4" = 1'-0"
140
0.75
141
12.0
290
     0
  0
SCALE
  5
64
102
{ACAD_REACTORS
330
47
102
}
330
47
100
AcDbScale
 70
     0
300
1" = 1'-0"
140
1.0
141
12.0
290
     0
  0
SCALE
  5
65
102
{ACAD_REACTORS
330
47
102
}
330
47
100
AcDbScale
 70
     0
300
1-1/2" = 1'-0"
140
1.5
141
12.0
290
     0
  0
SCALE
  5
66
102
{ACAD_REACTORS
330
47
102
}
330
47
100
AcDbScale
 70
     0
300
3" = 1'-0"
140
3.0
141
12.0
290
     0
  0
SCALE
  5
67
102
{ACAD_REACTORS
330
47
102
}
330
47
100
AcDbScale
 70
     0
300
6" = 1'-0"
140
6.0
141
12.0
290
     0
  0
SCALE
  5
68
102
{ACAD_REACTORS
330
47
102
}
330
47
100
AcDbScale
 70
     0
300
1'-0" = 1'-0"
140
12.0
141
12.0
290
     0
  0
ENDSEC
  0
EOF
