  0
SECTION
  2
HEADER
  9
$ACADVER
  1
AC1015
  9
$ACADMAINTVER
 70
     6
  9
$DWGCODEPAGE
  3
ANSI_1252
  9
$INSBASE
 10
0.0
 20
0.0
 30
0.0
  9
$EXTMIN
 10
0.0
 20
-45.65
 30
0.0
  9
$EXTMAX
 10
120.0
 20
62.7163765199
 30
0.0
  9
$LIMMIN
 10
0.0
 20
0.0
  9
$LIMMAX
 10
420.0
 20
297.0
  9
$ORTHOMODE
 70
     0
  9
$REGENMODE
 70
     1
  9
$FILLMODE
 70
     1
  9
$QTEXTMODE
 70
     0
  9
$MIRRTEXT
 70
     1
  9
$LTSCALE
 40
1.0
  9
$ATTMODE
 70
     1
  9
$TEXTSIZE
 40
6.35
  9
$TRACEWID
 40
1.0
  9
$TEXTSTYLE
  7
Standard
  9
$CLAYER
  8
0
  9
$CELTYPE
  6
ByLayer
  9
$CECOLOR
 62
   256
  9
$CELTSCALE
 40
1.0
  9
$DISPSILH
 70
     0
  9
$DIMSCALE
 40
1.0
  9
$DIMASZ
 40
5.9944
  9
$DIMEXO
 40
0.9906
  9
$DIMDLI
 40
3.75
  9
$DIMRND
 40
0.0
  9
$DIMDLE
 40
0.0
  9
$DIMEXE
 40
0.9906
  9
$DIMTP
 40
0.0
  9
$DIMTM
 40
0.0
  9
$DIMTXT
 40
6.35
  9
$DIMCEN
 40
2.5
  9
$DIMTSZ
 40
0.0
  9
$DIMTOL
 70
     0
  9
$DIMLIM
 70
     0
  9
$DIMTIH
 70
     1
  9
$DIMTOH
 70
     1
  9
$DIMSE1
 70
     0
  9
$DIMSE2
 70
     0
  9
$DIMTAD
 70
     1
  9
$DIMZIN
 70
     0
  9
$DIMBLK
  1

  9
$DIMASO
 70
     1
  9
$DIMSHO
 70
     1
  9
$DIMPOST
  1

  9
$DIMAPOST
  1

  9
$DIMALT
 70
     0
  9
$DIMALTD
 70
     3
  9
$DIMALTF
 40
0.0393700787
  9
$DIMLFAC
 40
1.0
  9
$DIMTOFL
 70
     1
  9
$DIMTVP
 40
0.0
  9
$DIMTIX
 70
     0
  9
$DIMSOXD
 70
     0
  9
$DIMSAH
 70
     0
  9
$DIMBLK1
  1

  9
$DIMBLK2
  1

  9
$DIMSTYLE
  2
ISO-25
  9
$DIMCLRD
 70
     0
  9
$DIMCLRE
 70
     0
  9
$DIMCLRT
 70
     0
  9
$DIMTFAC
 40
1.0
  9
$DIMGAP
 40
1.524
  9
$DIMJUST
 70
     0
  9
$DIMSD1
 70
     0
  9
$DIMSD2
 70
     0
  9
$DIMTOLJ
 70
     0
  9
$DIMTZIN
 70
     0
  9
$DIMALTZ
 70
     0
  9
$DIMALTTZ
 70
     0
  9
$DIMUPT
 70
     0
  9
$DIMDEC
 70
     2
  9
$DIMTDEC
 70
     2
  9
$DIMALTU
 70
     2
  9
$DIMALTTD
 70
     3
  9
$DIMTXSTY
  7
Standard
  9
$DIMAUNIT
 70
     0
  9
$DIMADEC
 70
     2
  9
$DIMALTRND
 40
0.0
  9
$DIMAZIN
 70
     0
  9
$DIMDSEP
 70
    44
  9
$DIMATFIT
 70
     3
  9
$DIMFRAC
 70
     0
  9
$DIMLDRBLK
  1

  9
$DIMLUNIT
 70
     2
  9
$DIMLWD
 70
    -2
  9
$DIMLWE
 70
    -2
  9
$DIMTMOVE
 70
     0
  9
$LUNITS
 70
     2
  9
$LUPREC
 70
     2
  9
$SKETCHINC
 40
1.0
  9
$FILLETRAD
 40
10.0
  9
$AUNITS
 70
     0
  9
$AUPREC
 70
     2
  9
$MENU
  1
.
  9
$ELEVATION
 40
0.0
  9
$PELEVATION
 40
0.0
  9
$THICKNESS
 40
0.0
  9
$LIMCHECK
 70
     0
  9
$CHAMFERA
 40
0.0
  9
$CHAMFERB
 40
0.0
  9
$CHAMFERC
 40
0.0
  9
$CHAMFERD
 40
0.0
  9
$SKPOLY
 70
     0
  9
$TDCREATE
 40
2458381.629472234
  9
$TDUCREATE
 40
2458381.587805567
  9
$TDUPDATE
 40
2458381.62950419
  9
$TDUUPDATE
 40
2458381.587837523
  9
$TDINDWG
 40
0.0000000116
  9
$TDUSRTIMER
 40
0.0000000116
  9
$USRTIMER
 70
     1
  9
$ANGBASE
 50
0.0
  9
$ANGDIR
 70
     0
  9
$PDMODE
 70
     0
  9
$PDSIZE
 40
-1.0
  9
$PLINEWID
 40
0.0
  9
$SPLFRAME
 70
     0
  9
$SPLINETYPE
 70
     6
  9
$SPLINESEGS
 70
     8
  9
$HANDSEED
  5
FC
  9
$SURFTAB1
 70
     6
  9
$SURFTAB2
 70
     6
  9
$SURFTYPE
 70
     6
  9
$SURFU
 70
     6
  9
$SURFV
 70
     6
  9
$UCSBASE
  2

  9
$UCSNAME
  2

  9
$UCSORG
 10
0.0
 20
0.0
 30
0.0
  9
$UCSXDIR
 10
1.0
 20
0.0
 30
0.0
  9
$UCSYDIR
 10
0.0
 20
1.0
 30
0.0
  9
$UCSORTHOREF
  2

  9
$UCSORTHOVIEW
 70
     0
  9
$UCSORGTOP
 10
0.0
 20
0.0
 30
0.0
  9
$UCSORGBOTTOM
 10
0.0
 20
0.0
 30
0.0
  9
$UCSORGLEFT
 10
0.0
 20
0.0
 30
0.0
  9
$UCSORGRIGHT
 10
0.0
 20
0.0
 30
0.0
  9
$UCSORGFRONT
 10
0.0
 20
0.0
 30
0.0
  9
$UCSORGBACK
 10
0.0
 20
0.0
 30
0.0
  9
$PUCSBASE
  2

  9
$PUCSNAME
  2

  9
$PUCSORG
 10
0.0
 20
0.0
 30
0.0
  9
$PUCSXDIR
 10
1.0
 20
0.0
 30
0.0
  9
$PUCSYDIR
 10
0.0
 20
1.0
 30
0.0
  9
$PUCSORTHOREF
  2

  9
$PUCSORTHOVIEW
 70
     0
  9
$PUCSORGTOP
 10
0.0
 20
0.0
 30
0.0
  9
$PUCSORGBOTTOM
 10
0.0
 20
0.0
 30
0.0
  9
$PUCSORGLEFT
 10
0.0
 20
0.0
 30
0.0
  9
$PUCSORGRIGHT
 10
0.0
 20
0.0
 30
0.0
  9
$PUCSORGFRONT
 10
0.0
 20
0.0
 30
0.0
  9
$PUCSORGBACK
 10
0.0
 20
0.0
 30
0.0
  9
$USERI1
 70
     0
  9
$USERI2
 70
     0
  9
$USERI3
 70
     0
  9
$USERI4
 70
     0
  9
$USERI5
 70
     0
  9
$USERR1
 40
0.0
  9
$USERR2
 40
0.0
  9
$USERR3
 40
0.0
  9
$USERR4
 40
0.0
  9
$USERR5
 40
0.0
  9
$WORLDVIEW
 70
     1
  9
$SHADEDGE
 70
     3
  9
$SHADEDIF
 70
    70
  9
$TILEMODE
 70
     1
  9
$MAXACTVP
 70
    64
  9
$PINSBASE
 10
0.0
 20
0.0
 30
0.0
  9
$PLIMCHECK
 70
     0
  9
$PEXTMIN
 10
-45.65
 20
-45.65
 30
0.0
  9
$PEXTMAX
 10
45.65
 20
62.7163765199
 30
0.0
  9
$PLIMMIN
 10
-56.7645001559
 20
-49.8179375585
  9
$PLIMMAX
 10
108.2858271591
 20
66.8843140784
  9
$UNITMODE
 70
     0
  9
$VISRETAIN
 70
     1
  9
$PLINEGEN
 70
     0
  9
$PSLTSCALE
 70
     1
  9
$TREEDEPTH
 70
  3020
  9
$CMLSTYLE
  2
Standard
  9
$CMLJUST
 70
     0
  9
$CMLSCALE
 40
20.0
  9
$PROXYGRAPHICS
 70
     1
  9
$MEASUREMENT
 70
     1
  9
$CELWEIGHT
370
    -1
  9
$ENDCAPS
280
     0
  9
$JOINSTYLE
280
     0
  9
$LWDISPLAY
290
     1
  9
$INSUNITS
 70
     4
  9
$HYPERLINKBASE
  1

  9
$STYLESHEET
  1

  9
$XEDIT
290
     1
  9
$CEPSNTYPE
380
     0
  9
$PSTYLEMODE
290
     1
  9
$FINGERPRINTGUID
  2
{1587D8FA-16E8-41E0-894A-681F91F292DE}
  9
$VERSIONGUID
  2
{FAEB1C32-E019-11D5-929B-00C0DF256EC4}
  9
$EXTNAMES
290
     1
  9
$PSVPSCALE
 40
0.0
  9
$OLESTARTUP
290
     0
  0
ENDSEC
  0
SECTION
  2
CLASSES
  0
CLASS
  1
ACDBDICTIONARYWDFLT
  2
AcDbDictionaryWithDefault
  3
ObjectDBX Classes
 90
        0
280
     0
281
     0
  0
CLASS
  1
VISUALSTYLE
  2
AcDbVisualStyle
  3
ObjectDBX Classes
 90
     4095
280
     0
281
     0
  0
CLASS
  1
MATERIAL
  2
AcDbMaterial
  3
ObjectDBX Classes
 90
     1153
280
     0
281
     0
  0
CLASS
  1
SCALE
  2
AcDbScale
  3
ObjectDBX Classes
 90
     1153
280
     0
281
     0
  0
CLASS
  1
TABLESTYLE
  2
AcDbTableStyle
  3
ObjectDBX Classes
 90
     4095
280
     0
281
     0
  0
CLASS
  1
MLEADERSTYLE
  2
AcDbMLeaderStyle
  3
ACDB_MLEADERSTYLE_CLASS
 90
     4095
280
     0
281
     0
  0
CLASS
  1
SUN
  2
AcDbSun
  3
SCENEOE
 90
     1153
280
     0
281
     0
  0
CLASS
  1
ACDBPLACEHOLDER
  2
AcDbPlaceHolder
  3
ObjectDBX Classes
 90
        0
280
     0
281
     0
  0
CLASS
  1
LAYOUT
  2
AcDbLayout
  3
ObjectDBX Classes
 90
        0
280
     0
281
     0
  0
ENDSEC
  0
SECTION
  2
TABLES
  0
TABLE
  2
VPORT
  5
8
330
0
100
AcDbSymbolTable
 70
     1
  0
VPORT
  5
29
330
8
100
AcDbSymbolTableRecord
100
AcDbViewportTableRecord
  2
*Active
 70
     0
 10
0.0
 20
0.0
 11
1.0
 21
1.0
 12
60.0
 22
8.53318826
 13
0.0
 23
0.0
 14
10.0
 24
10.0
 15
10.0
 25
10.0
 16
0.0
 26
0.0
 36
1.0
 17
0.0
 27
0.0
 37
0.0
 40
110.5337040503
 41
1.107354549
 42
50.0
 43
0.0
 44
0.0
 50
0.0
 51
0.0
 71
     0
 72
   100
 73
     1
 74
     3
 75
     0
 76
     0
 77
     0
 78
     0
281
     0
 65
     1
110
0.0
120
0.0
130
0.0
111
1.0
121
0.0
131
0.0
112
0.0
122
1.0
132
0.0
 79
     0
146
0.0
  0
ENDTAB
  0
TABLE
  2
LTYPE
  5
5
330
0
100
AcDbSymbolTable
 70
     6
  0
LTYPE
  5
14
330
5
100
AcDbSymbolTableRecord
100
AcDbLinetypeTableRecord
  2
ByBlock
 70
     0
  3

 72
    65
 73
     0
 40
0.0
  0
LTYPE
  5
15
330
5
100
AcDbSymbolTableRecord
100
AcDbLinetypeTableRecord
  2
ByLayer
 70
     0
  3

 72
    65
 73
     0
 40
0.0
  0
LTYPE
  5
16
330
5
100
AcDbSymbolTableRecord
100
AcDbLinetypeTableRecord
  2
Continuous
 70
     0
  3
Solid line
 72
    65
 73
     0
 40
0.0
  0
LTYPE
  5
6E
330
5
100
AcDbSymbolTableRecord
100
AcDbLinetypeTableRecord
  2
HIDDEN
 70
     0
  3
Hidden __ __ __ __ __ __ __ __ __ __ __ __ __ __
 72
    65
 73
     2
 40
1.905
 49
1.27
 74
     0
 49
-0.635
 74
     0
  0
LTYPE
  5
6F
330
5
100
AcDbSymbolTableRecord
100
AcDbLinetypeTableRecord
  2
PHANTOM
 70
     0
  3
Phantom ______  __  __  ______  __  __  ______
 72
    65
 73
     6
 40
12.7
 49
6.35
 74
     0
 49
-1.27
 74
     0
 49
1.27
 74
     0
 49
-1.27
 74
     0
 49
1.27
 74
     0
 49
-1.27
 74
     0
  0
LTYPE
  5
70
330
5
100
AcDbSymbolTableRecord
100
AcDbLinetypeTableRecord
  2
CENTER
 70
     0
  3
Center ____ _ ____ _ ____ _ ____ _ ____ _ ____
 72
    65
 73
     4
 40
10.16
 49
6.35
 74
     0
 49
-1.27
 74
     0
 49
1.27
 74
     0
 49
-1.27
 74
     0
  0
LTYPE
  5
71
330
5
100
AcDbSymbolTableRecord
100
AcDbLinetypeTableRecord
  2
CENTERX2
 70
     0
  3
Center (2x) ________  __  ________  __  _____
 72
    65
 73
     4
 40
20.32
 49
12.7
 74
     0
 49
-2.54
 74
     0
 49
2.54
 74
     0
 49
-2.54
 74
     0
  0
LTYPE
  5
72
330
5
100
AcDbSymbolTableRecord
100
AcDbLinetypeTableRecord
  2
DOT2
 70
     0
  3
Dot (.5x) ........................................
 72
    65
 73
     2
 40
0.635
 49
0.0
 74
     0
 49
-0.635
 74
     0
  0
ENDTAB
  0
TABLE
  2
LAYER
  5
2
330
0
100
AcDbSymbolTable
 70
     1
  0
LAYER
  5
10
330
2
100
AcDbSymbolTableRecord
100
AcDbLayerTableRecord
  2
0
 70
     0
 62
     7
  6
Continuous
370
    -3
390
F
  0
ENDTAB
  0
TABLE
  2
STYLE
  5
3
330
0
100
AcDbSymbolTable
 70
     1
  0
STYLE
  5
11
330
3
100
AcDbSymbolTableRecord
100
AcDbTextStyleTableRecord
  2
Standard
 70
     0
 40
0.0
 41
1.0
 50
0.0
 71
     0
 42
6.35
  3
txt
  4

  0
ENDTAB
  0
TABLE
  2
VIEW
  5
6
330
0
100
AcDbSymbolTable
 70
     0
  0
ENDTAB
  0
TABLE
  2
UCS
  5
7
330
0
100
AcDbSymbolTable
 70
     0
  0
ENDTAB
  0
TABLE
  2
APPID
  5
9
330
0
100
AcDbSymbolTable
 70
     1
  0
APPID
  5
12
330
9
100
AcDbSymbolTableRecord
100
AcDbRegAppTableRecord
  2
ACAD
 70
     0
  0
ENDTAB
  0
TABLE
  2
DIMSTYLE
  5
A
330
0
100
AcDbSymbolTable
 70
     1
100
AcDbDimStyleTable
  0
DIMSTYLE
105
27
330
A
100
AcDbSymbolTableRecord
100
AcDbDimStyleTableRecord
  2
ISO-25
 70
     0
 41
2.5
 42
0.625
 43
3.75
 44
1.25
 73
     0
 74
     0
 77
     1
 78
     8
140
2.5
141
2.5
143
0.0393700787
147
0.625
171
     3
172
     1
178
     0
271
     2
272
     2
274
     3
278
    44
283
     0
284
     8
340
11
  0
ENDTAB
  0
TABLE
  2
BLOCK_RECORD
  5
1
330
0
100
AcDbSymbolTable
 70
     1
  0
BLOCK_RECORD
  5
1F
330
1
100
AcDbSymbolTableRecord
100
AcDbBlockTableRecord
  2
*Model_Space
340
22
  0
BLOCK_RECORD
  5
1B
330
1
100
AcDbSymbolTableRecord
100
AcDbBlockTableRecord
  2
*Paper_Space
340
1E
  0
BLOCK_RECORD
  5
23
330
1
100
AcDbSymbolTableRecord
100
AcDbBlockTableRecord
  2
*Paper_Space0
340
26
  0
ENDTAB
  0
ENDSEC
  0
SECTION
  2
BLOCKS
  0
BLOCK
  5
20
330
1F
100
AcDbEntity
  8
0
100
AcDbBlockBegin
  2
*Model_Space
 70
     0
 10
0.0
 20
0.0
 30
0.0
  3
*Model_Space
  1

  0
ENDBLK
  5
21
330
1F
100
AcDbEntity
  8
0
100
AcDbBlockEnd
  0
BLOCK
  5
1C
330
1B
100
AcDbEntity
 67
     1
  8
0
100
AcDbBlockBegin
  2
*Paper_Space
 70
     0
 10
0.0
 20
0.0
 30
0.0
  3
*Paper_Space
  1

  0
ENDBLK
  5
1D
330
1B
100
AcDbEntity
 67
     1
  8
0
100
AcDbBlockEnd
  0
BLOCK
  5
24
330
23
100
AcDbEntity
  8
0
100
AcDbBlockBegin
  2
*Paper_Space0
 70
     0
 10
0.0
 20
0.0
 30
0.0
  3
*Paper_Space0
  1

  0
CIRCLE
  5
CE
330
23
100
AcDbEntity
  8
0
  6
Continuous
 62
     7
370
    25
100
AcDbCircle
 10
109.0
 20
0.0
 30
0.0
 40
4.999999999999924
  0
CIRCLE
  5
CF
330
23
100
AcDbEntity
  8
0
  6
Continuous
 62
     7
370
    25
100
AcDbCircle
 10
109.0
 20
0.0
 30
0.0
 40
7.500000000000246
  0
CIRCLE
  5
D0
330
23
100
AcDbEntity
  8
0
  6
Continuous
 62
     7
370
    25
100
AcDbCircle
 10
11.0
 20
0.0
 30
0.0
 40
7.500000000000282
  0
CIRCLE
  5
D1
330
23
100
AcDbEntity
  8
0
  6
Continuous
 62
     7
370
    25
100
AcDbCircle
 10
11.0
 20
0.0
 30
0.0
 40
4.999999999999901
  0
CIRCLE
  5
D2
330
23
100
AcDbEntity
  8
0
  6
Continuous
 62
     7
370
    25
100
AcDbCircle
 10
11.0
 20
0.0
 30
0.0
 40
1.852499999999809
  0
CIRCLE
  5
D3
330
23
100
AcDbEntity
  8
0
  6
Continuous
 62
     7
370
    25
100
AcDbCircle
 10
11.0
 20
0.0
 30
0.0
 40
2.352499999999759
  0
CIRCLE
  5
D4
330
23
100
AcDbEntity
  8
0
  6
Continuous
 62
     7
370
    25
100
AcDbCircle
 10
109.0
 20
0.0
 30
0.0
 40
2.352499999999754
  0
CIRCLE
  5
D5
330
23
100
AcDbEntity
  8
0
  6
Continuous
 62
     7
370
    25
100
AcDbCircle
 10
109.0
 20
0.0
 30
0.0
 40
1.852500000000017
  0
CIRCLE
  5
D6
330
23
100
AcDbEntity
  8
0
  6
Continuous
 62
     7
370
    25
100
AcDbCircle
 10
11.0
 20
0.0
 30
0.0
 40
2.552500000000179
  0
CIRCLE
  5
D7
330
23
100
AcDbEntity
  8
0
  6
Continuous
 62
     7
370
    25
100
AcDbCircle
 10
109.0
 20
0.0
 30
0.0
 40
2.552500000000202
  0
CIRCLE
  5
D8
330
23
100
AcDbEntity
  8
0
  6
Continuous
 62
     7
370
    25
100
AcDbCircle
 10
11.0
 20
0.0
 30
0.0
 40
2.799999999999688
  0
CIRCLE
  5
D9
330
23
100
AcDbEntity
  8
0
  6
Continuous
 62
     7
370
    25
100
AcDbCircle
 10
11.0
 20
0.0
 30
0.0
 40
3.000000000000114
  0
CIRCLE
  5
DA
330
23
100
AcDbEntity
  8
0
  6
Continuous
 62
     7
370
    25
100
AcDbCircle
 10
109.0
 20
0.0
 30
0.0
 40
3.000000000000112
  0
CIRCLE
  5
DB
330
23
100
AcDbEntity
  8
0
  6
Continuous
 62
     7
370
    25
100
AcDbCircle
 10
109.0
 20
0.0
 30
0.0
 40
2.799999999999666
  0
SPLINE
  5
DC
330
23
100
AcDbEntity
  8
0
  6
Continuous
 62
     7
370
    25
100
AcDbSpline
210
0.0
220
0.0
230
1.0
 70
    11
 71
     3
 72
    99
 73
    95
 74
     0
 42
0.000000001
 43
0.00000001
 40
0.0
 40
0.0
 40
0.0
 40
0.0
 40
0.0312499999999999
 40
0.0312499999999999
 40
0.0624999999999999
 40
0.0624999999999999
 40
0.0781249999999998
 40
0.0781249999999998
 40
0.0937499999999998
 40
0.0937499999999998
 40
0.1249999999999998
 40
0.1249999999999998
 40
0.1562499999999999
 40
0.1562499999999999
 40
0.1718749999999999
 40
0.1718749999999999
 40
0.1874999999999999
 40
0.1874999999999999
 40
0.21875
 40
0.21875
 40
0.25
 40
0.25
 40
0.28125
 40
0.28125
 40
0.2968749999999999
 40
0.2968749999999999
 40
0.3124999999999999
 40
0.3124999999999999
 40
0.3281249999999999
 40
0.3281249999999999
 40
0.3437499999999999
 40
0.3437499999999999
 40
0.3749999999999997
 40
0.3749999999999997
 40
0.3906249999999997
 40
0.3906249999999997
 40
0.4062499999999997
 40
0.4062499999999997
 40
0.4374999999999996
 40
0.4374999999999996
 40
0.4531249999999997
 40
0.4531249999999997
 40
0.4687499999999997
 40
0.4687499999999997
 40
0.4843749999999997
 40
0.4843749999999997
 40
0.4999999999999998
 40
0.4999999999999998
 40
0.5312499999999996
 40
0.5312499999999996
 40
0.5468749999999996
 40
0.5468749999999996
 40
0.5624999999999996
 40
0.5781249999999996
 40
0.5781249999999996
 40
0.5937499999999994
 40
0.5937499999999994
 40
0.6249999999999994
 40
0.6249999999999994
 40
0.6406249999999993
 40
0.6406249999999993
 40
0.6562499999999993
 40
0.6562499999999993
 40
0.6874999999999994
 40
0.6874999999999994
 40
0.7031249999999993
 40
0.7031249999999993
 40
0.7187499999999993
 40
0.7187499999999993
 40
0.7499999999999993
 40
0.7499999999999993
 40
0.7656249999999994
 40
0.7656249999999994
 40
0.7812499999999996
 40
0.7812499999999996
 40
0.7968749999999997
 40
0.7968749999999997
 40
0.8124999999999997
 40
0.8124999999999997
 40
0.8437499999999998
 40
0.8437499999999998
 40
0.8749999999999998
 40
0.8749999999999998
 40
0.9062499999999999
 40
0.9062499999999999
 40
0.9218749999999999
 40
0.9218749999999999
 40
0.9375
 40
0.9375
 40
0.9531250000000001
 40
0.9531250000000001
 40
0.9687500000000001
 40
0.9687500000000001
 40
1.0
 40
1.0
 40
1.0
 40
1.0
 10
5.107458716909513
 20
5.907727630401244
 30
0.0
 10
5.507753969760387
 20
6.295327499483035
 30
0.0
 10
5.947401471298693
 20
6.643129422023843
 30
0.0
 10
6.874178691521758
 20
7.240563698272566
 30
0.0
 10
7.362689004577303
 20
7.492454431365577
 30
0.0
 10
8.133096207119383
 20
7.800123308205907
 30
0.0
 10
8.397560872118653
 20
7.891204245594502
 30
0.0
 10
8.929032042485318
 20
8.046042599617575
 30
0.0
 10
9.196798028431326
 20
8.110247490304625
 30
0.0
 10
10.0059989077995
 20
8.264260484667073
 30
0.0
 10
10.55361606124864
 20
8.315830293474612
 30
0.0
 10
11.66355232628663
 20
8.313486973912976
 30
0.0
 10
12.20883691135166
 20
8.259685600652581
 30
0.0
 10
13.0129973884601
 20
8.103529751787534
 30
0.0
 10
13.27874129983089
 20
8.038809210189926
 30
0.0
 10
13.80555721957739
 20
7.883505787181357
 30
0.0
 10
14.06698233620778
 20
7.792616936261703
 30
0.0
 10
14.82827512870726
 20
7.486491007736866
 30
0.0
 10
15.31082825813128
 20
7.23675930722159
 30
0.0
 10
16.22666067559749
 20
6.645741232445628
 30
0.0
 10
16.66121485341123
 20
6.301716119415521
 30
0.0
 10
17.4442839067372
 20
5.54702032858364
 30
0.0
 10
17.79783314474273
 20
5.133781926750848
 30
0.0
 10
18.2689797590577
 20
4.457165017737957
 30
0.0
 10
18.4159010804757
 20
4.221995959092172
 30
0.0
 10
18.6828699924183
 20
3.743085006045525
 30
0.0
 10
18.80387813529725
 20
3.498050090832185
 30
0.0
 10
19.0211193754618
 20
2.996843205111156
 30
0.0
 10
19.11735337047799
 20
2.740671727147797
 30
0.0
 10
19.28447542512417
 20
2.21688697157719
 30
0.0
 10
19.35565245453908
 20
1.947816258109446
 30
0.0
 10
19.52695656996328
 20
1.133122527763424
 30
0.0
 10
19.58461035552343
 20
0.586499071169709
 30
0.0
 10
19.58830596513061
 20
-0.2385646170223023
 30
0.0
 10
19.57563864813546
 20
-0.5144466275671025
 30
0.0
 10
19.52158300822431
 20
-1.067988356553249
 30
0.0
 10
19.48029851242904
 20
-1.343222015751623
 30
0.0
 10
19.31667213195968
 20
-2.153092044875251
 30
0.0
 10
19.15451557714155
 20
-2.676807386615212
 30
0.0
 10
18.83195185409167
 20
-3.438339402319362
 30
0.0
 10
18.7106631208875
 20
-3.688691101943374
 30
0.0
 10
18.44590974923069
 20
-4.171812628044213
 30
0.0
 10
18.30202046113737
 20
-4.405773061203577
 30
0.0
 10
17.99151551097571
 20
-4.858783881323068
 30
0.0
 10
17.82416333962587
 20
-5.078682643184852
 30
0.0
 10
17.46993693237454
 20
-5.499235097259546
 30
0.0
 10
17.283900279638
 20
-5.699095834023501
 30
0.0
 10
16.69994049158901
 20
-6.268747098092345
 30
0.0
 10
16.27641598107291
 20
-6.608892001335454
 30
0.0
 10
15.58874274468639
 20
-7.059420285067373
 30
0.0
 10
15.35090228689891
 20
-7.199244773625876
 30
0.0
 10
14.86761558154826
 20
-7.45306623463921
 30
0.0
 10
14.37430408068548
 20
-7.682727331898841
 30
0.0
 10
13.86112944302301
 20
-7.864932915890714
 30
0.0
 10
13.33783836107912
 20
-8.023145828517878
 30
0.0
 10
13.06999861009294
 20
-8.090474050255356
 30
0.0
 10
12.25860595317112
 20
-8.253448961735758
 30
0.0
 10
11.71429427344733
 20
-8.309528194388786
 30
0.0
 10
10.89277578893202
 20
-8.31674939929629
 30
0.0
 10
10.61809023457068
 20
-8.306249305643123
 30
0.0
 10
10.06697874008959
 20
-8.258647046014113
 30
0.0
 10
9.79042527252564
 20
-8.221334241583538
 30
0.0
 10
8.976188314627578
 20
-8.071550943528836
 30
0.0
 10
8.447689266154814
 20
-7.921266285765661
 30
0.0
 10
7.676646561247614
 20
-7.619725742861534
 30
0.0
 10
7.422081806113832
 20
-7.505812323803675
 30
0.0
 10
6.926524755371886
 20
-7.254330183928385
 30
0.0
 10
6.686602369212771
 20
-7.117471825176236
 30
0.0
 10
5.989861177447459
 20
-6.674287100021198
 30
0.0
 10
5.555840626288091
 20
-6.335674756387898
 30
0.0
 10
4.952423128798913
 20
-5.760209183269652
 30
0.0
 10
4.760760577255815
 20
-5.558282870604907
 30
0.0
 10
4.401312944741442
 20
-5.14010062782767
 30
0.0
 10
4.23267215645818
 20
-4.923043036890797
 30
0.0
 10
3.917442148735718
 20
-4.473044989560416
 30
0.0
 10
3.770851857210364
 20
-4.240105355136183
 30
0.0
 10
3.500268006242792
 20
-3.757920140114816
 30
0.0
 10
3.375777629112529
 20
-3.507300919275582
 30
0.0
 10
3.044525685165514
 20
-2.745736076132208
 30
0.0
 10
2.87729499431718
 20
-2.222330210775008
 30
0.0
 10
2.649293718401676
 20
-1.144256441103842
 30
0.0
 10
2.589543642731909
 20
-0.5848522601169702
 30
0.0
 10
2.584911605708298
 20
0.5164881269825212
 30
0.0
 10
2.638024010475408
 20
1.063746170356798
 30
0.0
 10
2.802457388594859
 20
1.879420237760535
 30
0.0
 10
2.871714594023938
 20
2.150374886404014
 30
0.0
 10
3.035464119016812
 20
2.677918508811614
 30
0.0
 10
3.130234892536152
 20
2.936149184695327
 30
0.0
 10
3.345041989594913
 20
3.441771082730334
 30
0.0
 10
3.465078996979003
 20
3.689161981983601
 30
0.0
 10
3.730651208650751
 20
4.173024942054638
 30
0.0
 10
3.876957971744664
 20
4.410565443452852
 30
0.0
 10
4.349310274105248
 20
5.097322780871993
 30
0.0
 10
4.707163464058639
 20
5.520127761319451
 30
0.0
 10
5.107458716909512
 20
5.907727630401242
 30
0.0
  0
SPLINE
  5
DD
330
23
100
AcDbEntity
  8
0
  6
Continuous
 62
     7
370
    25
100
AcDbSpline
210
0.0
220
0.0
230
1.0
 70
    11
 71
     3
 72
    93
 73
    89
 74
     0
 42
0.000000001
 43
0.00000001
 40
0.0
 40
0.0
 40
0.0
 40
0.0
 40
0.03125
 40
0.03125
 40
0.0624999999999999
 40
0.0624999999999999
 40
0.0937499999999999
 40
0.0937499999999999
 40
0.1093749999999994
 40
0.1093749999999994
 40
0.124999999999999
 40
0.124999999999999
 40
0.1562499999999982
 40
0.1562499999999982
 40
0.1718749999999978
 40
0.1718749999999978
 40
0.1874999999999974
 40
0.1874999999999974
 40
0.2031249999999971
 40
0.2031249999999971
 40
0.2187499999999967
 40
0.2187499999999967
 40
0.2499999999999965
 40
0.2499999999999965
 40
0.2812499999999963
 40
0.2812499999999963
 40
0.3124999999999962
 40
0.3124999999999962
 40
0.3281249999999961
 40
0.3281249999999961
 40
0.343749999999996
 40
0.3593749999999959
 40
0.3593749999999959
 40
0.3749999999999959
 40
0.3749999999999959
 40
0.4062499999999958
 40
0.4062499999999958
 40
0.4374999999999957
 40
0.4374999999999957
 40
0.4687499999999956
 40
0.4687499999999956
 40
0.4843749999999952
 40
0.4843749999999952
 40
0.4999999999999949
 40
0.4999999999999949
 40
0.531249999999995
 40
0.531249999999995
 40
0.562499999999995
 40
0.562499999999995
 40
0.5781249999999954
 40
0.5781249999999954
 40
0.5937499999999959
 40
0.5937499999999959
 40
0.6249999999999958
 40
0.6249999999999958
 40
0.6562499999999958
 40
0.6562499999999958
 40
0.6718749999999958
 40
0.6718749999999958
 40
0.6874999999999957
 40
0.6874999999999957
 40
0.7187499999999958
 40
0.7187499999999958
 40
0.7343749999999958
 40
0.7343749999999958
 40
0.7499999999999958
 40
0.7499999999999958
 40
0.7812499999999962
 40
0.7812499999999962
 40
0.7968749999999964
 40
0.7968749999999964
 40
0.8124999999999967
 40
0.8124999999999967
 40
0.8281249999999968
 40
0.8281249999999968
 40
0.843749999999997
 40
0.843749999999997
 40
0.8749999999999974
 40
0.8749999999999974
 40
0.9062499999999978
 40
0.9062499999999978
 40
0.9374999999999982
 40
0.9374999999999982
 40
0.9531249999999986
 40
0.9531249999999986
 40
0.9687499999999988
 40
0.9687499999999988
 40
1.0
 40
1.0
 40
1.0
 40
1.0
 10
103.1862228367445
 20
6.145920292636267
 30
0.0
 10
103.5972998509428
 20
6.512503633100534
 30
0.0
 10
104.0377459951195
 20
6.833692541344773
 30
0.0
 10
104.9755633595609
 20
7.389606346151618
 30
0.0
 10
105.4779935790425
 20
7.625507948587527
 30
0.0
 10
106.50637610054
 20
7.993280123445897
 30
0.0
 10
107.0345364645032
 20
8.127561778266763
 30
0.0
 10
107.8482084403014
 20
8.253947925896513
 30
0.0
 10
108.1245544654309
 20
8.283525886770862
 30
0.0
 10
108.6756837967793
 20
8.315910730290422
 30
0.0
 10
108.9504399216753
 20
8.318906312511183
 30
0.0
 10
109.7723377301347
 20
8.2891258206306
 30
0.0
 10
110.3171372594222
 20
8.217954753131195
 30
0.0
 10
111.1293526289473
 20
8.030852721075817
 30
0.0
 10
111.3972692983697
 20
7.955333858042141
 30
0.0
 10
111.920531720465
 20
7.780444827092182
 30
0.0
 10
112.1769747309404
 20
7.68083107501434
 30
0.0
 10
112.6795312661013
 20
7.457392795330236
 30
0.0
 10
112.9256452467758
 20
7.333569303437953
 30
0.0
 10
113.4072920619481
 20
7.061143240758075
 30
0.0
 10
113.6439342447056
 20
6.911662937823998
 30
0.0
 10
114.3240842948324
 20
6.433818654404171
 30
0.0
 10
114.7411250405546
 20
6.075275127495365
 30
0.0
 10
115.5027753821803
 20
5.278378282102415
 30
0.0
 10
115.8489312578993
 20
4.835787219176275
 30
0.0
 10
116.4371789353261
 20
3.905062310893242
 30
0.0
 10
116.6835265436563
 20
3.413634234834373
 30
0.0
 10
116.9790323829077
 20
2.635963691364037
 30
0.0
 10
117.0649266055503
 20
2.369776549600398
 30
0.0
 10
117.2076638376881
 20
1.836043403866504
 30
0.0
 10
117.3226248932979
 20
1.297904496087307
 30
0.0
 10
117.3827770476107
 20
0.7510631283845763
 30
0.0
 10
117.4150773788177
 20
0.1997971026980578
 30
0.0
 10
117.417197650271
 20
-0.0796620416010114
 30
0.0
 10
117.3805880868415
 20
-0.9120497288826241
 30
0.0
 10
117.3002317638651
 20
-1.456225940027904
 30
0.0
 10
117.0310264618767
 20
-2.523764894243667
 30
0.0
 10
116.8389408891599
 20
-3.052124108261181
 30
0.0
 10
116.3596638512513
 20
-4.044923713591527
 30
0.0
 10
116.0725990773005
 20
-4.513473750457111
 30
0.0
 10
115.5708127196427
 20
-5.174661828583912
 30
0.0
 10
115.3908121373677
 20
-5.388763564510099
 30
0.0
 10
115.0132520507743
 20
-5.794963425347817
 30
0.0
 10
114.8151342304751
 20
-5.987962208056082
 30
0.0
 10
114.1931446199251
 20
-6.537110239141636
 30
0.0
 10
113.737551213086
 20
-6.865473052537976
 30
0.0
 10
112.7843893113715
 20
-7.42074179784534
 30
0.0
 10
112.284622625773
 20
-7.65069564484739
 30
0.0
 10
111.5001219771656
 20
-7.923908582835688
 30
0.0
 10
111.2317612767566
 20
-8.003063418369527
 30
0.0
 10
110.6943357354683
 20
-8.133897227377469
 30
0.0
 10
110.4240962091918
 20
-8.186085080710784
 30
0.0
 10
109.6089315476369
 20
-8.30390420355584
 30
0.0
 10
109.0577582402922
 20
-8.3310643838363
 30
0.0
 10
107.9509756627809
 20
-8.279366890686068
 30
0.0
 10
107.4090930164494
 20
-8.201518042933756
 30
0.0
 10
106.6127057086433
 20
-8.009712167536236
 30
0.0
 10
106.350001020846
 20
-7.933179950186346
 30
0.0
 10
105.8301885214401
 20
-7.754311032023661
 30
0.0
 10
105.5734905728636
 20
-7.651936319105581
 30
0.0
 10
104.8274816500908
 20
-7.312324023868038
 30
0.0
 10
104.356627719597
 20
-7.04119770210254
 30
0.0
 10
103.689825749357
 20
-6.566723907702603
 30
0.0
 10
103.473133805761
 20
-6.396237881413971
 30
0.0
 10
103.059104579677
 20
-6.036299447502764
 30
0.0
 10
102.86223223999
 20
-5.847467825503442
 30
0.0
 10
102.3013591574549
 20
-5.254783493687256
 30
0.0
 10
101.9667932313152
 20
-4.825015170613769
 30
0.0
 10
101.5267012494861
 20
-4.125201095344349
 30
0.0
 10
101.3910739296276
 20
-3.883440146338585
 30
0.0
 10
101.146891178045
 20
-3.392209250172793
 30
0.0
 10
101.0375150538522
 20
-3.141482272099547
 30
0.0
 10
100.8440756593241
 20
-2.629804440036097
 30
0.0
 10
100.760011168077
 20
-2.368854148645197
 30
0.0
 10
100.6178431259223
 20
-1.836429203983794
 30
0.0
 10
100.5595071454995
 20
-1.56322240013493
 30
0.0
 10
100.4277604399268
 20
-0.7416239598396099
 30
0.0
 10
100.3965106516261
 20
-0.192656894501958
 30
0.0
 10
100.4448895907026
 20
0.9077002846972239
 30
0.0
 10
100.5267788403135
 20
1.464321430709178
 30
0.0
 10
100.7965558793517
 20
2.53121428578826
 30
0.0
 10
100.9836345451538
 20
3.04654306917996
 30
0.0
 10
101.3427079552267
 20
3.792521358970455
 30
0.0
 10
101.4756654308767
 20
4.036353189842075
 30
0.0
 10
101.7614471970629
 20
4.503720501068523
 30
0.0
 10
101.9149559123022
 20
4.728778052324351
 30
0.0
 10
102.4064589790009
 20
5.378952182279169
 30
0.0
 10
102.7751458225461
 20
5.779336952171984
 30
0.0
 10
103.1862228367445
 20
6.145920292636266
 30
0.0
  0
CIRCLE
  5
E0
330
23
100
AcDbEntity
  8
0
  6
Continuous
 62
     7
370
    25
100
AcDbCircle
 10
109.0
 20
0.0
 30
0.0
 40
3.830245019247311
  0
CIRCLE
  5
E1
330
23
100
AcDbEntity
  8
0
  6
Continuous
 62
     7
370
    25
100
AcDbCircle
 10
109.0
 20
0.0
 30
0.0
 40
4.007596123494331
  0
CIRCLE
  5
E2
330
23
100
AcDbEntity
  8
0
  6
Continuous
 62
     7
370
    25
100
AcDbCircle
 10
11.0
 20
0.0
 30
0.0
 40
3.83024501924734
  0
CIRCLE
  5
E3
330
23
100
AcDbEntity
  8
0
  6
Continuous
 62
     7
370
    25
100
AcDbCircle
 10
11.0
 20
0.0
 30
0.0
 40
4.007596123494219
  0
LINE
  5
E8
330
23
100
AcDbEntity
  8
0
  6
Continuous
 62
     7
370
    25
100
AcDbLine
 10
98.0
 20
-45.65
 30
0.0
 11
119.5435778714
 21
-43.7651811645
 31
0.0
  0
LINE
  5
E9
330
23
100
AcDbEntity
  8
0
  6
Continuous
 62
     7
370
    25
100
AcDbLine
 10
119.5435778714
 20
43.7651811645
 30
0.0
 11
98.0
 21
45.65
 31
0.0
  0
LINE
  5
EA
330
23
100
AcDbEntity
  8
0
  6
Continuous
 62
     7
370
    25
100
AcDbLine
 10
22.0
 20
45.65
 30
0.0
 11
0.4564221286
 21
43.7651811645
 31
0.0
  0
LINE
  5
EB
330
23
100
AcDbEntity
  8
0
  6
Continuous
 62
     7
370
    25
100
AcDbLine
 10
0.4564221286
 20
-43.7651811645
 30
0.0
 11
22.0
 21
-45.65
 31
0.0
  0
LINE
  5
EC
330
23
100
AcDbEntity
  8
0
  6
Continuous
 62
     7
370
    25
100
AcDbLine
 10
98.0
 20
45.65
 30
0.0
 11
22.0
 21
45.65
 31
0.0
  0
LINE
  5
ED
330
23
100
AcDbEntity
  8
0
  6
Continuous
 62
     7
370
    25
100
AcDbLine
 10
22.0
 20
-45.65
 30
0.0
 11
98.0
 21
-45.65
 31
0.0
  0
LINE
  5
EE
330
23
100
AcDbEntity
  8
0
  6
Continuous
 62
     7
370
    25
100
AcDbLine
 10
98.0
 20
45.65
 30
0.0
 11
98.0
 21
-45.65
 31
0.0
  0
LINE
  5
EF
330
23
100
AcDbEntity
  8
0
  6
Continuous
 62
     7
370
    25
100
AcDbLine
 10
22.0
 20
45.65
 30
0.0
 11
22.0
 21
-45.65
 31
0.0
  0
LINE
  5
F0
330
23
100
AcDbEntity
  8
0
  6
Continuous
 62
     7
370
    25
100
AcDbLine
 10
120.0
 20
43.2670838154
 30
0.0
 11
120.0
 21
-43.2670838153
 31
0.0
  0
LINE
  5
F1
330
23
100
AcDbEntity
  8
0
  6
Continuous
 62
     7
370
    25
100
AcDbLine
 10
0.0
 20
43.2670838154
 30
0.0
 11
0.0
 21
-43.2670838153
 31
0.0
  0
LINE
  5
F2
330
23
100
AcDbEntity
  8
0
  6
Continuous
 62
     8
370
    25
100
AcDbLine
 10
119.5435778714
 20
43.7651811645
 30
0.0
 11
119.5435778714
 21
-43.7651811645
 31
0.0
  0
LINE
  5
F3
330
23
100
AcDbEntity
  8
0
  6
Continuous
 62
     8
370
    25
100
AcDbLine
 10
0.4564221286
 20
43.7651811645
 30
0.0
 11
0.4564221286
 21
-43.7651811645
 31
0.0
  0
ARC
  5
F4
330
23
100
AcDbEntity
  8
0
  6
Continuous
 62
     7
370
    25
100
AcDbCircle
 10
119.5
 20
43.2670838154
 30
0.0
 40
0.5000000000007276
100
AcDbArc
 50
0.0000000001
 51
84.9999999995
  0
ARC
  5
F5
330
23
100
AcDbEntity
  8
0
  6
Continuous
 62
     7
370
    25
100
AcDbCircle
 10
119.5
 20
-43.2670838154
 30
0.0
 40
0.5000000000006821
100
AcDbArc
 50
275.0000000005
 51
360.0
  0
ARC
  5
F6
330
23
100
AcDbEntity
  8
0
  6
Continuous
 62
     7
370
    25
100
AcDbCircle
 10
0.5
 20
43.2670838154
 30
0.0
 40
0.4999999999997207
100
AcDbArc
 50
95.0
 51
180.0
  0
ARC
  5
F7
330
23
100
AcDbEntity
  8
0
  6
Continuous
 62
     7
370
    25
100
AcDbCircle
 10
0.5
 20
-43.2670838154
 30
0.0
 40
0.4999999999997207
100
AcDbArc
 50
180.0
 51
265.0
  0
VIEWPORT
  5
FA
330
23
100
AcDbEntity
  8
0
100
AcDbViewport
 10
0.0
 20
0.0
 30
0.0
 40
205.6
 41
156.0
 68
     1
 69
     1
 12
60.0
 22
8.53318826
 13
0.0
 23
0.0
 14
10.0
 24
10.0
 15
10.0
 25
10.0
 16
0.0
 26
0.0
 36
1.0
 17
0.0
 27
0.0
 37
0.0
 42
50.0
 43
0.0
 44
0.0
 45
110.5337040503
 50
0.0
 51
0.0
 72
   100
 90
   557152
  1

281
     0
 71
     1
 74
     0
110
0.0
120
0.0
130
0.0
111
1.0
121
0.0
131
0.0
112
0.0
122
1.0
132
0.0
 79
     0
146
0.0
  0
ENDBLK
  5
25
330
23
100
AcDbEntity
  8
0
100
AcDbBlockEnd
  0
ENDSEC
  0
SECTION
  2
ENTITIES
  0
SPLINE
  5
7F
330
1F
100
AcDbEntity
  8
0
  6
Continuous
 62
     7
370
    25
100
AcDbSpline
210
0.0
220
0.0
230
1.0
 70
     8
 71
     3
 72
    15
 73
    11
 74
     0
 42
0.000000001
 43
0.00000001
 40
0.0
 40
0.0
 40
0.0
 40
0.0
 40
0.0102610900271881
 40
0.2065157173336804
 40
0.4023619377351346
 40
0.5644227980684676
 40
0.7041650527505006
 40
0.8245998923719496
 40
0.9256587053236017
 40
1.0
 40
1.0
 40
1.0
 40
1.0
 10
101.4984762879502
 20
46.43063828526184
 30
0.0
 10
101.4992503245871
 20
46.42509296411396
 30
0.0
 10
101.5148286628434
 20
46.31348727975988
 30
0.0
 10
101.4522170629391
 20
46.09199876682998
 30
0.0
 10
101.3119974031586
 20
45.82341630565167
 30
0.0
 10
101.113580551672
 20
45.63169904170996
 30
0.0
 10
100.9129901019641
 20
45.51506600371231
 30
0.0
 10
100.7242555742251
 20
45.4547430077024
 30
0.0
 10
100.5634827312982
 20
45.4320717773094
 30
0.0
 10
100.4678015552096
 20
45.43625175275819
 30
0.0
 10
100.427248202063
 20
45.43802338671426
 30
0.0
  0
SPLINE
  5
80
330
1F
100
AcDbEntity
  8
0
  6
Continuous
 62
     7
370
    25
100
AcDbSpline
210
0.0
220
0.0
230
1.0
 70
     8
 71
     3
 72
    13
 73
     9
 74
     0
 42
0.000000001
 43
0.00000001
 40
0.0
 40
0.0
 40
0.0
 40
0.0
 40
0.1114075684591576
 40
0.2856271510544806
 40
0.4842651067801849
 40
0.6809153058157935
 40
0.897106715803212
 40
1.0
 40
1.0
 40
1.0
 40
1.0
 10
117.4031063288634
 20
43.9531011275707
 30
0.0
 10
117.3490351736258
 20
43.96079344546212
 30
0.0
 10
117.2104073385662
 20
43.98051503955775
 30
0.0
 10
116.9892838599248
 20
44.07429963393816
 30
0.0
 10
116.7653577126985
 20
44.24730465738264
 30
0.0
 10
116.5945561231853
 20
44.49496882864261
 30
0.0
 10
116.5007000172554
 20
44.73915250030214
 30
0.0
 10
116.5114195067512
 20
44.89578252389168
 30
0.0
 10
116.5148761547799
 20
44.94629004689322
 30
0.0
  0
SPLINE
  5
81
330
1F
100
AcDbEntity
  8
0
  6
Continuous
 62
     7
370
    25
100
AcDbSpline
210
0.0
220
0.0
230
1.0
 70
     8
 71
     3
 72
    13
 73
     9
 74
     0
 42
0.000000001
 43
0.00000001
 40
0.0
 40
0.0
 40
0.0
 40
0.0
 40
0.1118847706945779
 40
0.2750615550507136
 40
0.4590934397775893
 40
0.6404957552233661
 40
0.8372433413187181
 40
0.9999999999999999
 40
0.9999999999999999
 40
0.9999999999999999
 40
0.9999999999999999
 10
19.55909978540685
 20
45.44171165765025
 30
0.0
 10
19.49849063848199
 20
45.43926443027879
 30
0.0
 10
19.34948692600216
 20
45.43324807825719
 30
0.0
 10
19.10657812322335
 20
45.50213125090686
 30
0.0
 10
18.85689209833776
 20
45.64833200965381
 30
0.0
 10
18.65223733871201
 20
45.87697911622585
 30
0.0
 10
18.51938118833942
 20
46.14668564124845
 30
0.0
 10
18.51232326045022
 20
46.34236109118144
 30
0.0
 10
18.50912795809386
 20
46.4309483133903
 30
0.0
  0
SPLINE
  5
82
330
1F
100
AcDbEntity
  8
0
  6
Continuous
 62
     7
370
    25
100
AcDbSpline
210
0.0
220
0.0
230
1.0
 70
     8
 71
     3
 72
    15
 73
    11
 74
     0
 42
0.000000001
 43
0.00000001
 40
0.0
 40
0.0
 40
0.0
 40
0.0
 40
0.0247176598778863
 40
0.2658391940176997
 40
0.4609759677425869
 40
0.6273599605498564
 40
0.7713316203774125
 40
0.8936666740191401
 40
0.993165630102041
 40
1.0
 40
1.0
 40
1.0
 40
1.0
 10
3.495599663620917
 20
44.94140049982073
 30
0.0
 10
3.49716259395532
 20
44.92955926214255
 30
0.0
 10
3.513971957886067
 20
44.80220638585507
 30
0.0
 10
3.442770695400374
 20
44.57861576944094
 30
0.0
 10
3.299502016522439
 20
44.32557892854466
 30
0.0
 10
3.12190614491744
 20
44.15350658271365
 30
0.0
 10
2.942809715941415
 20
44.04322600687063
 30
0.0
 10
2.776291066743257
 20
43.98314866742832
 30
0.0
 10
2.667916502959895
 20
43.9580548198686
 30
0.0
 10
2.61676309871571
 20
43.95469145387322
 30
0.0
 10
2.613475312098303
 20
43.95447527999638
 30
0.0
  0
SPLINE
  5
90
330
1F
100
AcDbEntity
  8
0
  6
Continuous
 62
     8
370
    25
100
AcDbSpline
210
0.0
220
0.0
230
1.0
 70
     8
 71
     3
 72
    26
 73
    22
 74
     0
 42
0.000000001
 43
0.00000001
 40
0.0
 40
0.0
 40
0.0
 40
0.0
 40
0.0345767930950735
 40
0.0850873083103071
 40
0.137091793474512
 40
0.2111392956806805
 40
0.265115825198936
 40
0.3206584056298437
 40
0.3749980649836217
 40
0.4308840380435127
 40
0.4850998313587148
 40
0.5408901806523833
 40
0.5938089456742552
 40
0.6482310914481935
 40
0.700364932962664
 40
0.7539569970255209
 40
0.806150247218065
 40
0.8598496513364546
 40
0.9120956085180457
 40
0.965920423551232
 40
0.9999999999999999
 40
0.9999999999999999
 40
0.9999999999999999
 40
0.9999999999999999
 10
19.55939541563718
 20
45.43151284230301
 30
0.0
 10
19.56044362237677
 20
45.43178445434793
 30
0.0
 10
19.56302307182946
 20
45.43245284304852
 30
0.0
 10
19.30349669549957
 20
45.36361137965147
 30
0.0
 10
18.76119879856294
 20
45.22386777629644
 30
0.0
 10
17.90837859571011
 20
45.01543787570574
 30
0.0
 10
16.79551978728903
 20
44.76861921745334
 30
0.0
 10
15.64099718513534
 20
44.53827809970728
 30
0.0
 10
14.34439164414363
 20
44.31315075116881
 30
0.0
 10
12.96372138546958
 20
44.11297650972927
 30
0.0
 10
11.51463526692183
 20
43.94738823874028
 30
0.0
 10
10.07467485946811
 20
43.82863359448244
 30
0.0
 10
8.658659728263116
 20
43.7565500720194
 30
0.0
 10
7.337006537729056
 20
43.729407156728
 30
0.0
 10
6.111164340287099
 20
43.7388904921047
 30
0.0
 10
5.034374486102139
 20
43.77475308020112
 30
0.0
 10
4.113270142505988
 20
43.82574641387166
 30
0.0
 10
3.388391931123544
 20
43.87916509995127
 30
0.0
 10
2.88216780601043
 20
43.92321675703882
 30
0.0
 10
2.611225902965641
 20
43.94923569056438
 30
0.0
 10
2.612889099311878
 20
43.94909251403946
 30
0.0
 10
2.61353390244487
 20
43.94903700605807
 30
0.0
  0
SPLINE
  5
92
330
1F
100
AcDbEntity
  8
0
  6
Continuous
 62
     8
370
    25
100
AcDbSpline
210
0.0
220
0.0
230
1.0
 70
     8
 71
     3
 72
    28
 73
    24
 74
     0
 42
0.000000001
 43
0.00000001
 40
0.0
 40
0.0
 40
0.0
 40
0.0
 40
0.0050504766632274
 40
0.0569726980352513
 40
0.1104666493346687
 40
0.162670516710601
 40
0.2164124022151521
 40
0.256447141067018
 40
0.2971373645402128
 40
0.3495465847149693
 40
0.4034312908987238
 40
0.4560591923569831
 40
0.5101554855751929
 40
0.5626858427630982
 40
0.616630751464116
 40
0.6698153391114559
 40
0.7244488151859836
 40
0.7782678720594152
 40
0.8336699144249313
 40
0.8867653128540552
 40
0.9415431097756981
 40
0.9928959146844843
 40
1.0
 40
1.0
 40
1.0
 40
1.0
 10
117.4022225123585
 20
43.95057205022311
 30
0.0
 10
117.4057052440006
 20
43.95090775124019
 30
0.0
 10
117.4449927472233
 20
43.95469467947531
 30
0.0
 10
117.2935226039575
 20
43.93989555141234
 30
0.0
 10
116.9371280774164
 20
43.90688240377168
 30
0.0
 10
116.3246755117038
 20
43.85661041293987
 30
0.0
 10
115.5804324315784
 20
43.80721983232209
 30
0.0
 10
114.7584573985301
 20
43.76749676067246
 30
0.0
 10
113.843459064329
 20
43.73915423323035
 30
0.0
 10
112.7226958024844
 20
43.72910943356046
 30
0.0
 10
111.4094367276197
 20
43.75430295339521
 30
0.0
 10
110.0174711419867
 20
43.822849736348
 30
0.0
 10
108.6105245659667
 20
43.93570719246389
 30
0.0
 10
107.2045647065844
 20
44.09187393924005
 30
0.0
 10
105.8547585129187
 20
44.28210312842648
 30
0.0
 10
104.5720469823169
 20
44.49904853899903
 30
0.0
 10
103.408231447444
 20
44.72602095260199
 30
0.0
 10
102.3806109749415
 20
44.94987001243603
 30
0.0
 10
101.5462586515288
 20
45.1476594401591
 30
0.0
 10
100.9106825097976
 20
45.30780729966602
 30
0.0
 10
100.541122672446
 20
45.40464187460335
 30
0.0
 10
100.3849740881141
 20
45.44631096654444
 30
0.0
 10
100.4223546830683
 20
45.43637513459614
 30
0.0
 10
100.4268974313171
 20
45.43516766362787
 30
0.0
  0
SPLINE
  5
93
330
1F
100
AcDbEntity
  8
0
  6
Continuous
 62
     8
370
    25
100
AcDbSpline
210
0.0
220
0.0
230
1.0
 70
     8
 71
     3
 72
    27
 73
    23
 74
     0
 42
0.000000001
 43
0.00000001
 40
0.0
 40
0.0
 40
0.0
 40
0.0
 40
0.0056335668597158
 40
0.0591067064168316
 40
0.1126475905807238
 40
0.167875387508724
 40
0.2219032695969647
 40
0.2775243673214158
 40
0.3305661420324423
 40
0.3850722465326106
 40
0.4371336679377906
 40
0.4906453903525922
 40
0.5426748730292593
 40
0.5962280542609043
 40
0.6482201495519069
 40
0.701729674528718
 40
0.7821788547748947
 40
0.8346651269724483
 40
0.8886575526276966
 40
0.9411195981368831
 40
0.9951038761129793
 40
1.0
 40
1.0
 40
1.0
 40
1.0
 10
101.5097190765178
 20
46.43212722141278
 30
0.0
 10
101.5065456278016
 20
46.43309722323445
 30
0.0
 10
101.4732501852749
 20
46.44327436576683
 30
0.0
 10
101.6080633538227
 20
46.40188624835098
 30
0.0
 10
101.9339310720614
 20
46.30369199657407
 30
0.0
 10
102.4859640813603
 20
46.14358729776414
 30
0.0
 10
103.2264768783729
 20
45.94170005950172
 30
0.0
 10
104.1223284991919
 20
45.71715432998226
 30
0.0
 10
105.1574097663061
 20
45.48516287238775
 30
0.0
 10
106.277859261311
 20
45.26743485909303
 30
0.0
 10
107.4795409756701
 20
45.07325647351217
 30
0.0
 10
108.7092836864879
 20
44.91699454273567
 30
0.0
 10
109.9629496518206
 20
44.80255840170972
 30
0.0
 10
111.1821085354608
 20
44.73508304785015
 30
0.0
 10
112.3531638657318
 20
44.71110470198905
 30
0.0
 10
113.6130286926655
 20
44.72650615642468
 30
0.0
 10
114.695661122037
 20
44.78185513602752
 30
0.0
 10
115.5349845497697
 20
44.848053377415
 30
0.0
 10
116.0726465431793
 20
44.90034350530075
 30
0.0
 10
116.3933587285452
 20
44.93541943510137
 30
0.0
 10
116.5281598537386
 20
44.95100215917666
 30
0.0
 10
116.4940961857727
 20
44.94711727516032
 30
0.0
 10
116.4912636653902
 20
44.94679423263972
 30
0.0
  0
SPLINE
  5
94
330
1F
100
AcDbEntity
  8
0
  6
Continuous
 62
     8
370
    25
100
AcDbSpline
210
0.0
220
0.0
230
1.0
 70
     8
 71
     3
 72
    26
 73
    22
 74
     0
 42
0.000000001
 43
0.00000001
 40
0.0
 40
0.0
 40
0.0
 40
0.0
 40
0.0342061201516194
 40
0.0877204503740026
 40
0.1412365703932069
 40
0.1943582241047962
 40
0.2474795101708514
 40
0.3001256047998372
 40
0.3527680558341402
 40
0.4059233824508654
 40
0.4590778476183708
 40
0.5135302591317235
 40
0.5679895500800245
 40
0.6228160622495109
 40
0.6776492603082963
 40
0.7324979941533996
 40
0.7873433017089067
 40
0.8618687255966585
 40
0.9135987702573998
 40
0.9653208556932376
 40
1.0
 40
1.0
 40
1.0
 40
1.0
 10
3.524823508898052
 20
44.94484400083441
 30
0.0
 10
3.523643284449186
 20
44.94502088740208
 30
0.0
 10
3.520616638347899
 20
44.94547450708514
 30
0.0
 10
3.759738349474066
 20
44.91803138359573
 30
0.0
 10
4.199740537615043
 20
44.87287486653376
 30
0.0
 10
4.842467629398294
 20
44.81642048919324
 30
0.0
 10
5.647832870850154
 20
44.76266089537445
 30
0.0
 10
6.603018011088799
 20
44.72384549598779
 30
0.0
 10
7.67772850955796
 20
44.71098509335287
 30
0.0
 10
8.850486875175479
 20
44.73679895971853
 30
0.0
 10
10.09450165416156
 20
44.80622170628457
 30
0.0
 10
11.37189935731757
 20
44.92616048738329
 30
0.0
 10
12.64676181568562
 20
45.09097145814215
 30
0.0
 10
13.87035803059147
 20
45.29434914704597
 30
0.0
 10
15.01133110125223
 20
45.52060653620874
 30
0.0
 10
16.03342528441253
 20
45.75478184851274
 30
0.0
 10
17.01760541058368
 20
46.005115723359
 30
0.0
 10
17.76925547918567
 20
46.21648348070634
 30
0.0
 10
18.2471993783587
 20
46.35775557534676
 30
0.0
 10
18.47836488898734
 20
46.42851119640499
 30
0.0
 10
18.47658875161904
 20
46.42787704316077
 30
0.0
 10
18.4758758575516
 20
46.42762251099803
 30
0.0
  0
LINE
  5
95
330
1F
100
AcDbEntity
  8
0
  6
Continuous
 62
     7
370
    25
100
AcDbLine
 10
2.6131113309
 20
43.9538670204
 30
0.0
 11
0.4564221286
 21
43.7651811645
 31
0.0
  0
LINE
  5
96
330
1F
100
AcDbEntity
  8
0
  6
Continuous
 62
     7
370
    25
100
AcDbLine
 10
22.0
 20
45.65
 30
0.0
 11
19.5589646011
 21
45.4364370753
 31
0.0
  0
LINE
  5
97
330
1F
100
AcDbEntity
  8
0
  6
Continuous
 62
     7
370
    25
100
AcDbLine
 10
0.4564221286
 20
-43.7651811645
 30
0.0
 11
22.0
 21
-45.65
 31
0.0
  0
LINE
  5
98
330
1F
100
AcDbEntity
  8
0
  6
Continuous
 62
     7
370
    25
100
AcDbLine
 10
98.0
 20
-45.65
 30
0.0
 11
119.5435778714
 21
-43.7651811645
 31
0.0
  0
LINE
  5
99
330
1F
100
AcDbEntity
  8
0
  6
Continuous
 62
     7
370
    25
100
AcDbLine
 10
100.4271150406
 20
45.4376549489
 30
0.0
 11
98.0
 21
45.65
 31
0.0
  0
LINE
  5
9A
330
1F
100
AcDbEntity
  8
0
  6
Continuous
 62
     7
370
    25
100
AcDbLine
 10
119.5435778714
 20
43.7651811645
 30
0.0
 11
117.4023921174
 21
43.9525106444
 31
0.0
  0
LINE
  5
9B
330
1F
100
AcDbEntity
  8
0
  6
Continuous
 62
     7
370
    25
100
AcDbLine
 10
98.0
 20
45.65
 30
0.0
 11
22.0
 21
45.65
 31
0.0
  0
LINE
  5
9C
330
1F
100
AcDbEntity
  8
0
  6
Continuous
 62
     7
370
    25
100
AcDbLine
 10
22.0
 20
-45.65
 30
0.0
 11
98.0
 21
-45.65
 31
0.0
  0
LINE
  5
9D
330
1F
100
AcDbEntity
  8
0
  6
Continuous
 62
     7
370
    25
100
AcDbLine
 10
101.5
 20
62.7163765199
 30
0.0
 11
101.5
 21
46.4321781733
 31
0.0
  0
LINE
  5
9E
330
1F
100
AcDbEntity
  8
0
  6
Continuous
 62
     7
370
    25
100
AcDbLine
 10
116.5
 20
44.9467613185
 30
0.0
 11
116.5
 21
62.7163765199
 31
0.0
  0
LINE
  5
9F
330
1F
100
AcDbEntity
  8
0
  6
Continuous
 62
     7
370
    25
100
AcDbLine
 10
3.5
 20
62.7163765199
 30
0.0
 11
3.5
 21
44.9448606462
 31
0.0
  0
LINE
  5
A0
330
1F
100
AcDbEntity
  8
0
  6
Continuous
 62
     7
370
    25
100
AcDbLine
 10
18.5
 20
46.4276738795
 30
0.0
 11
18.5
 21
62.7163765199
 31
0.0
  0
LINE
  5
A1
330
1F
100
AcDbEntity
  8
0
  6
Continuous
 62
     7
370
    25
100
AcDbLine
 10
22.0
 20
45.65
 30
0.0
 11
22.0
 21
-45.65
 31
0.0
  0
LINE
  5
A2
330
1F
100
AcDbEntity
  8
0
  6
Continuous
 62
     7
370
    25
100
AcDbLine
 10
98.0
 20
45.65
 30
0.0
 11
98.0
 21
-45.65
 31
0.0
  0
LINE
  5
A3
330
1F
100
AcDbEntity
  8
0
  6
Continuous
 62
     7
370
    25
100
AcDbLine
 10
120.0
 20
43.2670838154
 30
0.0
 11
120.0
 21
-43.2670838154
 31
0.0
  0
LINE
  5
A4
330
1F
100
AcDbEntity
  8
0
  6
Continuous
 62
     7
370
    25
100
AcDbLine
 10
0.0
 20
43.2670838154
 30
0.0
 11
0.0
 21
-43.2670838154
 31
0.0
  0
LINE
  5
A5
330
1F
100
AcDbEntity
  8
0
  6
Continuous
 62
     7
370
    25
100
AcDbLine
 10
101.5
 20
62.7163765199
 30
0.0
 11
116.5
 21
62.7163765199
 31
0.0
  0
LINE
  5
A6
330
1F
100
AcDbEntity
  8
0
  6
Continuous
 62
     7
370
    25
100
AcDbLine
 10
3.5
 20
62.7163765199
 30
0.0
 11
18.5
 21
62.7163765199
 31
0.0
  0
LINE
  5
A7
330
1F
100
AcDbEntity
  8
0
  6
Continuous
 62
     8
370
    25
100
AcDbLine
 10
0.4564221286
 20
43.7651811645
 30
0.0
 11
0.4564221286
 21
-43.7651811645
 31
0.0
  0
LINE
  5
A8
330
1F
100
AcDbEntity
  8
0
  6
Continuous
 62
     8
370
    25
100
AcDbLine
 10
119.5435778714
 20
43.7651811645
 30
0.0
 11
119.5435778714
 21
-43.7651811645
 31
0.0
  0
ARC
  5
A9
330
1F
100
AcDbEntity
  8
0
  6
Continuous
 62
     7
370
    25
100
AcDbCircle
 10
119.5
 20
43.2670838154
 30
0.0
 40
0.5000000000007276
100
AcDbArc
 50
0.0000000001
 51
84.9999999995
  0
ARC
  5
AA
330
1F
100
AcDbEntity
  8
0
  6
Continuous
 62
     7
370
    25
100
AcDbCircle
 10
119.5
 20
-43.2670838154
 30
0.0
 40
0.5000000000006821
100
AcDbArc
 50
275.0000000005
 51
360.0
  0
ARC
  5
AB
330
1F
100
AcDbEntity
  8
0
  6
Continuous
 62
     7
370
    25
100
AcDbCircle
 10
0.5
 20
43.2670838154
 30
0.0
 40
0.4999999999997207
100
AcDbArc
 50
95.0
 51
180.0
  0
ARC
  5
AC
330
1F
100
AcDbEntity
  8
0
  6
Continuous
 62
     7
370
    25
100
AcDbCircle
 10
0.5
 20
-43.2670838154
 30
0.0
 40
0.4999999999997207
100
AcDbArc
 50
180.0
 51
265.0
  0
SPLINE
  5
AD
330
1B
100
AcDbEntity
 67
     1
  8
0
  6
Continuous
 62
     7
370
    25
100
AcDbSpline
210
0.0
220
0.0
230
1.0
 70
     8
 71
     3
 72
    12
 73
     8
 74
     0
 42
0.000000001
 43
0.00000001
 40
0.0
 40
0.0
 40
0.0
 40
0.0
 40
0.2447747979526845
 40
0.460207159237579
 40
0.6640879352052246
 40
0.8708521432125763
 40
0.9999999999999999
 40
0.9999999999999999
 40
0.9999999999999999
 40
0.9999999999999999
 10
7.801647976769138
 20
44.22731639446448
 30
0.0
 10
7.797077897263846
 20
44.23014368792675
 30
0.0
 10
7.788485577612426
 20
44.2354593523803
 30
0.0
 10
7.704495324694124
 20
44.31053683597859
 30
0.0
 10
7.596240307468017
 20
44.46638044195025
 30
0.0
 10
7.506200402848375
 20
44.6782577486419
 30
0.0
 10
7.509626009758071
 20
44.83731308885656
 30
0.0
 10
7.510943050248575
 20
44.89846497487729
 30
0.0
  0
SPLINE
  5
AE
330
1B
100
AcDbEntity
 67
     1
  8
0
  6
Continuous
 62
     7
370
    25
100
AcDbSpline
210
0.0
220
0.0
230
1.0
 70
     8
 71
     3
 72
    13
 73
     9
 74
     0
 42
0.000000001
 43
0.00000001
 40
0.0
 40
0.0
 40
0.0
 40
0.0
 40
0.0161227463054855
 40
0.2261413054940145
 40
0.4155883025087888
 40
0.6047807665672449
 40
0.8102615340672719
 40
0.9999999999999999
 40
0.9999999999999999
 40
0.9999999999999999
 40
0.9999999999999999
 10
-7.50394189897979
 20
44.89313411479113
 30
0.0
 10
-7.502638452326083
 20
44.88558256798186
 30
0.0
 10
-7.484356013197782
 20
44.77966285544716
 30
0.0
 10
-7.54505947336724
 20
44.59076944104853
 30
0.0
 10
-7.639243773456448
 20
44.39359940290375
 30
0.0
 10
-7.735654647757405
 20
44.28110923329572
 30
0.0
 10
-7.794571045057366
 20
44.23138269043915
 30
0.0
 10
-7.796923361236878
 20
44.23022804675701
 30
0.0
 10
-7.798052670808717
 20
44.22967372069589
 30
0.0
  0
CIRCLE
  5
B1
330
1B
100
AcDbEntity
 67
     1
  8
0
  6
Continuous
 62
     7
370
    25
100
AcDbCircle
 10
0.0
 20
0.0
 30
0.0
 40
38.98001158315894
  0
CIRCLE
  5
B2
330
1B
100
AcDbEntity
 67
     1
  8
0
  6
Continuous
 62
     7
370
    25
100
AcDbCircle
 10
0.0
 20
0.0
 30
0.0
 40
43.26708381542072
  0
CIRCLE
  5
B3
330
1B
100
AcDbEntity
 67
     1
  8
0
  6
Continuous
 62
     7
370
    25
100
AcDbCircle
 10
0.0
 20
0.0
 30
0.0
 40
43.76518116446638
  0
CIRCLE
  5
B4
330
1B
100
AcDbEntity
 67
     1
  8
0
  6
Continuous
 62
     7
370
    25
100
AcDbCircle
 10
0.0
 20
0.0
 30
0.0
 40
38.46256183480781
  0
SPLINE
  5
B7
330
1B
100
AcDbEntity
 67
     1
  8
0
  6
Continuous
 62
     7
370
    25
100
AcDbSpline
210
0.0
220
0.0
230
1.0
 70
     8
 71
     3
 72
    28
 73
    24
 74
     0
 42
0.000000001
 43
0.00000001
 40
0.0
 40
0.0
 40
0.0
 40
0.0
 40
0.0624999999999998
 40
0.0624999999999998
 40
0.1249999999999996
 40
0.1249999999999996
 40
0.2499999999999994
 40
0.2499999999999994
 40
0.3124999999999994
 40
0.3124999999999994
 40
0.3749999999999995
 40
0.3749999999999995
 40
0.4999999999999996
 40
0.4999999999999996
 40
0.6249999999999996
 40
0.6249999999999996
 40
0.7499999999999997
 40
0.7499999999999997
 40
0.8124999999999997
 40
0.8124999999999997
 40
0.8749999999999997
 40
0.8749999999999997
 40
1.0
 40
1.0
 40
1.0
 40
1.0
 10
6.762520734539318
 20
43.74311986186193
 30
0.0
 10
6.612226506324992
 20
43.74733261011488
 30
0.0
 10
6.452048177061085
 20
43.75293202612966
 30
0.0
 10
6.111561057886911
 20
43.76631477974498
 30
0.0
 10
5.930386286298331
 20
43.77413841520129
 30
0.0
 10
5.361599080224545
 20
43.79972192295094
 30
0.0
 10
4.953098586693726
 20
43.81934619379092
 30
0.0
 10
4.297108202915105
 20
43.84874492286145
 30
0.0
 10
4.071190428897705
 20
43.85854630446933
 30
0.0
 10
3.604371638910639
 20
43.87756491630988
 30
0.0
 10
3.363237916917523
 20
43.88677935938285
 30
0.0
 10
2.632934577235739
 20
43.91216012875233
 30
0.0
 10
2.131847382266893
 20
43.92625623279929
 30
0.0
 10
1.101143287454575
 20
43.94588160588756
 30
0.0
 10
0.567661032016631
 20
43.95131829650473
 30
0.0
 10
-0.4828120262907992
 20
43.95185252919068
 30
0.0
 10
-1.004941276832623
 20
43.94711754753838
 30
0.0
 10
-1.78340692216013
 20
43.93311559432621
 30
0.0
 10
-2.042941432809781
 20
43.92727272809746
 30
0.0
 10
-2.549248874757484
 20
43.91384174186068
 30
0.0
 10
-2.797331581294739
 20
43.90623782610336
 30
0.0
 10
-3.526757125327054
 20
43.88142657148137
 30
0.0
 10
-3.993410251334868
 20
43.86218284796509
 30
0.0
 10
-4.439863339433469
 20
43.84233388756643
 30
0.0
  0
CIRCLE
  5
B8
330
1B
100
AcDbEntity
 67
     1
  8
0
  6
Continuous
 62
     7
370
    25
100
AcDbCircle
 10
0.0
 20
0.0
 30
0.0
 40
38.15000000000014
  0
SPLINE
  5
BA
330
1B
100
AcDbEntity
 67
     1
  8
0
  6
Continuous
 62
     8
370
    25
100
AcDbSpline
210
0.0
220
0.0
230
1.0
 70
     8
 71
     3
 72
    15
 73
    11
 74
     0
 42
0.000000001
 43
0.00000001
 40
0.0
 40
0.0
 40
0.0
 40
0.0
 40
0.0967461978332171
 40
0.2434756521255993
 40
0.394447947942718
 40
0.5403924831375864
 40
0.6904400835390335
 40
0.8357137720756042
 40
0.9849101797045371
 40
0.9999999999999999
 40
0.9999999999999999
 40
0.9999999999999999
 40
0.9999999999999999
 10
-5.907727630401241
 20
43.77525162602036
 30
0.0
 10
-6.115271636520307
 20
43.76651223455648
 30
0.0
 10
-6.637585829391349
 20
43.74451830524963
 30
0.0
 10
-7.320482928332747
 20
43.7287459743999
 30
0.0
 10
-7.890160606019522
 20
43.7447676797433
 30
0.0
 10
-8.236126403494636
 20
43.80387641114765
 30
0.0
 10
-8.356553033940754
 20
43.90657841197373
 30
0.0
 10
-8.22610506877305
 20
44.05576151026021
 30
0.0
 10
-8.035246302094588
 20
44.17962229318352
 30
0.0
 10
-7.82779451219554
 20
44.25725989669394
 30
0.0
 10
-7.808739900807241
 20
44.26439097213431
 30
0.0
  0
SPLINE
  5
BB
330
1B
100
AcDbEntity
 67
     1
  8
0
  6
Continuous
 62
     8
370
    25
100
AcDbSpline
210
0.0
220
0.0
230
1.0
 70
     8
 71
     3
 72
    13
 73
     9
 74
     0
 42
0.000000001
 43
0.00000001
 40
0.0
 40
0.0
 40
0.0
 40
0.0
 40
0.130172420135868
 40
0.3051695838640222
 40
0.4852490827110384
 40
0.6560597122444728
 40
0.8317229382544649
 40
1.0
 40
1.0
 40
1.0
 40
1.0
 10
7.80289526821915
 20
44.26282850232135
 30
0.0
 10
7.917487610965864
 20
44.21277829984388
 30
0.0
 10
8.186132055876065
 20
44.09544315737344
 30
0.0
 10
8.339614268857833
 20
43.94803362789199
 30
0.0
 10
8.297143966593723
 20
43.82838479295766
 30
0.0
 10
8.005337430934796
 20
43.75691329049246
 30
0.0
 10
7.512296869768248
 20
43.7281828847858
 30
0.0
 10
7.008842193830274
 20
43.73821266647665
 30
0.0
 10
6.762520734539318
 20
43.74311986186193
 30
0.0
  0
SPLINE
  5
BD
330
1B
100
AcDbEntity
 67
     1
  8
0
  6
Continuous
 62
     8
370
    25
100
AcDbSpline
210
0.0
220
0.0
230
1.0
 70
     8
 71
     3
 72
    21
 73
    17
 74
     0
 42
0.000000001
 43
0.00000001
 40
0.0
 40
0.0
 40
0.0
 40
0.0
 40
0.0960871590005965
 40
0.1672703171539322
 40
0.2384513598983862
 40
0.3096142476746666
 40
0.3807764318472706
 40
0.452275083768204
 40
0.5237761269749741
 40
0.5947501373457638
 40
0.6657236565180283
 40
0.7360622887915194
 40
0.8063960529837527
 40
0.8774150525623579
 40
0.9484329011883551
 40
1.0
 40
1.0
 40
1.0
 40
1.0
 10
-5.3302607046243
 20
44.76249650147655
 30
0.0
 10
-4.904958224543964
 20
44.78590437723801
 30
0.0
 10
-4.164583740905099
 20
44.82665324361352
 30
0.0
 10
-2.900640258037966
 20
44.88793611106379
 30
0.0
 10
-1.699843267883587
 20
44.92965699486994
 30
0.0
 10
-0.446634322502768
 20
44.94990773793607
 30
0.0
 10
0.8201334837212509
 20
44.94688940300631
 30
0.0
 10
2.065140783014317
 20
44.91864616243385
 30
0.0
 10
3.251077019906569
 20
44.87271018786947
 30
0.0
 10
4.340125404963501
 20
44.81646927697575
 30
0.0
 10
5.304816835350531
 20
44.76263013266931
 30
0.0
 10
6.116391641327082
 20
44.72391948595872
 30
0.0
 10
6.765058664692693
 20
44.71071849846377
 30
0.0
 10
7.215769777291392
 20
44.737801789603
 30
0.0
 10
7.471932535238884
 20
44.79606693734297
 30
0.0
 10
7.475333832018545
 20
44.86821659163477
 30
0.0
 10
7.476764635806373
 20
44.89856736821756
 30
0.0
  0
SPLINE
  5
BE
330
1B
100
AcDbEntity
 67
     1
  8
0
  6
Continuous
 62
     8
370
    25
100
AcDbSpline
210
0.0
220
0.0
230
1.0
 70
     8
 71
     3
 72
    12
 73
     8
 74
     0
 42
0.000000001
 43
0.00000001
 40
0.0
 40
0.0
 40
0.0
 40
0.0
 40
0.2132481438487653
 40
0.427109154220949
 40
0.643039202282974
 40
0.8589844585535401
 40
1.0
 40
1.0
 40
1.0
 40
1.0
 10
-7.499697562052419
 20
44.89403770664636
 30
0.0
 10
-7.479520763446706
 20
44.85660986314714
 30
0.0
 10
-7.439109178933761
 20
44.78164661004328
 30
0.0
 10
-7.11904959693736
 20
44.72574912878651
 30
0.0
 10
-6.605588403374026
 20
44.71153532352267
 30
0.0
 10
-5.991105689144052
 20
44.72933050970278
 30
0.0
 10
-5.517396931740577
 20
44.7531046490535
 30
0.0
 10
-5.330260704624299
 20
44.76249650147654
 30
0.0
  0
LINE
  5
BF
330
1B
100
AcDbEntity
 67
     1
  8
0
  6
Continuous
 62
     7
370
    25
100
AcDbLine
 10
-7.5
 20
62.7163765199
 30
0.0
 11
-7.5
 21
44.893942679
 31
0.0
  0
LINE
  5
C0
330
1B
100
AcDbEntity
 67
     1
  8
0
  6
Continuous
 62
     7
370
    25
100
AcDbLine
 10
7.5
 20
44.8989979391
 30
0.0
 11
7.5
 21
62.7163765199
 31
0.0
  0
LINE
  5
C1
330
1B
100
AcDbEntity
 67
     1
  8
0
  6
Continuous
 62
     7
370
    25
100
AcDbLine
 10
-7.5
 20
62.7163765199
 30
0.0
 11
7.5
 21
62.7163765199
 31
0.0
  0
LINE
  5
C2
330
1B
100
AcDbEntity
 67
     1
  8
0
  6
Continuous
 62
     8
370
    25
100
AcDbLine
 10
-4.4398633394
 20
43.8423338876
 30
0.0
 11
-5.9077276304
 21
43.775251626
 31
0.0
  0
ARC
  5
C3
330
1B
100
AcDbEntity
 67
     1
  8
0
  6
Continuous
 62
     7
370
    25
100
AcDbCircle
 10
0.0
 20
0.0
 30
0.0
 40
45.65
100
AcDbArc
 50
99.4779375952
 51
80.543802889
  0
VIEWPORT
  5
F8
330
1B
100
AcDbEntity
 67
     1
  8
0
100
AcDbViewport
 10
0.0
 20
0.0
 30
0.0
 40
205.6
 41
156.0
 68
     1
 69
     1
 12
60.0
 22
8.53318826
 13
0.0
 23
0.0
 14
10.0
 24
10.0
 15
10.0
 25
10.0
 16
0.0
 26
0.0
 36
1.0
 17
0.0
 27
0.0
 37
0.0
 42
50.0
 43
0.0
 44
0.0
 45
110.5337040503
 50
0.0
 51
0.0
 72
   100
 90
   557152
  1

281
     0
 71
     1
 74
     0
110
0.0
120
0.0
130
0.0
111
1.0
121
0.0
131
0.0
112
0.0
122
1.0
132
0.0
 79
     0
146
0.0
  0
ENDSEC
  0
SECTION
  2
OBJECTS
  0
DICTIONARY
  5
C
330
0
100
AcDbDictionary
281
     1
  3
ACAD_GROUP
350
D
  3
ACAD_LAYOUT
350
1A
  3
ACAD_MLINESTYLE
350
17
  3
ACAD_PLOTSETTINGS
350
19
  3
ACAD_PLOTSTYLENAME
350
E
  3
ACAD_SCALELIST
350
47
  0
DICTIONARY
  5
D
102
{ACAD_REACTORS
330
C
102
}
330
C
100
AcDbDictionary
281
     1
  0
DICTIONARY
  5
1A
102
{ACAD_REACTORS
330
C
102
}
330
C
100
AcDbDictionary
281
     1
  3
_Left
350
1E
  3
_Top
350
26
  3
Model
350
22
  0
DICTIONARY
  5
17
102
{ACAD_REACTORS
330
C
102
}
330
C
100
AcDbDictionary
281
     1
  3
Standard
350
18
  0
DICTIONARY
  5
19
102
{ACAD_REACTORS
330
C
102
}
330
C
100
AcDbDictionary
281
     1
  0
ACDBDICTIONARYWDFLT
  5
E
102
{ACAD_REACTORS
330
C
102
}
330
C
100
AcDbDictionary
281
     1
  3
Normal
350
F
100
AcDbDictionaryWithDefault
340
F
  0
DICTIONARY
  5
47
102
{ACAD_REACTORS
330
C
102
}
330
C
100
AcDbDictionary
281
     1
  3
A0
350
48
  3
A1
350
49
  3
A2
350
4A
  3
A3
350
4B
  3
A4
350
4C
  3
A5
350
4D
  3
A6
350
4E
  3
A7
350
4F
  3
A8
350
50
  3
A9
350
51
  3
B0
350
52
  3
B1
350
53
  3
B2
350
54
  3
B3
350
55
  3
B4
350
56
  3
B5
350
57
  3
B6
350
58
  3
B7
350
59
  3
B8
350
5A
  3
B9
350
5B
  3
C0
350
5C
  3
C1
350
5D
  3
C2
350
5E
  3
C3
350
5F
  3
C4
350
60
  3
C5
350
61
  3
C6
350
62
  3
C7
350
63
  3
C8
350
64
  3
C9
350
65
  3
D0
350
66
  3
D1
350
67
  3
D2
350
68
  0
LAYOUT
  5
1E
102
{ACAD_REACTORS
330
1A
102
}
330
1A
100
AcDbPlotSettings
  1

  2
none_device
  4
ISO_A4_(210.00_x_297.00_MM)
  6

 40
7.5
 41
20.0
 42
7.5
 43
20.0
 44
210.0
 45
297.0
 46
0.0
 47
0.0
 48
0.0
 49
0.0
140
0.0
141
0.0
142
1.0
143
0.5557250078
 70
   688
 72
     1
 73
     1
 74
     1
  7

 75
     0
147
1.7994511422
148
45.65
149
45.65
100
AcDbLayout
  1
_Left
 70
     1
 71
     1
 10
-56.7645001559
 20
-49.8179375585
 11
108.2858271591
 21
66.8843140784
 12
0.0
 22
0.0
 32
0.0
 14
-45.65
 24
-45.65
 34
0.0
 15
45.65
 25
62.7163765199
 35
0.0
146
0.0
 13
0.0
 23
0.0
 33
0.0
 16
1.0
 26
0.0
 36
0.0
 17
0.0
 27
1.0
 37
0.0
 76
     0
330
1B
331
F8
  0
LAYOUT
  5
26
102
{ACAD_REACTORS
330
1A
102
}
330
1A
100
AcDbPlotSettings
  1

  2
none_device
  4
ISO_A4_(210.00_x_297.00_MM)
  6

 40
7.5
 41
20.0
 42
7.5
 43
20.0
 44
210.0
 45
297.0
 46
0.0
 47
0.0
 48
0.0
 49
0.0
140
0.0
141
0.0
142
1.0
143
0.5557250078
 70
   688
 72
     1
 73
     1
 74
     1
  7

 75
     0
147
1.7994511422
148
45.65
149
45.65
100
AcDbLayout
  1
_Top
 70
     1
 71
     2
 10
0.0
 20
0.0
 11
0.0
 21
0.0
 12
0.0
 22
0.0
 32
0.0
 14
0.0
 24
0.0
 34
0.0
 15
0.0
 25
0.0
 35
0.0
146
0.0
 13
0.0
 23
0.0
 33
0.0
 16
1.0
 26
0.0
 36
0.0
 17
0.0
 27
1.0
 37
0.0
 76
     0
330
23
331
FA
  0
LAYOUT
  5
22
102
{ACAD_REACTORS
330
1A
102
}
330
1A
100
AcDbPlotSettings
  1

  2
none_device
  4
ANSI_A_(11.00_x_8.50_Inches)
  6

 40
6.35
 41
19.05
 42
6.35000508
 43
19.05000254
 44
279.4
 45
215.9
 46
15.0064631291
 47
72.0692044334
 48
0.0
 49
0.0
140
0.0
141
0.0
142
0.0776532377
143
1.0
 70
  1696
 72
     0
 73
     0
 74
     0
  7

 75
     0
147
0.0179189148
148
-1300.4909072572
149
0.0
100
AcDbLayout
  1
Model
 70
     1
 71
     0
 10
0.0
 20
0.0
 11
420.0
 21
297.0
 12
0.0
 22
0.0
 32
0.0
 14
0.0
 24
-45.65
 34
0.0
 15
120.0
 25
62.7163765199
 35
0.0
146
0.0
 13
0.0
 23
0.0
 33
0.0
 16
1.0
 26
0.0
 36
0.0
 17
0.0
 27
1.0
 37
0.0
 76
     0
330
1F
331
29
  0
MLINESTYLE
  5
18
102
{ACAD_REACTORS
330
17
102
}
330
17
100
AcDbMlineStyle
  2
Standard
 70
     0
  3

 62
   256
 51
90.0
 52
90.0
 71
     2
 49
0.5
 62
   256
  6
BYLAYER
 49
-0.5
 62
   256
  6
BYLAYER
  0
ACDBPLACEHOLDER
  5
F
102
{ACAD_REACTORS
330
E
102
}
330
E
  0
SCALE
  5
48
102
{ACAD_REACTORS
330
47
102
}
330
47
100
AcDbScale
 70
     0
300
1:1
140
1.0
141
1.0
290
     1
  0
SCALE
  5
49
102
{ACAD_REACTORS
330
47
102
}
330
47
100
AcDbScale
 70
     0
300
1:2
140
1.0
141
2.0
290
     0
  0
SCALE
  5
4A
102
{ACAD_REACTORS
330
47
102
}
330
47
100
AcDbScale
 70
     0
300
1:4
140
1.0
141
4.0
290
     0
  0
SCALE
  5
4B
102
{ACAD_REACTORS
330
47
102
}
330
47
100
AcDbScale
 70
     0
300
1:5
140
1.0
141
5.0
290
     0
  0
SCALE
  5
4C
102
{ACAD_REACTORS
330
47
102
}
330
47
100
AcDbScale
 70
     0
300
1:8
140
1.0
141
8.0
290
     0
  0
SCALE
  5
4D
102
{ACAD_REACTORS
330
47
102
}
330
47
100
AcDbScale
 70
     0
300
1:10
140
1.0
141
10.0
290
     0
  0
SCALE
  5
4E
102
{ACAD_REACTORS
330
47
102
}
330
47
100
AcDbScale
 70
     0
300
1:16
140
1.0
141
16.0
290
     0
  0
SCALE
  5
4F
102
{ACAD_REACTORS
330
47
102
}
330
47
100
AcDbScale
 70
     0
300
1:20
140
1.0
141
20.0
290
     0
  0
SCALE
  5
50
102
{ACAD_REACTORS
330
47
102
}
330
47
100
AcDbScale
 70
     0
300
1:30
140
1.0
141
30.0
290
     0
  0
SCALE
  5
51
102
{ACAD_REACTORS
330
47
102
}
330
47
100
AcDbScale
 70
     0
300
1:40
140
1.0
141
40.0
290
     0
  0
SCALE
  5
52
102
{ACAD_REACTORS
330
47
102
}
330
47
100
AcDbScale
 70
     0
300
1:50
140
1.0
141
50.0
290
     0
  0
SCALE
  5
53
102
{ACAD_REACTORS
330
47
102
}
330
47
100
AcDbScale
 70
     0
300
1:100
140
1.0
141
100.0
290
     0
  0
SCALE
  5
54
102
{ACAD_REACTORS
330
47
102
}
330
47
100
AcDbScale
 70
     0
300
2:1
140
2.0
141
1.0
290
     0
  0
SCALE
  5
55
102
{ACAD_REACTORS
330
47
102
}
330
47
100
AcDbScale
 70
     0
300
4:1
140
4.0
141
1.0
290
     0
  0
SCALE
  5
56
102
{ACAD_REACTORS
330
47
102
}
330
47
100
AcDbScale
 70
     0
300
8:1
140
8.0
141
1.0
290
     0
  0
SCALE
  5
57
102
{ACAD_REACTORS
330
47
102
}
330
47
100
AcDbScale
 70
     0
300
10:1
140
10.0
141
1.0
290
     0
  0
SCALE
  5
58
102
{ACAD_REACTORS
330
47
102
}
330
47
100
AcDbScale
 70
     0
300
100:1
140
100.0
141
1.0
290
     0
  0
SCALE
  5
59
102
{ACAD_REACTORS
330
47
102
}
330
47
100
AcDbScale
 70
     0
300
1/128" = 1'-0"
140
0.0078125
141
12.0
290
     0
  0
SCALE
  5
5A
102
{ACAD_REACTORS
330
47
102
}
330
47
100
AcDbScale
 70
     0
300
1/64" = 1'-0"
140
0.015625
141
12.0
290
     0
  0
SCALE
  5
5B
102
{ACAD_REACTORS
330
47
102
}
330
47
100
AcDbScale
 70
     0
300
1/32" = 1'-0"
140
0.03125
141
12.0
290
     0
  0
SCALE
  5
5C
102
{ACAD_REACTORS
330
47
102
}
330
47
100
AcDbScale
 70
     0
300
1/16" = 1'-0"
140
0.0625
141
12.0
290
     0
  0
SCALE
  5
5D
102
{ACAD_REACTORS
330
47
102
}
330
47
100
AcDbScale
 70
     0
300
3/32" = 1'-0"
140
0.09375
141
12.0
290
     0
  0
SCALE
  5
5E
102
{ACAD_REACTORS
330
47
102
}
330
47
100
AcDbScale
 70
     0
300
1/8" = 1'-0"
140
0.125
141
12.0
290
     0
  0
SCALE
  5
5F
102
{ACAD_REACTORS
330
47
102
}
330
47
100
AcDbScale
 70
     0
300
3/16" = 1'-0"
140
0.1875
141
12.0
290
     0
  0
SCALE
  5
60
102
{ACAD_REACTORS
330
47
102
}
330
47
100
AcDbScale
 70
     0
300
1/4" = 1'-0"
140
0.25
141
12.0
290
     0
  0
SCALE
  5
61
102
{ACAD_REACTORS
330
47
102
}
330
47
100
AcDbScale
 70
     0
300
3/8" = 1'-0"
140
0.375
141
12.0
290
     0
  0
SCALE
  5
62
102
{ACAD_REACTORS
330
47
102
}
330
47
100
AcDbScale
 70
     0
300
1/2" = 1'-0"
140
0.5
141
12.0
290
     0
  0
SCALE
  5
63
102
{ACAD_REACTORS
330
47
102
}
330
47
100
AcDbScale
 70
     0
300
3/4" = 1'-0"
140
0.75
141
12.0
290
     0
  0
SCALE
  5
64
102
{ACAD_REACTORS
330
47
102
}
330
47
100
AcDbScale
 70
     0
300
1" = 1'-0"
140
1.0
141
12.0
290
     0
  0
SCALE
  5
65
102
{ACAD_REACTORS
330
47
102
}
330
47
100
AcDbScale
 70
     0
300
1-1/2" = 1'-0"
140
1.5
141
12.0
290
     0
  0
SCALE
  5
66
102
{ACAD_REACTORS
330
47
102
}
330
47
100
AcDbScale
 70
     0
300
3" = 1'-0"
140
3.0
141
12.0
290
     0
  0
SCALE
  5
67
102
{ACAD_REACTORS
330
47
102
}
330
47
100
AcDbScale
 70
     0
300
6" = 1'-0"
140
6.0
141
12.0
290
     0
  0
SCALE
  5
68
102
{ACAD_REACTORS
330
47
102
}
330
47
100
AcDbScale
 70
     0
300
1'-0" = 1'-0"
140
12.0
141
12.0
290
     0
  0
ENDSEC
  0
EOF
