  0
SECTION
  2
HEADER
  9
$ACADVER
  1
AC1015
  9
$ACADMAINTVER
 70
     6
  9
$DWGCODEPAGE
  3
ANSI_1252
  9
$INSBASE
 10
0.0
 20
0.0
 30
0.0
  9
$EXTMIN
 10
-99.0
 20
-68.5
 30
0.0
  9
$EXTMAX
 10
118.4403858487
 20
118.4403858487
 30
0.0
  9
$LIMMIN
 10
0.0
 20
0.0
  9
$LIMMAX
 10
420.0
 20
297.0
  9
$ORTHOMODE
 70
     0
  9
$REGENMODE
 70
     1
  9
$FILLMODE
 70
     1
  9
$QTEXTMODE
 70
     0
  9
$MIRRTEXT
 70
     1
  9
$LTSCALE
 40
1.0
  9
$ATTMODE
 70
     1
  9
$TEXTSIZE
 40
6.35
  9
$TRACEWID
 40
1.0
  9
$TEXTSTYLE
  7
Standard
  9
$CLAYER
  8
0
  9
$CELTYPE
  6
ByLayer
  9
$CECOLOR
 62
   256
  9
$CELTSCALE
 40
1.0
  9
$DISPSILH
 70
     0
  9
$DIMSCALE
 40
1.0
  9
$DIMASZ
 40
5.9944
  9
$DIMEXO
 40
0.9906
  9
$DIMDLI
 40
3.75
  9
$DIMRND
 40
0.0
  9
$DIMDLE
 40
0.0
  9
$DIMEXE
 40
0.9906
  9
$DIMTP
 40
0.0
  9
$DIMTM
 40
0.0
  9
$DIMTXT
 40
6.35
  9
$DIMCEN
 40
2.5
  9
$DIMTSZ
 40
0.0
  9
$DIMTOL
 70
     0
  9
$DIMLIM
 70
     0
  9
$DIMTIH
 70
     1
  9
$DIMTOH
 70
     1
  9
$DIMSE1
 70
     0
  9
$DIMSE2
 70
     0
  9
$DIMTAD
 70
     1
  9
$DIMZIN
 70
     0
  9
$DIMBLK
  1

  9
$DIMASO
 70
     1
  9
$DIMSHO
 70
     1
  9
$DIMPOST
  1

  9
$DIMAPOST
  1

  9
$DIMALT
 70
     0
  9
$DIMALTD
 70
     3
  9
$DIMALTF
 40
0.0393700787
  9
$DIMLFAC
 40
1.0
  9
$DIMTOFL
 70
     1
  9
$DIMTVP
 40
0.0
  9
$DIMTIX
 70
     0
  9
$DIMSOXD
 70
     0
  9
$DIMSAH
 70
     0
  9
$DIMBLK1
  1

  9
$DIMBLK2
  1

  9
$DIMSTYLE
  2
ISO-25
  9
$DIMCLRD
 70
     0
  9
$DIMCLRE
 70
     0
  9
$DIMCLRT
 70
     0
  9
$DIMTFAC
 40
1.0
  9
$DIMGAP
 40
1.524
  9
$DIMJUST
 70
     0
  9
$DIMSD1
 70
     0
  9
$DIMSD2
 70
     0
  9
$DIMTOLJ
 70
     0
  9
$DIMTZIN
 70
     0
  9
$DIMALTZ
 70
     0
  9
$DIMALTTZ
 70
     0
  9
$DIMUPT
 70
     0
  9
$DIMDEC
 70
     2
  9
$DIMTDEC
 70
     2
  9
$DIMALTU
 70
     2
  9
$DIMALTTD
 70
     3
  9
$DIMTXSTY
  7
Standard
  9
$DIMAUNIT
 70
     0
  9
$DIMADEC
 70
     2
  9
$DIMALTRND
 40
0.0
  9
$DIMAZIN
 70
     0
  9
$DIMDSEP
 70
    44
  9
$DIMATFIT
 70
     3
  9
$DIMFRAC
 70
     0
  9
$DIMLDRBLK
  1

  9
$DIMLUNIT
 70
     2
  9
$DIMLWD
 70
    -2
  9
$DIMLWE
 70
    -2
  9
$DIMTMOVE
 70
     0
  9
$LUNITS
 70
     2
  9
$LUPREC
 70
     2
  9
$SKETCHINC
 40
1.0
  9
$FILLETRAD
 40
10.0
  9
$AUNITS
 70
     0
  9
$AUPREC
 70
     2
  9
$MENU
  1
.
  9
$ELEVATION
 40
0.0
  9
$PELEVATION
 40
0.0
  9
$THICKNESS
 40
0.0
  9
$LIMCHECK
 70
     0
  9
$CHAMFERA
 40
0.0
  9
$CHAMFERB
 40
0.0
  9
$CHAMFERC
 40
0.0
  9
$CHAMFERD
 40
0.0
  9
$SKPOLY
 70
     0
  9
$TDCREATE
 40
2458382.572023056
  9
$TDUCREATE
 40
2458382.530356389
  9
$TDUPDATE
 40
2458382.572054479
  9
$TDUUPDATE
 40
2458382.530387812
  9
$TDINDWG
 40
0.0000000116
  9
$TDUSRTIMER
 40
0.0000000116
  9
$USRTIMER
 70
     1
  9
$ANGBASE
 50
0.0
  9
$ANGDIR
 70
     0
  9
$PDMODE
 70
     0
  9
$PDSIZE
 40
-1.0
  9
$PLINEWID
 40
0.0
  9
$SPLFRAME
 70
     0
  9
$SPLINETYPE
 70
     6
  9
$SPLINESEGS
 70
     8
  9
$HANDSEED
  5
10A
  9
$SURFTAB1
 70
     6
  9
$SURFTAB2
 70
     6
  9
$SURFTYPE
 70
     6
  9
$SURFU
 70
     6
  9
$SURFV
 70
     6
  9
$UCSBASE
  2

  9
$UCSNAME
  2

  9
$UCSORG
 10
0.0
 20
0.0
 30
0.0
  9
$UCSXDIR
 10
1.0
 20
0.0
 30
0.0
  9
$UCSYDIR
 10
0.0
 20
1.0
 30
0.0
  9
$UCSORTHOREF
  2

  9
$UCSORTHOVIEW
 70
     0
  9
$UCSORGTOP
 10
0.0
 20
0.0
 30
0.0
  9
$UCSORGBOTTOM
 10
0.0
 20
0.0
 30
0.0
  9
$UCSORGLEFT
 10
0.0
 20
0.0
 30
0.0
  9
$UCSORGRIGHT
 10
0.0
 20
0.0
 30
0.0
  9
$UCSORGFRONT
 10
0.0
 20
0.0
 30
0.0
  9
$UCSORGBACK
 10
0.0
 20
0.0
 30
0.0
  9
$PUCSBASE
  2

  9
$PUCSNAME
  2

  9
$PUCSORG
 10
0.0
 20
0.0
 30
0.0
  9
$PUCSXDIR
 10
1.0
 20
0.0
 30
0.0
  9
$PUCSYDIR
 10
0.0
 20
1.0
 30
0.0
  9
$PUCSORTHOREF
  2

  9
$PUCSORTHOVIEW
 70
     0
  9
$PUCSORGTOP
 10
0.0
 20
0.0
 30
0.0
  9
$PUCSORGBOTTOM
 10
0.0
 20
0.0
 30
0.0
  9
$PUCSORGLEFT
 10
0.0
 20
0.0
 30
0.0
  9
$PUCSORGRIGHT
 10
0.0
 20
0.0
 30
0.0
  9
$PUCSORGFRONT
 10
0.0
 20
0.0
 30
0.0
  9
$PUCSORGBACK
 10
0.0
 20
0.0
 30
0.0
  9
$USERI1
 70
     0
  9
$USERI2
 70
     0
  9
$USERI3
 70
     0
  9
$USERI4
 70
     0
  9
$USERI5
 70
     0
  9
$USERR1
 40
0.0
  9
$USERR2
 40
0.0
  9
$USERR3
 40
0.0
  9
$USERR4
 40
0.0
  9
$USERR5
 40
0.0
  9
$WORLDVIEW
 70
     1
  9
$SHADEDGE
 70
     3
  9
$SHADEDIF
 70
    70
  9
$TILEMODE
 70
     1
  9
$MAXACTVP
 70
    64
  9
$PINSBASE
 10
0.0
 20
0.0
 30
0.0
  9
$PLIMCHECK
 70
     0
  9
$PEXTMIN
 10
-99.0
 20
-68.5
 30
0.0
  9
$PEXTMAX
 10
118.4403858487
 20
84.1
 30
0.0
  9
$PLIMMIN
 10
-115.9214308053
 20
-74.845536552
  9
$PLIMMAX
 10
135.3618166541
 20
102.8294869042
  9
$UNITMODE
 70
     0
  9
$VISRETAIN
 70
     1
  9
$PLINEGEN
 70
     0
  9
$PSLTSCALE
 70
     1
  9
$TREEDEPTH
 70
  3020
  9
$CMLSTYLE
  2
Standard
  9
$CMLJUST
 70
     0
  9
$CMLSCALE
 40
20.0
  9
$PROXYGRAPHICS
 70
     1
  9
$MEASUREMENT
 70
     1
  9
$CELWEIGHT
370
    -1
  9
$ENDCAPS
280
     0
  9
$JOINSTYLE
280
     0
  9
$LWDISPLAY
290
     1
  9
$INSUNITS
 70
     4
  9
$HYPERLINKBASE
  1

  9
$STYLESHEET
  1

  9
$XEDIT
290
     1
  9
$CEPSNTYPE
380
     0
  9
$PSTYLEMODE
290
     1
  9
$FINGERPRINTGUID
  2
{E4048894-B391-4A38-BF03-716A0310659A}
  9
$VERSIONGUID
  2
{FAEB1C32-E019-11D5-929B-00C0DF256EC4}
  9
$EXTNAMES
290
     1
  9
$PSVPSCALE
 40
0.0
  9
$OLESTARTUP
290
     0
  0
ENDSEC
  0
SECTION
  2
CLASSES
  0
CLASS
  1
ACDBDICTIONARYWDFLT
  2
AcDbDictionaryWithDefault
  3
ObjectDBX Classes
 90
        0
280
     0
281
     0
  0
CLASS
  1
VISUALSTYLE
  2
AcDbVisualStyle
  3
ObjectDBX Classes
 90
     4095
280
     0
281
     0
  0
CLASS
  1
MATERIAL
  2
AcDbMaterial
  3
ObjectDBX Classes
 90
     1153
280
     0
281
     0
  0
CLASS
  1
SCALE
  2
AcDbScale
  3
ObjectDBX Classes
 90
     1153
280
     0
281
     0
  0
CLASS
  1
TABLESTYLE
  2
AcDbTableStyle
  3
ObjectDBX Classes
 90
     4095
280
     0
281
     0
  0
CLASS
  1
MLEADERSTYLE
  2
AcDbMLeaderStyle
  3
ACDB_MLEADERSTYLE_CLASS
 90
     4095
280
     0
281
     0
  0
CLASS
  1
SUN
  2
AcDbSun
  3
SCENEOE
 90
     1153
280
     0
281
     0
  0
CLASS
  1
ACDBPLACEHOLDER
  2
AcDbPlaceHolder
  3
ObjectDBX Classes
 90
        0
280
     0
281
     0
  0
CLASS
  1
LAYOUT
  2
AcDbLayout
  3
ObjectDBX Classes
 90
        0
280
     0
281
     0
  0
ENDSEC
  0
SECTION
  2
TABLES
  0
TABLE
  2
VPORT
  5
8
330
0
100
AcDbSymbolTable
 70
     1
  0
VPORT
  5
29
330
8
100
AcDbSymbolTableRecord
100
AcDbViewportTableRecord
  2
*Active
 70
     0
 10
0.0
 20
0.0
 11
1.0
 21
1.0
 12
9.7201929244
 22
24.9701929244
 13
0.0
 23
0.0
 14
10.0
 24
10.0
 15
10.0
 25
10.0
 16
0.0
 26
0.0
 36
1.0
 17
0.0
 27
0.0
 37
0.0
 40
190.6791935657
 41
1.1631536164
 42
50.0
 43
0.0
 44
0.0
 50
0.0
 51
0.0
 71
     0
 72
   100
 73
     1
 74
     3
 75
     0
 76
     0
 77
     0
 78
     0
281
     0
 65
     1
110
0.0
120
0.0
130
0.0
111
1.0
121
0.0
131
0.0
112
0.0
122
1.0
132
0.0
 79
     0
146
0.0
  0
ENDTAB
  0
TABLE
  2
LTYPE
  5
5
330
0
100
AcDbSymbolTable
 70
     6
  0
LTYPE
  5
14
330
5
100
AcDbSymbolTableRecord
100
AcDbLinetypeTableRecord
  2
ByBlock
 70
     0
  3

 72
    65
 73
     0
 40
0.0
  0
LTYPE
  5
15
330
5
100
AcDbSymbolTableRecord
100
AcDbLinetypeTableRecord
  2
ByLayer
 70
     0
  3

 72
    65
 73
     0
 40
0.0
  0
LTYPE
  5
16
330
5
100
AcDbSymbolTableRecord
100
AcDbLinetypeTableRecord
  2
Continuous
 70
     0
  3
Solid line
 72
    65
 73
     0
 40
0.0
  0
LTYPE
  5
6E
330
5
100
AcDbSymbolTableRecord
100
AcDbLinetypeTableRecord
  2
HIDDEN
 70
     0
  3
Hidden __ __ __ __ __ __ __ __ __ __ __ __ __ __
 72
    65
 73
     2
 40
1.905
 49
1.27
 74
     0
 49
-0.635
 74
     0
  0
LTYPE
  5
6F
330
5
100
AcDbSymbolTableRecord
100
AcDbLinetypeTableRecord
  2
PHANTOM
 70
     0
  3
Phantom ______  __  __  ______  __  __  ______
 72
    65
 73
     6
 40
12.7
 49
6.35
 74
     0
 49
-1.27
 74
     0
 49
1.27
 74
     0
 49
-1.27
 74
     0
 49
1.27
 74
     0
 49
-1.27
 74
     0
  0
LTYPE
  5
70
330
5
100
AcDbSymbolTableRecord
100
AcDbLinetypeTableRecord
  2
CENTER
 70
     0
  3
Center ____ _ ____ _ ____ _ ____ _ ____ _ ____
 72
    65
 73
     4
 40
10.16
 49
6.35
 74
     0
 49
-1.27
 74
     0
 49
1.27
 74
     0
 49
-1.27
 74
     0
  0
LTYPE
  5
71
330
5
100
AcDbSymbolTableRecord
100
AcDbLinetypeTableRecord
  2
CENTERX2
 70
     0
  3
Center (2x) ________  __  ________  __  _____
 72
    65
 73
     4
 40
20.32
 49
12.7
 74
     0
 49
-2.54
 74
     0
 49
2.54
 74
     0
 49
-2.54
 74
     0
  0
LTYPE
  5
72
330
5
100
AcDbSymbolTableRecord
100
AcDbLinetypeTableRecord
  2
DOT2
 70
     0
  3
Dot (.5x) ........................................
 72
    65
 73
     2
 40
0.635
 49
0.0
 74
     0
 49
-0.635
 74
     0
  0
ENDTAB
  0
TABLE
  2
LAYER
  5
2
330
0
100
AcDbSymbolTable
 70
     1
  0
LAYER
  5
10
330
2
100
AcDbSymbolTableRecord
100
AcDbLayerTableRecord
  2
0
 70
     0
 62
     7
  6
Continuous
370
    -3
390
F
  0
ENDTAB
  0
TABLE
  2
STYLE
  5
3
330
0
100
AcDbSymbolTable
 70
     1
  0
STYLE
  5
11
330
3
100
AcDbSymbolTableRecord
100
AcDbTextStyleTableRecord
  2
Standard
 70
     0
 40
0.0
 41
1.0
 50
0.0
 71
     0
 42
6.35
  3
txt
  4

  0
ENDTAB
  0
TABLE
  2
VIEW
  5
6
330
0
100
AcDbSymbolTable
 70
     0
  0
ENDTAB
  0
TABLE
  2
UCS
  5
7
330
0
100
AcDbSymbolTable
 70
     0
  0
ENDTAB
  0
TABLE
  2
APPID
  5
9
330
0
100
AcDbSymbolTable
 70
     1
  0
APPID
  5
12
330
9
100
AcDbSymbolTableRecord
100
AcDbRegAppTableRecord
  2
ACAD
 70
     0
  0
ENDTAB
  0
TABLE
  2
DIMSTYLE
  5
A
330
0
100
AcDbSymbolTable
 70
     1
100
AcDbDimStyleTable
  0
DIMSTYLE
105
27
330
A
100
AcDbSymbolTableRecord
100
AcDbDimStyleTableRecord
  2
ISO-25
 70
     0
 41
2.5
 42
0.625
 43
3.75
 44
1.25
 73
     0
 74
     0
 77
     1
 78
     8
140
2.5
141
2.5
143
0.0393700787
147
0.625
171
     3
172
     1
178
     0
271
     2
272
     2
274
     3
278
    44
283
     0
284
     8
340
11
  0
ENDTAB
  0
TABLE
  2
BLOCK_RECORD
  5
1
330
0
100
AcDbSymbolTable
 70
     1
  0
BLOCK_RECORD
  5
1F
330
1
100
AcDbSymbolTableRecord
100
AcDbBlockTableRecord
  2
*Model_Space
340
22
  0
BLOCK_RECORD
  5
1B
330
1
100
AcDbSymbolTableRecord
100
AcDbBlockTableRecord
  2
*Paper_Space
340
1E
  0
BLOCK_RECORD
  5
23
330
1
100
AcDbSymbolTableRecord
100
AcDbBlockTableRecord
  2
*Paper_Space0
340
26
  0
ENDTAB
  0
ENDSEC
  0
SECTION
  2
BLOCKS
  0
BLOCK
  5
20
330
1F
100
AcDbEntity
  8
0
100
AcDbBlockBegin
  2
*Model_Space
 70
     0
 10
0.0
 20
0.0
 30
0.0
  3
*Model_Space
  1

  0
ENDBLK
  5
21
330
1F
100
AcDbEntity
  8
0
100
AcDbBlockEnd
  0
BLOCK
  5
1C
330
1B
100
AcDbEntity
 67
     1
  8
0
100
AcDbBlockBegin
  2
*Paper_Space
 70
     0
 10
0.0
 20
0.0
 30
0.0
  3
*Paper_Space
  1

  0
ENDBLK
  5
1D
330
1B
100
AcDbEntity
 67
     1
  8
0
100
AcDbBlockEnd
  0
BLOCK
  5
24
330
23
100
AcDbEntity
  8
0
100
AcDbBlockBegin
  2
*Paper_Space0
 70
     0
 10
0.0
 20
0.0
 30
0.0
  3
*Paper_Space0
  1

  0
SPLINE
  5
C2
330
23
100
AcDbEntity
  8
0
  6
Continuous
 62
     7
370
    25
100
AcDbSpline
210
0.0
220
0.0
230
1.0
 70
     8
 71
     3
 72
    13
 73
     9
 74
     0
 42
0.000000001
 43
0.00000001
 40
0.0
 40
0.0
 40
0.0
 40
0.0
 40
0.1642799494714605
 40
0.4214560202711664
 40
0.6349605356183858
 40
0.8152437385733048
 40
0.9631864665571516
 40
1.0
 40
1.0
 40
1.0
 40
1.0
 10
-68.54659992280767
 20
-10.51748618675365
 30
0.0
 10
-68.48275555484574
 20
-10.51334832745306
 30
0.0
 10
-68.31896445724355
 20
-10.50273275495697
 30
0.0
 10
-68.08435041541142
 20
-10.59880529938593
 30
0.0
 10
-67.87566385304713
 20
-10.74070131501694
 30
0.0
 10
-67.73646231957697
 20
-10.89883024676058
 30
0.0
 10
-67.6597345525546
 20
-11.01854617413477
 30
0.0
 10
-67.63345761584446
 20
-11.08490575202535
 30
0.0
 10
-67.62822181554799
 20
-11.09812820262628
 30
0.0
  0
SPLINE
  5
C3
330
23
100
AcDbEntity
  8
0
  6
Continuous
 62
     7
370
    25
100
AcDbSpline
210
0.0
220
0.0
230
1.0
 70
     8
 71
     3
 72
    12
 73
     8
 74
     0
 42
0.000000001
 43
0.00000001
 40
0.0
 40
0.0
 40
0.0
 40
0.0
 40
0.0613550496815806
 40
0.3675534624020358
 40
0.6258556740787918
 40
0.9205092940028676
 40
1.0
 40
1.0
 40
1.0
 40
1.0
 10
-67.62558801045324
 20
11.11363074883416
 30
0.0
 10
-67.63349324984542
 20
11.09109303344175
 30
0.0
 10
-67.68085036429314
 20
10.95607863169154
 30
0.0
 10
-67.8441785287072
 20
10.76063442983947
 30
0.0
 10
-68.12155802960494
 20
10.57765665955895
 30
0.0
 10
-68.36585603562196
 20
10.49092528573957
 30
0.0
 10
-68.51085040591052
 20
10.50873700585191
 30
0.0
 10
-68.54165591079547
 20
10.51252128402656
 30
0.0
  0
SPLINE
  5
C9
330
23
100
AcDbEntity
  8
0
  6
Continuous
 62
     7
370
    25
100
AcDbSpline
210
0.0
220
0.0
230
1.0
 70
     8
 71
     3
 72
    33
 73
    29
 74
     0
 42
0.000000001
 43
0.00000001
 40
0.0
 40
0.0
 40
0.0
 40
0.0
 40
0.0367849002690191
 40
0.0804111731026036
 40
0.1269097800602831
 40
0.1749447208039152
 40
0.2210962878321961
 40
0.2648605371008192
 40
0.3061735298720913
 40
0.3450310050121987
 40
0.3814760218584941
 40
0.4155870161922048
 40
0.4474788218185184
 40
0.4773521724359305
 40
0.5063386780083632
 40
0.5374546621805383
 40
0.5710552811546136
 40
0.6073134384688373
 40
0.6463858148989511
 40
0.6882321324131897
 40
0.7313459188376354
 40
0.7750658330614744
 40
0.8190123364422637
 40
0.8627838302534743
 40
0.9059742763771588
 40
0.9481911931066547
 40
0.9757797726111505
 40
1.0
 40
1.0
 40
1.0
 40
1.0
 10
-46.02992259274152
 20
-16.47542162586025
 30
0.0
 10
-45.48237097251081
 20
-17.87830300394418
 30
0.0
 10
-44.28543234293768
 20
-20.94497809373731
 30
0.0
 10
-41.76367541215605
 20
-25.50368602353974
 30
0.0
 10
-38.51867081899795
 20
-30.14916276820193
 30
0.0
 10
-34.66004443734714
 20
-34.45027139730212
 30
0.0
 10
-30.40672601633051
 20
-38.19396647511324
 30
0.0
 10
-25.98297200708251
 20
-41.27685130715274
 30
0.0
 10
-21.51792375210703
 20
-43.72710737878444
 30
0.0
 10
-17.1057114676817
 20
-45.59953410825768
 30
0.0
 10
-12.81855052021051
 20
-46.95848134466049
 30
0.0
 10
-8.707599878490702
 20
-47.8716017904719
 30
0.0
 10
-4.803055823896712
 20
-48.40555101959995
 30
0.0
 10
-1.079458810937395
 20
-48.62390621341048
 30
0.0
 10
2.618036801816822
 20
-48.56800793020677
 30
0.0
 10
6.453869439987877
 20
-48.2204446755247
 30
0.0
 10
10.54380661416263
 20
-47.5124964100016
 30
0.0
 10
14.87256671839358
 20
-46.36609222147587
 30
0.0
 10
19.3919825613874
 20
-44.69957228785851
 30
0.0
 10
23.97221460156186
 20
-42.4603087138887
 30
0.0
 10
28.44861967724462
 20
-39.64550469642161
 30
0.0
 10
32.65799901855571
 20
-36.30793795506115
 30
0.0
 10
36.49247842115771
 20
-32.5103816774977
 30
0.0
 10
39.8691153035822
 20
-28.33269256579835
 30
0.0
 10
42.73237311599195
 20
-23.87254691302505
 30
0.0
 10
44.79176877841223
 20
-19.72811353256264
 30
0.0
 10
46.22076288941714
 20
-16.14250590885943
 30
0.0
 10
46.82378377628512
 20
-14.10238927427597
 30
0.0
 10
47.10569150348361
 20
-13.14865009840368
 30
0.0
  0
SPLINE
  5
CB
330
23
100
AcDbEntity
  8
0
  6
Continuous
 62
     7
370
    25
100
AcDbSpline
210
0.0
220
0.0
230
1.0
 70
     8
 71
     3
 72
    45
 73
    41
 74
     0
 42
0.000000001
 43
0.00000001
 40
0.0
 40
0.0
 40
0.0
 40
0.0
 40
0.0047928202066975
 40
0.0329883303063844
 40
0.0610271969865309
 40
0.0889367142530426
 40
0.1167445905109354
 40
0.1444762875866622
 40
0.1721537284966347
 40
0.1997948989417686
 40
0.2274139685234689
 40
0.2550216757964591
 40
0.2826254429289921
 40
0.3102294170971626
 40
0.3378376008589973
 40
0.3654522969847366
 40
0.3930744733821948
 40
0.4207040674680628
 40
0.448340234539545
 40
0.4759815487328681
 40
0.5036261658156111
 40
0.5191721952372426
 40
0.5335217630211149
 40
0.5611627210553392
 40
0.5888026975820484
 40
0.6164358923069226
 40
0.644060166642787
 40
0.6716736673573654
 40
0.6992749634643235
 40
0.7268632148456291
 40
0.7544383805168229
 40
0.782001475594957
 40
0.8095548851036093
 40
0.8371027400446799
 40
0.8646495227814024
 40
0.8922028344426256
 40
0.919773757859973
 40
0.9473768786890387
 40
0.9750306650503934
 40
1.0
 40
1.0
 40
1.0
 40
1.0
 10
45.46943953826761
 20
2.461355744896556
 30
0.0
 10
45.40832527088862
 20
2.349532926763955
 30
0.0
 10
44.98768407180645
 20
1.579871662359726
 30
0.0
 10
44.02833731392938
 20
0.1930480787948469
 30
0.0
 10
42.58808701882462
 20
-1.683177814693577
 30
0.0
 10
40.96117169562985
 20
-3.490223828098608
 30
0.0
 10
39.17547188025782
 20
-5.225916457974926
 30
0.0
 10
37.23166015495421
 20
-6.88264951446442
 30
0.0
 10
35.13833852122318
 20
-8.454276654872404
 30
0.0
 10
32.90278069832802
 20
-9.934333430596762
 30
0.0
 10
30.53345717685008
 20
-11.31660598346704
 30
0.0
 10
28.03938596578192
 20
-12.5950806316138
 30
0.0
 10
25.43031863149023
 20
-13.76405221076038
 30
0.0
 10
22.71660171579818
 20
-14.81822138566397
 30
0.0
 10
19.90912239686477
 20
-15.75275852481068
 30
0.0
 10
17.01921453789513
 20
-16.56335351057316
 30
0.0
 10
14.05865816465708
 20
-17.24623270352082
 30
0.0
 10
11.03962213981421
 20
-17.79819469098801
 30
0.0
 10
7.974568255445464
 20
-18.21663829961544
 30
0.0
 10
4.876294223916191
 20
-18.49958398626217
 30
0.0
 10
2.212495689110961
 20
-18.62437262311578
 30
0.0
 10
0.0450642173616886
 20
-18.65120239853938
 30
0.0
 10
-2.122199258409676
 20
-18.62643982954872
 30
0.0
 10
-4.741318308224108
 20
-18.50876574669607
 30
0.0
 10
-7.840421942008558
 20
-18.23176967412751
 30
0.0
 10
-10.90680786375234
 20
-17.81923899708436
 30
0.0
 10
-13.92746385993511
 20
-17.27317808446459
 30
0.0
 10
-16.88983354451929
 20
-16.59622211867542
 30
0.0
 10
-19.78162763347079
 20
-15.79163484115774
 30
0.0
 10
-22.59092566920193
 20
-14.86328951603894
 30
0.0
 10
-25.30623683759339
 20
-13.81564363544496
 30
0.0
 10
-27.91656825796442
 20
-12.65370455842455
 30
0.0
 10
-30.41150448949369
 20
-11.3829897498275
 30
0.0
 10
-32.78117586636786
 20
-10.00948983610927
 30
0.0
 10
-35.01651372332752
 20
-8.539651104104456
 30
0.0
 10
-37.10870089190076
 20
-6.980116786137983
 30
0.0
 10
-39.05158341575111
 20
-5.338248720202866
 30
0.0
 10
-40.83297012215428
 20
-3.619570432696211
 30
0.0
 10
-42.41283756389613
 20
-1.896042441962255
 30
0.0
 10
-43.30928718508686
 20
-0.7211774044230367
 30
0.0
 10
-43.73464680457216
 20
-0.1637114481649743
 30
0.0
  0
SPLINE
  5
CC
330
23
100
AcDbEntity
  8
0
  6
Continuous
 62
     7
370
    25
100
AcDbSpline
210
0.0
220
0.0
230
1.0
 70
     8
 71
     3
 72
     9
 73
     5
 74
     0
 42
0.000000001
 43
0.00000001
 40
0.0
 40
0.0
 40
0.0
 40
0.0
 40
0.4132427006053138
 40
0.9999999999999999
 40
0.9999999999999999
 40
0.9999999999999999
 40
0.9999999999999999
 10
-44.89632176747377
 20
1.531742373281499
 30
0.0
 10
-44.98619110258259
 20
1.660929230721451
 30
0.0
 10
-45.20366459933685
 20
1.973546627836321
 30
0.0
 10
-45.37608556789078
 20
2.296088970337923
 30
0.0
 10
-45.47725482975849
 20
2.485343044164597
 30
0.0
  0
SPLINE
  5
CD
330
23
100
AcDbEntity
  8
0
  6
Continuous
 62
     7
370
    25
100
AcDbSpline
210
0.0
220
0.0
230
1.0
 70
     8
 71
     3
 72
    12
 73
     8
 74
     0
 42
0.000000001
 43
0.00000001
 40
0.0
 40
0.0
 40
0.0
 40
0.0
 40
0.0655778900778733
 40
0.3442047840453311
 40
0.5937568352808361
 40
0.8438308524751931
 40
1.0
 40
1.0
 40
1.0
 40
1.0
 10
-68.27668714522397
 20
70.65799809846733
 30
0.0
 10
-68.27555666677898
 20
70.66121002357261
 30
0.0
 10
-68.26962301919497
 20
70.67806875425018
 30
0.0
 10
-68.30035712623294
 20
70.60498967119099
 30
0.0
 10
-68.44469952388069
 20
70.44098545260726
 30
0.0
 10
-68.72366250844763
 20
70.26376422069931
 30
0.0
 10
-68.94248495372544
 20
70.26941514758987
 30
0.0
 10
-69.02660529766268
 20
70.27158749290388
 30
0.0
  0
SPLINE
  5
CE
330
23
100
AcDbEntity
  8
0
  6
Continuous
 62
     7
370
    25
100
AcDbSpline
210
0.0
220
0.0
230
1.0
 70
     8
 71
     3
 72
     9
 73
     5
 74
     0
 42
0.000000001
 43
0.00000001
 40
0.0
 40
0.0
 40
0.0
 40
0.0
 40
0.4816958935261205
 40
1.0
 40
1.0
 40
1.0
 40
1.0
 10
-69.02536377204694
 20
49.22711619578953
 30
0.0
 10
-68.9213986061637
 20
49.22718318653884
 30
0.0
 10
-68.7055670674678
 20
49.22732225924057
 30
0.0
 10
-68.57017451561255
 20
49.12829267781413
 30
0.0
 10
-68.5
 20
49.07696523909841
 30
0.0
  0
LWPOLYLINE
  5
D1
330
23
100
AcDbEntity
  8
0
  6
Continuous
 62
     7
370
    25
100
AcDbPolyline
 90
       37
 70
   128
 43
0.0
 10
0.0
 20
15.5222541801
 10
-0.0425839701
 20
15.5258556635
 10
-0.0838740479
 20
15.5365506843
 10
-0.1226156552
 20
15.5540142797
 10
-0.1576316478
 20
15.5777158274
 10
-0.1878580826
 20
15.6069351676
 10
-0.2123765446
 20
15.6407844856
 10
-0.2304420527
 20
15.6782352869
 10
-0.2415056957
 20
15.7181496479
 10
-0.2452313103
 20
15.759314791
 10
-0.2415056957
 20
15.8004799341
 10
-0.2304420527
 20
15.8403942951
 10
-0.2123765446
 20
15.8778450965
 10
-0.1878580826
 20
15.9116944145
 10
-0.1576316478
 20
15.9409137547
 10
-0.1226156552
 20
15.9646153023
 10
-0.0838740479
 20
15.9820788978
 10
-0.0425839701
 20
15.9927739186
 10
0.0
 20
15.9963754019
 10
0.0425839701
 20
15.9927739186
 10
0.0838740479
 20
15.9820788978
 10
0.1226156552
 20
15.9646153023
 10
0.1576316478
 20
15.9409137547
 10
0.1878580826
 20
15.9116944145
 10
0.2123765446
 20
15.8778450965
 10
0.2304420527
 20
15.8403942951
 10
0.2415056957
 20
15.8004799341
 10
0.2452313103
 20
15.759314791
 10
0.2415056957
 20
15.7181496479
 10
0.2304420527
 20
15.6782352869
 10
0.2123765446
 20
15.6407844856
 10
0.1878580826
 20
15.6069351676
 10
0.1576316478
 20
15.5777158274
 10
0.1226156552
 20
15.5540142797
 10
0.0838740479
 20
15.5365506843
 10
0.0425839701
 20
15.5258556635
 10
0.0
 20
15.5222541801
  0
CIRCLE
  5
D2
330
23
100
AcDbEntity
  8
0
  6
Continuous
 62
     7
370
    25
100
AcDbCircle
 10
0.0
 20
0.0
 30
0.0
 40
68.50000000000003
  0
CIRCLE
  5
D3
330
23
100
AcDbEntity
  8
0
  6
Continuous
 62
     7
370
    25
100
AcDbCircle
 10
0.0
 20
0.0
 30
0.0
 40
56.80646649687125
  0
CIRCLE
  5
D4
330
23
100
AcDbEntity
  8
0
  6
Continuous
 62
     7
370
    25
100
AcDbCircle
 10
0.0
 20
0.0
 30
0.0
 40
56.30646649685842
  0
CIRCLE
  5
D5
330
23
100
AcDbEntity
  8
0
  6
Continuous
 62
     7
370
    25
100
AcDbCircle
 10
0.0
 20
0.0
 30
0.0
 40
55.79999999999946
  0
CIRCLE
  5
D8
330
23
100
AcDbEntity
  8
0
  6
Continuous
 62
     7
370
    25
100
AcDbCircle
 10
0.0
 20
0.0
 30
0.0
 40
51.71999999999925
  0
CIRCLE
  5
D9
330
23
100
AcDbEntity
  8
0
  6
Continuous
 62
     7
370
    25
100
AcDbCircle
 10
0.0
 20
0.0
 30
0.0
 40
48.99999999999955
  0
LWPOLYLINE
  5
DA
330
23
100
AcDbEntity
  8
0
  6
Continuous
 62
     7
370
    25
100
AcDbPolyline
 90
       57
 70
   128
 43
0.0
 10
68.5
 20
70.0035713375
 10
68.4720652087
 20
71.3867354729
 10
68.2487235641
 20
74.14855215
 10
67.8027687688
 20
76.8968487611
 10
67.1356554348
 20
79.6226609341
 10
66.2495595471
 20
82.3170976362
 10
65.1473713662
 20
84.9713701748
 10
63.832686001
 20
87.5768208648
 10
62.3097916818
 20
90.1249512674
 10
60.5836557734
 20
92.607449911
 10
58.6599085722
 20
95.016219401
 10
56.5448249419
 20
97.3434028319
 10
54.2453038457
 20
99.5814094151
 10
51.7688458433
 20
101.7229392383
 10
49.123528626
 20
103.7610070764
 10
46.3179806688
 20
105.6889651756
 10
43.3613530859
 20
107.5005249375
 10
40.263289782
 20
109.1897774305
 10
37.0338959957
 20
110.7512126642
 10
33.6837053382
 20
112.1797375613
 10
30.2236454352
 20
113.4706925707
 10
26.6650022827
 20
114.6198668653
 10
23.0193834353
 20
115.6235120776
 10
19.2986801436
 20
116.4783545253
 10
15.5150285687
 20
117.1816058902
 10
11.6807701953
 20
117.7309723124
 10
7.8084115775
 20
118.1246618729
 10
3.9105835441
 20
118.3613904381
 10
0.0
 20
118.4403858487
 10
-3.9105835441
 20
118.3613904381
 10
-7.8084115775
 20
118.1246618729
 10
-11.6807701953
 20
117.7309723124
 10
-15.5150285687
 20
117.1816058902
 10
-19.2986801436
 20
116.4783545253
 10
-23.0193834353
 20
115.6235120776
 10
-26.6650022827
 20
114.6198668653
 10
-30.2236454352
 20
113.4706925707
 10
-33.6837053382
 20
112.1797375613
 10
-37.0338959957
 20
110.7512126642
 10
-40.263289782
 20
109.1897774305
 10
-43.3613530859
 20
107.5005249375
 10
-46.3179806688
 20
105.6889651756
 10
-49.123528626
 20
103.7610070764
 10
-51.7688458433
 20
101.7229392383
 10
-54.2453038457
 20
99.5814094151
 10
-56.544824942
 20
97.3434028319
 10
-58.6599085722
 20
95.016219401
 10
-60.5836557734
 20
92.607449911
 10
-62.3097916818
 20
90.1249512674
 10
-63.832686001
 20
87.5768208648
 10
-65.1473713662
 20
84.9713701748
 10
-66.2495595471
 20
82.3170976362
 10
-67.1356554348
 20
79.6226609341
 10
-67.8027687688
 20
76.8968487611
 10
-68.2487235641
 20
74.14855215
 10
-68.4720652087
 20
71.3867354729
 10
-68.4932931871
 20
70.6813575814
  0
SPLINE
  5
DB
330
23
100
AcDbEntity
  8
0
  6
Continuous
 62
     7
370
    25
100
AcDbSpline
210
0.0
220
0.0
230
1.0
 70
     8
 71
     3
 72
    12
 73
     8
 74
     0
 42
0.000000001
 43
0.00000001
 40
0.0
 40
0.0
 40
0.0
 40
0.0
 40
0.2081219382731438
 40
0.4221384851943702
 40
0.6322796488643178
 40
0.8487946393668605
 40
1.0
 40
1.0
 40
1.0
 40
1.0
 10
-68.02313296335417
 20
59.74489372077376
 30
0.0
 10
-68.07472477010694
 20
59.12124633063784
 30
0.0
 10
-68.17936961116386
 20
57.8562880722639
 30
0.0
 10
-68.32061386795712
 20
56.00438443155635
 30
0.0
 10
-68.42930556174903
 20
54.23684765310669
 30
0.0
 10
-68.4927695786313
 20
52.75374486621807
 30
0.0
 10
-68.49432830785489
 20
51.96498102145174
 30
0.0
 10
-68.49496925202253
 20
51.64064400492836
 30
0.0
  0
SPLINE
  5
DC
330
23
100
AcDbEntity
  8
0
  6
Continuous
 62
     7
370
    25
100
AcDbSpline
210
0.0
220
0.0
230
1.0
 70
     8
 71
     3
 72
     9
 73
     5
 74
     0
 42
0.000000001
 43
0.00000001
 40
0.0
 40
0.0
 40
0.0
 40
0.0
 40
0.2129534966736646
 40
1.0
 40
1.0
 40
1.0
 40
1.0
 10
-68.29525371814799
 20
70.66675738833356
 30
0.0
 10
-68.29207409834112
 20
70.68672447816984
 30
0.0
 10
-68.27714304599154
 20
70.78048715475484
 30
0.0
 10
-68.25667470303205
 20
70.81348312395257
 30
0.0
 10
-68.24056516527689
 20
70.83945248613352
 30
0.0
  0
SPLINE
  5
DD
330
23
100
AcDbEntity
  8
0
  6
Continuous
 62
     7
370
    25
100
AcDbSpline
210
0.0
220
0.0
230
1.0
 70
     8
 71
     3
 72
    14
 73
    10
 74
     0
 42
0.000000001
 43
0.00000001
 40
0.0
 40
0.0
 40
0.0
 40
0.0
 40
0.0167084121544787
 40
0.1786945650325069
 40
0.3453404592216512
 40
0.5055691130919117
 40
0.670286977989334
 40
0.8328077383909691
 40
1.0
 40
1.0
 40
1.0
 40
1.0
 10
-67.61407772466177
 20
69.48942349680642
 30
0.0
 10
-67.61084080934317
 20
69.45990239052867
 30
0.0
 10
-67.57622236867063
 20
69.14417752111503
 30
0.0
 10
-67.55331627482605
 20
68.26901543427891
 30
0.0
 10
-67.55678545048244
 20
66.90143225445222
 30
0.0
 10
-67.61766012556264
 20
65.29677360840087
 30
0.0
 10
-67.72211921608735
 20
63.55920691364976
 30
0.0
 10
-67.86267811018553
 20
61.68667454572955
 30
0.0
 10
-67.96914519008682
 20
60.39823901287549
 30
0.0
 10
-68.02313296335417
 20
59.74489372077376
 30
0.0
  0
SPLINE
  5
DE
330
23
100
AcDbEntity
  8
0
  6
Continuous
 62
     7
370
    25
100
AcDbSpline
210
0.0
220
0.0
230
1.0
 70
     8
 71
     3
 72
     9
 73
     5
 74
     0
 42
0.000000001
 43
0.00000001
 40
0.0
 40
0.0
 40
0.0
 40
0.0
 40
0.4098437127033926
 40
1.0
 40
1.0
 40
1.0
 40
1.0
 10
-48.19774067711123
 20
8.959943671063176
 30
0.0
 10
-47.925190778733
 20
8.004662932296478
 30
0.0
 10
-47.26018143509697
 20
5.673821420868828
 30
0.0
 10
-46.01729801971601
 20
3.424637198689167
 30
0.0
 10
-45.28380255775225
 20
2.097266988681509
 30
0.0
  0
LWPOLYLINE
  5
DF
330
23
100
AcDbEntity
  8
0
  6
Continuous
 62
     7
370
    25
100
AcDbPolyline
 90
       36
 70
   128
 43
0.0
 10
-45.2838025578
 20
2.0972669887
 10
-43.9211551366
 20
-0.0719854474
 10
-42.3592868155
 20
-2.1701206152
 10
-40.6052820348
 20
-4.1876216346
 10
-38.6670967423
 20
-6.1153373717
 10
-36.5535223055
 20
-7.9445239475
 10
-34.2741456353
 20
-9.6668843991
 10
-31.839305701
 20
-11.2746063136
 10
-29.2600466338
 20
-12.7603972642
 10
-26.5480676323
 20
-14.1175178879
 10
-23.7156698961
 20
-15.3398124543
 10
-20.7757008292
 20
-16.421736787
 10
-17.741495766
 20
-17.3583834118
 10
-14.6268174832
 20
-18.1455038161
 10
-11.4457937746
 20
-18.7795277196
 10
-8.2128533682
 20
-19.2575792686
 10
-4.9426604798
 20
-19.5774900807
 10
-1.6500482979
 20
-19.7378090803
 10
1.650048298
 20
-19.7378090803
 10
4.9426604799
 20
-19.5774900807
 10
8.2128533683
 20
-19.2575792686
 10
11.4457937747
 20
-18.7795277196
 10
14.6268174834
 20
-18.1455038161
 10
17.7414957661
 20
-17.3583834118
 10
20.7757008294
 20
-16.4217367869
 10
23.7156698962
 20
-15.3398124542
 10
26.5480676324
 20
-14.1175178879
 10
29.2600466339
 20
-12.7603972642
 10
31.8393057011
 20
-11.2746063136
 10
34.2741456354
 20
-9.6668843991
 10
36.5535223056
 20
-7.9445239475
 10
38.6670967424
 20
-6.1153373716
 10
40.6052820349
 20
-4.1876216346
 10
42.3592868155
 20
-2.1701206152
 10
43.9211551367
 20
-0.0719854473
 10
45.2838025578
 20
2.0972669888
  0
SPLINE
  5
E0
330
23
100
AcDbEntity
  8
0
  6
Continuous
 62
     7
370
    25
100
AcDbSpline
210
0.0
220
0.0
230
1.0
 70
     8
 71
     3
 72
     9
 73
     5
 74
     0
 42
0.000000001
 43
0.00000001
 40
0.0
 40
0.0
 40
0.0
 40
0.0
 40
0.5430992673662685
 40
1.0
 40
1.0
 40
1.0
 40
1.0
 10
45.28380255780485
 20
2.097266988773369
 30
0.0
 10
45.94211440089659
 20
3.274243373109515
 30
0.0
 10
47.15425347500025
 20
5.441391176574307
 30
0.0
 10
47.81603436087548
 20
7.690313870194497
 30
0.0
 10
48.11840253247487
 20
8.717848296546187
 30
0.0
  0
LWPOLYLINE
  5
E1
330
23
100
AcDbEntity
  8
0
  6
Continuous
 62
     7
370
    25
100
AcDbPolyline
 90
       22
 70
   128
 43
0.0
 10
0.0
 20
-21.8343932683
 10
3.3079775961
 20
-21.7537127145
 10
6.6008616491
 20
-21.51203918
 10
9.8636274843
 20
-21.1104753656
 10
13.0813878497
 20
-20.5508535151
 10
16.2394608427
 20
-19.8357270545
 10
19.3234369006
 20
-18.9683589418
 10
22.3192445478
 20
-17.9527067788
 10
25.2132146014
 20
-16.7934047534
 10
27.9921425396
 20
-15.4957424947
 10
30.6433487518
 20
-14.0656409382
 10
33.1547363919
 20
-12.5096253091
 10
35.5148465742
 20
-10.8347953499
 10
37.7129106573
 20
-9.0487929255
 10
39.738899379
 20
-7.1597671555
 10
41.5835686172
 20
-5.176337231
 10
43.2385015695
 20
-3.1075530879
 10
44.6961471563
 20
-0.9628541138
 10
45.9498544752
 20
1.2479739218
 10
46.9939031472
 20
3.5148435176
 10
47.8235294176
 20
5.8274114677
 10
48.3657776958
 20
7.8588252857
  0
LWPOLYLINE
  5
E2
330
23
100
AcDbEntity
  8
0
  6
Continuous
 62
     7
370
    25
100
AcDbPolyline
 90
       22
 70
   128
 43
0.0
 10
-48.3657776958
 20
7.8588252857
 10
-47.8235294176
 20
5.8274114677
 10
-46.9939031472
 20
3.5148435176
 10
-45.9498544752
 20
1.2479739218
 10
-44.6961471563
 20
-0.9628541138
 10
-43.2385015695
 20
-3.1075530879
 10
-41.5835686172
 20
-5.176337231
 10
-39.738899379
 20
-7.1597671555
 10
-37.7129106573
 20
-9.0487929255
 10
-35.5148465742
 20
-10.8347953499
 10
-33.1547363919
 20
-12.5096253091
 10
-30.6433487518
 20
-14.0656409382
 10
-27.9921425396
 20
-15.4957424947
 10
-25.2132146014
 20
-16.7934047534
 10
-22.3192445478
 20
-17.9527067788
 10
-19.3234369006
 20
-18.9683589418
 10
-16.2394608427
 20
-19.8357270545
 10
-13.0813878497
 20
-20.5508535151
 10
-9.8636274843
 20
-21.1104753656
 10
-6.6008616491
 20
-21.51203918
 10
-3.3079775961
 20
-21.7537127145
 10
0.0
 20
-21.8343932683
  0
SPLINE
  5
E5
330
23
100
AcDbEntity
  8
0
  6
Continuous
 62
     7
370
    25
100
AcDbSpline
210
0.0
220
0.0
230
1.0
 70
     8
 71
     3
 72
    57
 73
    53
 74
     0
 42
0.000000001
 43
0.00000001
 40
0.0
 40
0.0
 40
0.0
 40
0.0
 40
0.0625
 40
0.0625
 40
0.0937500000000001
 40
0.0937500000000001
 40
0.1250000000000002
 40
0.1250000000000002
 40
0.1875000000000002
 40
0.1875000000000002
 40
0.2187500000000002
 40
0.2187500000000002
 40
0.2500000000000002
 40
0.2500000000000002
 40
0.3125000000000004
 40
0.3125000000000004
 40
0.3437500000000005
 40
0.3437500000000005
 40
0.3593750000000006
 40
0.3593750000000006
 40
0.3750000000000006
 40
0.3750000000000006
 40
0.4375000000000007
 40
0.4375000000000007
 40
0.4687500000000007
 40
0.4687500000000007
 40
0.4843750000000007
 40
0.4843750000000007
 40
0.5000000000000007
 40
0.5000000000000007
 40
0.5625000000000007
 40
0.5625000000000007
 40
0.6250000000000008
 40
0.6250000000000008
 40
0.6562500000000008
 40
0.6562500000000008
 40
0.6875000000000008
 40
0.7187500000000008
 40
0.7187500000000008
 40
0.7500000000000008
 40
0.7500000000000008
 40
0.8125000000000006
 40
0.8125000000000006
 40
0.8750000000000004
 40
0.8750000000000004
 40
0.8906250000000003
 40
0.8906250000000003
 40
0.9062500000000002
 40
0.9062500000000002
 40
0.9375000000000001
 40
0.9375000000000001
 40
1.0
 40
1.0
 40
1.0
 40
1.0
 10
45.28380255780485
 20
2.097266988773373
 30
0.0
 10
44.34181786267603
 20
0.5138776942144527
 30
0.0
 10
43.2435359047083
 20
-1.018277642149103
 30
0.0
 10
41.35601271787696
 20
-3.237806221923313
 30
0.0
 10
40.68542741638615
 20
-3.965276708530842
 30
0.0
 10
39.28330728063429
 20
-5.37226736144647
 30
0.0
 10
38.54960412333692
 20
-6.054548631929835
 30
0.0
 10
36.25205107412243
 20
-8.038715794693923
 30
0.0
 10
34.59226586844753
 20
-9.278255348069377
 30
0.0
 10
31.90717287775878
 20
-11.01056846893723
 30
0.0
 10
30.97561050699187
 20
-11.56875204609162
 30
0.0
 10
29.0701850492349
 20
-12.62772389935681
 30
0.0
 10
28.09562792399303
 20
-13.12934884541753
 30
0.0
 10
25.10787298000488
 20
-14.55248963058971
 30
0.0
 10
23.03092071803708
 20
-15.39269119237275
 30
0.0
 10
19.78744286655876
 20
-16.48967551898045
 30
0.0
 10
18.68486000775833
 20
-16.82801270849092
 30
0.0
 10
16.99802338077359
 20
-17.29347736398436
 30
0.0
 10
16.429236172203
 20
-17.44184278232474
 30
0.0
 10
15.28924294289264
 20
-17.72220919702694
 30
0.0
 10
14.71728108620959
 20
-17.85444898144655
 30
0.0
 10
11.84778760698998
 20
-18.47650480466184
 30
0.0
 10
9.521356451785701
 20
-18.84951018744348
 30
0.0
 10
5.986279219242729
 20
-19.22539015460481
 30
0.0
 10
4.800318303813268
 20
-19.31995717826628
 30
0.0
 10
3.00980445527288
 20
-19.41503227076842
 30
0.0
 10
2.411035848005472
 20
-19.43892033347095
 30
0.0
 10
1.209585026556603
 20
-19.47087782968681
 30
0.0
 10
0.6058216246074901
 20
-19.47894318026552
 30
0.0
 10
-2.409719261109109
 20
-19.4790633257172
 30
0.0
 10
-4.793454223884919
 20
-19.35168232429087
 30
0.0
 10
-9.505721866686832
 20
-18.85170845184073
 30
0.0
 10
-11.83425033495308
 20
-18.47909687192567
 30
0.0
 10
-15.28459775127644
 20
-17.73163498114087
 30
0.0
 10
-16.43069838110488
 20
-17.44992003060759
 30
0.0
 10
-18.67958727164299
 20
-16.82957182785542
 30
0.0
 10
-20.89079297588524
 20
-16.15145387087332
 30
0.0
 10
-23.02729977931653
 20
-15.35881966499404
 30
0.0
 10
-25.12618995309038
 20
-14.50851773873661
 30
0.0
 10
-26.15957319918625
 20
-14.0530464062025
 30
0.0
 10
-29.16462639179434
 20
-12.61700081631222
 30
0.0
 10
-31.05187366839247
 20
-11.56386789206362
 30
0.0
 10
-34.60057240631379
 20
-9.271380881916661
 30
0.0
 10
-36.26203229675627
 20
-8.032033747787452
 30
0.0
 10
-38.19267594852715
 20
-6.362289424951019
 30
0.0
 10
-38.57138751809258
 20
-6.022274800479538
 30
0.0
 10
-39.30788417659772
 20
-5.335736249702128
 30
0.0
 10
-39.66648395596085
 20
-4.988524211221007
 30
0.0
 10
-40.71374369179325
 20
-3.935225732858799
 30
0.0
 10
-41.3739016550288
 20
-3.217492298530862
 30
0.0
 10
-43.24215735884034
 20
-1.018435392563684
 30
0.0
 10
-44.33862192792613
 20
0.5085056230054521
 30
0.0
 10
-45.28380255775187
 20
2.097266988681679
 30
0.0
  0
SPLINE
  5
EC
330
23
100
AcDbEntity
  8
0
  6
Continuous
 62
     8
370
    25
100
AcDbSpline
210
0.0
220
0.0
230
1.0
 70
     8
 71
     3
 72
    17
 73
    13
 74
     0
 42
0.000000001
 43
0.00000001
 40
0.0
 40
0.0
 40
0.0
 40
0.0
 40
0.1523127311927732
 40
0.2597983839943812
 40
0.3672920987883491
 40
0.3681033201701023
 40
0.4753412385660773
 40
0.5825804720899312
 40
0.6885478879966895
 40
0.7945081341173508
 40
0.9005506959129539
 40
1.0
 40
1.0
 40
1.0
 40
1.0
 10
-69.5
 20
0.0
 30
0.0
 10
-69.48953838350616
 20
0.8406265524307301
 30
0.0
 10
-69.47169410326917
 20
2.274475306596024
 30
0.0
 10
-69.35436694322091
 20
4.194333970483012
 30
0.0
 10
-69.26442657063734
 20
5.243951862854423
 30
0.0
 10
-69.16597126951727
 20
6.23373539664937
 30
0.0
 10
-69.05995537997345
 20
7.167676056097559
 30
0.0
 10
-68.89789560172433
 20
8.358262728549871
 30
0.0
 10
-68.75002369188006
 20
9.30982180057796
 30
0.0
 10
-68.63236949782777
 20
10.00034318515435
 30
0.0
 10
-68.55611589084972
 20
10.42491858687516
 30
0.0
 10
-68.54763775960379
 20
10.46973715228487
 30
0.0
 10
-68.54353470545733
 20
10.49142742757159
 30
0.0
  0
SPLINE
  5
ED
330
23
100
AcDbEntity
  8
0
  6
Continuous
 62
     8
370
    25
100
AcDbSpline
210
0.0
220
0.0
230
1.0
 70
     8
 71
     3
 72
    17
 73
    13
 74
     0
 42
0.000000001
 43
0.00000001
 40
0.0
 40
0.0
 40
0.0
 40
0.0
 40
0.0833267953407572
 40
0.1910961406553204
 40
0.2988734149441918
 40
0.4065049630866273
 40
0.5141409210187396
 40
0.6204892882423356
 40
0.726832315060904
 40
0.8327159143343371
 40
0.9385928825169612
 40
1.0
 40
1.0
 40
1.0
 40
1.0
 10
-68.5468555657073
 20
-10.47406966068866
 30
0.0
 10
-68.54811082780456
 20
-10.46693796489742
 30
0.0
 10
-68.55098956256595
 20
-10.45058260721853
 30
0.0
 10
-68.62077835946495
 20
-10.06788729005522
 30
0.0
 10
-68.73386468483707
 20
-9.407326739744093
 30
0.0
 10
-68.88205958464007
 20
-8.465386599985871
 30
0.0
 10
-69.04394471768029
 20
-7.296254970522713
 30
0.0
 10
-69.20234984390478
 20
-5.922937896562841
 30
0.0
 10
-69.34085510859319
 20
-4.395007133506594
 30
0.0
 10
-69.44226251507898
 20
-2.74317988919626
 30
0.0
 10
-69.49346962707001
 20
-1.258437880061542
 30
0.0
 10
-69.49824649408376
 20
-0.3379099925229639
 30
0.0
 10
-69.5
 20
0.0
 30
0.0
  0
LWPOLYLINE
  5
EE
330
23
100
AcDbEntity
  8
0
  6
Continuous
 62
     8
370
    25
100
AcDbPolyline
 90
       57
 70
   128
 43
0.0
 10
-67.7343214109
 20
11.086714256
 10
-67.5976167941
 20
12.0297637582
 10
-66.8985080661
 20
15.9847428381
 10
-66.0031744876
 20
19.8928359132
 10
-64.914242226
 20
23.742579873
 10
-63.6349053075
 20
27.5226827552
 10
-62.1689162475
 20
31.2220568669
 10
-60.5205750446
 20
34.8298513063
 10
-58.6947165675
 20
38.3354837906
 10
-56.6966963737
 20
41.7286716959
 10
-54.5323750008
 20
44.9994622174
 10
-52.2081007762
 20
48.1382615629
 10
-49.7306911967
 20
51.1358630931
 10
-47.1074129315
 20
53.9834743262
 10
-44.3459605076
 20
56.6727427279
 10
-41.4544337408
 20
59.1957802106
 10
-38.4413139773
 20
61.5451862707
 10
-35.3154392166
 20
63.7140696953
 10
-32.0859781879
 20
65.6960687757
 10
-28.7624034569
 20
67.4853699671
 10
-25.3544636408
 20
69.0767249408
 10
-21.8721548143
 20
70.4654659786
 10
-18.3256911893
 20
71.6475196635
 10
-14.7254751545
 20
72.6194188286
 10
-11.0820667639
 20
73.378312726
 10
-7.406152762
 20
73.9219753894
 10
-3.7085152381
 20
74.2488121623
 10
0.0
 20
74.3578643763
 10
3.7085152381
 20
74.2488121623
 10
7.406152762
 20
73.9219753894
 10
11.0820667639
 20
73.378312726
 10
14.7254751545
 20
72.6194188286
 10
18.3256911893
 20
71.6475196635
 10
21.8721548143
 20
70.4654659786
 10
25.3544636408
 20
69.0767249408
 10
28.7624034569
 20
67.4853699671
 10
32.0859781879
 20
65.6960687757
 10
35.3154392166
 20
63.7140696953
 10
38.4413139773
 20
61.5451862707
 10
41.4544337408
 20
59.1957802106
 10
44.3459605076
 20
56.6727427279
 10
47.1074129315
 20
53.9834743262
 10
49.7306911967
 20
51.1358630931
 10
52.2081007762
 20
48.1382615629
 10
54.5323750008
 20
44.9994622174
 10
56.6966963737
 20
41.7286716959
 10
58.6947165675
 20
38.3354837906
 10
60.5205750446
 20
34.8298513063
 10
62.1689162475
 20
31.2220568669
 10
63.6349053075
 20
27.5226827552
 10
64.914242226
 20
23.742579873
 10
66.0031744876
 20
19.8928359132
 10
66.8985080661
 20
15.9847428381
 10
67.5976167941
 20
12.0297637582
 10
68.0984500651
 20
8.0394993085
 10
68.3995388488
 20
4.0256536221
 10
68.5
 20
0.0
  0
SPLINE
  5
EF
330
23
100
AcDbEntity
  8
0
  6
Continuous
 62
     8
370
    25
100
AcDbSpline
210
0.0
220
0.0
230
1.0
 70
     8
 71
     3
 72
    12
 73
     8
 74
     0
 42
0.000000001
 43
0.00000001
 40
0.0
 40
0.0
 40
0.0
 40
0.0
 40
0.1495819181914271
 40
0.3635291683160138
 40
0.5835996684626855
 40
0.7997406579100306
 40
1.0
 40
1.0
 40
1.0
 40
1.0
 10
-68.24056516527688
 20
70.83945248613351
 30
0.0
 10
-68.20781075920421
 20
70.93834132001787
 30
0.0
 10
-68.12820767520685
 20
71.17867100673656
 30
0.0
 10
-67.98171759652323
 20
71.19749595866277
 30
0.0
 10
-67.82792422754332
 20
70.93322840093253
 30
0.0
 10
-67.69457807248534
 20
70.37943841361023
 30
0.0
 10
-67.6402200968366
 20
69.77845456096048
 30
0.0
 10
-67.61407772466177
 20
69.48942349680642
 30
0.0
  0
SPLINE
  5
F2
330
23
100
AcDbEntity
  8
0
  6
Continuous
 62
     8
370
    25
100
AcDbSpline
210
0.0
220
0.0
230
1.0
 70
     8
 71
     3
 72
    18
 73
    14
 74
     0
 42
0.000000001
 43
0.00000001
 40
0.0
 40
0.0
 40
0.0
 40
0.0
 40
0.0029121983480603
 40
0.1089410825274739
 40
0.2180048576623765
 40
0.3220016250159382
 40
0.428942719160617
 40
0.5346829167985376
 40
0.6435738310753287
 40
0.7503221605357808
 40
0.8602422118664987
 40
0.9664312027710685
 40
1.0
 40
1.0
 40
1.0
 40
1.0
 10
-69.01617140077542
 20
59.82143120090252
 30
0.0
 10
-69.01472123438849
 20
59.83732493434915
 30
0.0
 10
-68.96047263001667
 20
60.43188626573342
 30
0.0
 10
-68.85200308548414
 20
61.62281757242187
 30
0.0
 10
-68.71162328541926
 20
63.31446420658156
 30
0.0
 10
-68.60496397524196
 20
64.91388480353335
 30
0.0
 10
-68.5444487972366
 20
66.35846720523598
 30
0.0
 10
-68.53625385673709
 20
67.64168042926529
 30
0.0
 10
-68.58273300168833
 20
68.7001593387676
 30
0.0
 10
-68.67985334696961
 20
69.52041333554872
 30
0.0
 10
-68.81460944001306
 20
70.03303602469447
 30
0.0
 10
-68.93690312604491
 20
70.26637625321885
 30
0.0
 10
-69.00612676293366
 20
70.2274046202275
 30
0.0
 10
-69.02275377357259
 20
70.21804391938186
 30
0.0
  0
SPLINE
  5
F3
330
23
100
AcDbEntity
  8
0
  6
Continuous
 62
     8
370
    25
100
AcDbSpline
210
0.0
220
0.0
230
1.0
 70
     8
 71
     3
 72
    17
 73
    13
 74
     0
 42
0.000000001
 43
0.00000001
 40
0.0
 40
0.0
 40
0.0
 40
0.0
 40
0.0438825634347078
 40
0.1516503439100924
 40
0.2555020985952056
 40
0.3623084962158433
 40
0.4667041463001693
 40
0.5741785560882128
 40
0.6797998611365007
 40
0.7885788441347175
 40
0.8928192465686905
 40
1.0
 40
1.0
 40
1.0
 40
1.0
 10
-69.02206219925492
 20
49.28531396810991
 30
0.0
 10
-69.04409690589884
 20
49.27681785020368
 30
0.0
 10
-69.12024493780413
 20
49.24745677597434
 30
0.0
 10
-69.24437681593513
 20
49.50521999263611
 30
0.0
 10
-69.37416056886036
 20
50.04638754076498
 30
0.0
 10
-69.46441887455292
 20
50.86699403371964
 30
0.0
 10
-69.50675158422327
 20
51.94140627382796
 30
0.0
 10
-69.4953314785971
 20
53.23245666334417
 30
0.0
 10
-69.43042538728449
 20
54.72550632898113
 30
0.0
 10
-69.32030383952281
 20
56.34471197461049
 30
0.0
 10
-69.17650198718809
 20
58.06461462019814
 30
0.0
 10
-69.07010815554167
 20
59.23042116842583
 30
0.0
 10
-69.01617140077542
 20
59.82143120090252
 30
0.0
  0
LINE
  5
F4
330
23
100
AcDbEntity
  8
0
  6
Continuous
 62
     7
370
    25
100
AcDbLine
 10
-84.1
 20
-10.5
 30
0.0
 11
-68.5468126008
 21
-10.5
 31
0.0
  0
LINE
  5
F5
330
23
100
AcDbEntity
  8
0
  6
Continuous
 62
     7
370
    25
100
AcDbLine
 10
-68.543590038
 20
10.5
 30
0.0
 11
-84.1
 21
10.5
 31
0.0
  0
LINE
  5
F6
330
23
100
AcDbEntity
  8
0
  6
Continuous
 62
     7
370
    25
100
AcDbLine
 10
68.5
 20
0.0
 30
0.0
 11
68.5
 21
70.0035713375
 31
0.0
  0
LINE
  5
F7
330
23
100
AcDbEntity
  8
0
  6
Continuous
 62
     7
370
    25
100
AcDbLine
 10
-68.5
 20
51.6406661918
 30
0.0
 11
-68.5
 21
10.5088095738
 31
0.0
  0
LINE
  5
F8
330
23
100
AcDbEntity
  8
0
  6
Continuous
 62
     7
370
    25
100
AcDbLine
 10
-49.0
 20
0.8086493348
 30
0.0
 11
-48.973210822
 21
-0.5262488438
 31
0.0
  0
LINE
  5
F9
330
23
100
AcDbEntity
  8
0
  6
Continuous
 62
     7
370
    25
100
AcDbLine
 10
48.922334252
 20
-0.8423521501
 30
0.0
 11
49.0
 21
0.8086493348
 31
0.0
  0
LINE
  5
FA
330
23
100
AcDbEntity
  8
0
  6
Continuous
 62
     7
370
    25
100
AcDbLine
 10
-84.1
 20
49.2505230103
 30
0.0
 11
-69.022731233
 21
49.2505230103
 31
0.0
  0
LINE
  5
FB
330
23
100
AcDbEntity
  8
0
  6
Continuous
 62
     7
370
    25
100
AcDbLine
 10
-69.0223070692
 20
70.2505230103
 30
0.0
 11
-84.1
 21
70.2505230103
 31
0.0
  0
LINE
  5
FC
330
23
100
AcDbEntity
  8
0
  6
Continuous
 62
     7
370
    25
100
AcDbLine
 10
-84.1
 20
-10.5
 30
0.0
 11
-84.1
 21
10.5
 31
0.0
  0
LINE
  5
FD
330
23
100
AcDbEntity
  8
0
  6
Continuous
 62
     7
370
    25
100
AcDbLine
 10
-48.9999999992
 20
0.0003373676
 30
0.0
 11
-49.0
 21
0.0
 31
0.0
  0
LINE
  5
FE
330
23
100
AcDbEntity
  8
0
  6
Continuous
 62
     7
370
    25
100
AcDbLine
 10
49.0
 20
0.0
 30
0.0
 11
48.9999999992
 21
0.0003373676
 31
0.0
  0
LINE
  5
FF
330
23
100
AcDbEntity
  8
0
  6
Continuous
 62
     7
370
    25
100
AcDbLine
 10
-84.1
 20
49.2505230103
 30
0.0
 11
-84.1
 21
70.2505230103
 31
0.0
  0
ARC
  5
100
330
23
100
AcDbEntity
  8
0
  6
Continuous
 62
     7
370
    25
100
AcDbCircle
 10
1.0193888531
 20
92.6103589341
 30
0.0
 40
70.18437814864402
100
AcDbArc
 50
269.1677815737
 51
300.6983649217
  0
ARC
  5
101
330
23
100
AcDbEntity
  8
0
  6
Continuous
 62
     7
370
    25
100
AcDbCircle
 10
-1.0204067711
 20
92.6030739228
 30
0.0
 40
70.17710869944716
100
AcDbArc
 50
239.2800255705
 51
270.8331358018
  0
ARC
  5
102
330
23
100
AcDbEntity
  8
0
  6
Continuous
 62
     7
370
    25
100
AcDbCircle
 10
0.6253198502
 20
103.0855560756
 30
0.0
 40
73.25289146863764
100
AcDbArc
 50
269.5108913423
 51
295.4568092722
  0
ARC
  5
103
330
23
100
AcDbEntity
  8
0
  6
Continuous
 62
     7
370
    25
100
AcDbCircle
 10
-0.6277059132
 20
103.0650724079
 30
0.0
 40
73.23242896058015
100
AcDbArc
 50
244.476925672
 51
270.4911122096
  0
ARC
  5
104
330
23
100
AcDbEntity
  8
0
  6
Continuous
 62
     8
370
    25
100
AcDbCircle
 10
0.4734115138
 20
55.7585641665
 30
0.0
 40
73.6852418678542
100
AcDbArc
 50
269.6318846537
 51
292.5377058998
  0
ARC
  5
105
330
23
100
AcDbEntity
  8
0
  6
Continuous
 62
     8
370
    25
100
AcDbCircle
 10
-0.4367180188
 20
55.922733774
 30
0.0
 40
73.8491819865567
100
AcDbArc
 50
247.3264748575
 51
270.3388290091
  0
VIEWPORT
  5
108
330
23
100
AcDbEntity
  8
0
100
AcDbViewport
 10
0.0
 20
0.0
 30
0.0
 40
205.6
 41
156.0
 68
     1
 69
     1
 12
9.7201929244
 22
24.9701929244
 13
0.0
 23
0.0
 14
10.0
 24
10.0
 15
10.0
 25
10.0
 16
0.0
 26
0.0
 36
1.0
 17
0.0
 27
0.0
 37
0.0
 42
50.0
 43
0.0
 44
0.0
 45
190.6791935657
 50
0.0
 51
0.0
 72
   100
 90
   557152
  1

281
     0
 71
     1
 74
     0
110
0.0
120
0.0
130
0.0
111
1.0
121
0.0
131
0.0
112
0.0
122
1.0
132
0.0
 79
     0
146
0.0
  0
ENDBLK
  5
25
330
23
100
AcDbEntity
  8
0
100
AcDbBlockEnd
  0
ENDSEC
  0
SECTION
  2
ENTITIES
  0
LINE
  5
7F
330
1F
100
AcDbEntity
  8
0
  6
Continuous
 62
     7
370
    25
100
AcDbLine
 10
48.4368145113
 20
-48.4368145113
 30
0.0
 11
118.4403858487
 21
21.5667568262
 31
0.0
  0
LINE
  5
80
330
1F
100
AcDbEntity
  8
0
  6
Continuous
 62
     7
370
    25
100
AcDbLine
 10
21.5667568262
 20
118.4403858487
 30
0.0
 11
-22.5157646463
 21
74.3578643763
 31
0.0
  0
LINE
  5
81
330
1F
100
AcDbEntity
  8
0
  6
Continuous
 62
     7
370
    25
100
AcDbLine
 10
-36.65790027
 20
68.5
 30
0.0
 11
-99.0
 21
68.5
 31
0.0
  0
LINE
  5
82
330
1F
100
AcDbEntity
  8
0
  6
Continuous
 62
     7
370
    25
100
AcDbLine
 10
-99.0
 20
-68.5
 30
0.0
 11
0.0
 21
-68.5
 31
0.0
  0
LINE
  5
83
330
1F
100
AcDbEntity
  8
0
  6
Continuous
 62
     7
370
    25
100
AcDbLine
 10
118.4403858487
 20
21.5667568262
 30
0.0
 11
21.5667568262
 21
118.4403858487
 31
0.0
  0
LINE
  5
84
330
1F
100
AcDbEntity
  8
0
  6
Continuous
 62
     7
370
    25
100
AcDbLine
 10
-99.0
 20
68.5
 30
0.0
 11
-99.0
 21
-68.5
 31
0.0
  0
LINE
  5
85
330
1F
100
AcDbEntity
  8
0
  6
Continuous
 62
     8
370
    25
100
AcDbLine
 10
48.4368145113
 20
-48.4368145113
 30
0.0
 11
0.0
 21
0.0
 31
0.0
  0
LINE
  5
86
330
1F
100
AcDbEntity
  8
0
  6
Continuous
 62
     8
370
    25
100
AcDbLine
 10
0.0
 20
0.0
 30
0.0
 11
0.0
 21
-68.5
 31
0.0
  0
LINE
  5
87
330
1F
100
AcDbEntity
  8
0
  6
Continuous
 62
     8
370
    25
100
AcDbLine
 10
-22.5157646463
 20
74.3578643763
 30
0.0
 11
0.0
 21
0.0
 31
0.0
  0
LINE
  5
88
330
1F
100
AcDbEntity
  8
0
  6
Continuous
 62
     8
370
    25
100
AcDbLine
 10
0.0
 20
0.0
 30
0.0
 11
-36.65790027
 21
68.5
 31
0.0
  0
ARC
  5
89
330
1F
100
AcDbEntity
  8
0
  6
Continuous
 62
     7
370
    25
100
AcDbCircle
 10
0.0
 20
0.0
 30
0.0
 40
68.49999999999996
100
AcDbArc
 50
270.0
 51
315.0
  0
ARC
  5
8A
330
1F
100
AcDbEntity
  8
0
  6
Continuous
 62
     7
370
    25
100
AcDbCircle
 10
-36.65790027
 20
88.5
 30
0.0
 40
20.00000000000013
100
AcDbArc
 50
270.1322711663
 51
314.8619604799
  0
SPLINE
  5
8E
330
1B
100
AcDbEntity
 67
     1
  8
0
  6
Continuous
 62
     7
370
    25
100
AcDbSpline
210
0.0
220
0.0
230
1.0
 70
     8
 71
     3
 72
    12
 73
     8
 74
     0
 42
0.000000001
 43
0.00000001
 40
0.0
 40
0.0
 40
0.0
 40
0.0
 40
0.2496265423991345
 40
0.4688241341756598
 40
0.6811048114554454
 40
0.9173844392250764
 40
1.0
 40
1.0
 40
1.0
 40
1.0
 10
49.24218915020924
 20
69.14618050741461
 30
0.0
 10
49.24039041595104
 20
68.99663775552048
 30
0.0
 10
49.23701220935848
 20
68.71578119874088
 30
0.0
 10
49.04086021612721
 20
68.4238379029922
 30
0.0
 10
48.8961175300642
 20
68.3026742587738
 30
0.0
 10
48.83168640128143
 20
68.27251031362849
 30
0.0
 10
48.84406608381862
 20
68.27719665222683
 30
0.0
 10
48.8472732642709
 20
68.27841073291916
 30
0.0
  0
SPLINE
  5
8F
330
1B
100
AcDbEntity
 67
     1
  8
0
  6
Continuous
 62
     7
370
    25
100
AcDbSpline
210
0.0
220
0.0
230
1.0
 70
     8
 71
     3
 72
    10
 73
     6
 74
     0
 42
0.000000001
 43
0.00000001
 40
0.0
 40
0.0
 40
0.0
 40
0.0
 40
0.2825907461824645
 40
0.7089592937426971
 40
1.0
 40
1.0
 40
1.0
 40
1.0
 10
70.54285732500495
 20
68.36675042704091
 30
0.0
 10
70.51158774718097
 20
68.39276878991252
 30
0.0
 10
70.43313911392177
 20
68.45804325630954
 30
0.0
 10
70.26843850786416
 20
68.71061033737713
 30
0.0
 10
70.27008678266853
 20
68.93620072871671
 30
0.0
 10
70.27075545966234
 20
69.02771890536546
 30
0.0
  0
SPLINE
  5
95
330
1B
100
AcDbEntity
 67
     1
  8
0
  6
Continuous
 62
     7
370
    25
100
AcDbSpline
210
0.0
220
0.0
230
1.0
 70
     8
 71
     3
 72
    12
 73
     8
 74
     0
 42
0.000000001
 43
0.00000001
 40
0.0
 40
0.0
 40
0.0
 40
0.0
 40
0.0070251053020207
 40
0.234521900172354
 40
0.4954271963752284
 40
0.7650824304615503
 40
1.0
 40
1.0
 40
1.0
 40
1.0
 10
-73.7504474777724
 20
68.53229085092711
 30
0.0
 10
-73.75348294092736
 20
68.53275068638436
 30
0.0
 10
-73.85481702154289
 20
68.54810155737667
 30
0.0
 10
-74.05403066921687
 20
68.65130056767129
 30
0.0
 10
-74.30388922194304
 20
68.8704984749517
 30
0.0
 10
-74.47356553175041
 20
69.17373982111249
 30
0.0
 10
-74.4866394811904
 20
69.39583483620602
 30
0.0
 10
-74.49272641335291
 20
69.49923720109285
 30
0.0
  0
SPLINE
  5
96
330
1B
100
AcDbEntity
 67
     1
  8
0
  6
Continuous
 62
     7
370
    25
100
AcDbSpline
210
0.0
220
0.0
230
1.0
 70
     8
 71
     3
 72
    15
 73
    11
 74
     0
 42
0.000000001
 43
0.00000001
 40
0.0
 40
0.0
 40
0.0
 40
0.0
 40
0.1994921208385203
 40
0.4268781538827128
 40
0.5269849257597166
 40
0.5752892723275156
 40
0.6112107128224793
 40
0.6603514395016014
 40
0.7527564398627962
 40
1.0
 40
1.0
 40
1.0
 40
1.0
 10
-96.37665855878313
 20
68.5097522879227
 30
0.0
 10
-96.40646725677483
 20
68.50582830411497
 30
0.0
 10
-96.47025264295881
 20
68.49743166691117
 30
0.0
 10
-96.54922986817056
 20
68.50015050864583
 30
0.0
 10
-96.60566578517607
 20
68.50526856112566
 30
0.0
 10
-96.6275703403256
 20
68.5080030744453
 30
0.0
 10
-96.6374768132607
 20
68.50934827565463
 30
0.0
 10
-96.64507139218188
 20
68.51044188068141
 30
0.0
 10
-96.65214834208831
 20
68.5115171794841
 30
0.0
 10
-96.65278225095307
 20
68.51162096745722
 30
0.0
 10
-96.65324369817458
 20
68.51169651880927
 30
0.0
  0
SPLINE
  5
97
330
1B
100
AcDbEntity
 67
     1
  8
0
  6
Continuous
 62
     7
370
    25
100
AcDbSpline
210
0.0
220
0.0
230
1.0
 70
     8
 71
     3
 72
    14
 73
    10
 74
     0
 42
0.000000001
 43
0.00000001
 40
0.0
 40
0.0
 40
0.0
 40
0.0
 40
0.0306314385937829
 40
0.2808724763920507
 40
0.5018795267389471
 40
0.6825741554808363
 40
0.8353735073904701
 40
0.9622886291884317
 40
1.0
 40
1.0
 40
1.0
 40
1.0
 10
-95.50610996515421
 20
69.49902552775396
 30
0.0
 10
-95.50387449533149
 20
69.48443807011614
 30
0.0
 10
-95.48337653722588
 20
69.35067956777041
 30
0.0
 10
-95.56462571842832
 20
69.10789977556497
 30
0.0
 10
-95.72766678759893
 20
68.84004475136642
 30
0.0
 10
-95.9334436888106
 20
68.66303809308323
 30
0.0
 10
-96.13215068695098
 20
68.56359784511137
 30
0.0
 10
-96.27970974660298
 20
68.51844271629065
 30
0.0
 10
-96.35858941174337
 20
68.51137199449246
 30
0.0
 10
-96.37665855878313
 20
68.5097522879227
 30
0.0
  0
LWPOLYLINE
  5
9A
330
1B
100
AcDbEntity
 67
     1
  8
0
  6
Continuous
 62
     7
370
    25
100
AcDbPolyline
 90
      111
 70
   128
 43
0.0
 10
118.4403858487
 20
0.0
 10
118.3613904381
 20
-3.9105835441
 10
118.1246618729
 20
-7.8084115775
 10
117.7309723124
 20
-11.6807701953
 10
117.1816058902
 20
-15.5150285687
 10
116.4783545253
 20
-19.2986801436
 10
115.6235120776
 20
-23.0193834353
 10
114.6198668653
 20
-26.6650022827
 10
113.4706925707
 20
-30.2236454352
 10
112.1797375613
 20
-33.6837053382
 10
110.7512126642
 20
-37.0338959957
 10
109.1897774305
 20
-40.263289782
 10
107.5005249375
 20
-43.3613530859
 10
105.6889651756
 20
-46.3179806688
 10
103.7610070764
 20
-49.123528626
 10
101.7229392383
 20
-51.7688458433
 10
99.5814094151
 20
-54.2453038457
 10
97.3434028319
 20
-56.544824942
 10
95.016219401
 20
-58.6599085722
 10
92.607449911
 20
-60.5836557734
 10
90.1249512674
 20
-62.3097916818
 10
87.5768208648
 20
-63.832686001
 10
84.9713701748
 20
-65.1473713662
 10
82.3170976362
 20
-66.2495595471
 10
79.6226609341
 20
-67.1356554348
 10
76.8968487611
 20
-67.8027687688
 10
74.14855215
 20
-68.2487235641
 10
71.3867354729
 20
-68.4720652087
 10
68.620407202
 20
-68.4720652087
 10
65.858590525
 20
-68.2487235641
 10
63.1102939138
 20
-67.8027687688
 10
60.3844817408
 20
-67.1356554348
 10
57.6900450388
 20
-66.2495595471
 10
55.0357725001
 20
-65.1473713662
 10
52.4303218101
 20
-63.832686001
 10
49.8821914075
 20
-62.3097916818
 10
47.3996927639
 20
-60.5836557734
 10
44.990923274
 20
-58.6599085722
 10
42.6637398431
 20
-56.5448249419
 10
40.4257332599
 20
-54.2453038457
 10
38.2842034366
 20
-51.7688458433
 10
36.2461355986
 20
-49.123528626
 10
34.3181774993
 20
-46.3179806688
 10
32.5066177375
 20
-43.3613530859
 10
30.8173652445
 20
-40.263289782
 10
29.2559300108
 20
-37.0338959957
 10
27.8274051136
 20
-33.6837053382
 10
26.5364501042
 20
-30.2236454352
 10
25.3872758096
 20
-26.6650022827
 10
24.3836305974
 20
-23.0193834353
 10
23.5287881496
 20
-19.2986801436
 10
22.8255367848
 20
-15.5150285687
 10
22.2761703625
 20
-11.6807701953
 10
21.882480802
 20
-7.8084115775
 10
21.6457522368
 20
-3.9105835441
 10
21.5667568262
 20
0.0
 10
21.6457522368
 20
3.9105835441
 10
21.882480802
 20
7.8084115775
 10
22.2761703625
 20
11.6807701953
 10
22.8255367848
 20
15.5150285687
 10
23.5287881496
 20
19.2986801436
 10
24.3836305974
 20
23.0193834353
 10
25.3872758096
 20
26.6650022827
 10
26.5364501042
 20
30.2236454352
 10
27.8274051136
 20
33.6837053382
 10
29.2559300108
 20
37.0338959957
 10
30.8173652445
 20
40.263289782
 10
32.5066177375
 20
43.3613530859
 10
34.3181774993
 20
46.3179806688
 10
36.2461355986
 20
49.123528626
 10
38.2842034366
 20
51.7688458433
 10
40.4257332599
 20
54.2453038457
 10
42.6637398431
 20
56.544824942
 10
44.990923274
 20
58.6599085722
 10
47.3996927639
 20
60.5836557734
 10
49.8821914075
 20
62.3097916818
 10
52.4303218101
 20
63.832686001
 10
55.0357725001
 20
65.1473713662
 10
57.6900450388
 20
66.2495595471
 10
60.3844817408
 20
67.1356554348
 10
63.1102939138
 20
67.8027687688
 10
65.858590525
 20
68.2487235641
 10
68.620407202
 20
68.4720652087
 10
71.3867354729
 20
68.4720652087
 10
74.14855215
 20
68.2487235641
 10
76.8968487611
 20
67.8027687688
 10
79.6226609341
 20
67.1356554348
 10
82.3170976362
 20
66.2495595471
 10
84.9713701748
 20
65.1473713662
 10
87.5768208648
 20
63.832686001
 10
90.1249512674
 20
62.3097916818
 10
92.607449911
 20
60.5836557733
 10
95.016219401
 20
58.6599085722
 10
97.3434028319
 20
56.5448249419
 10
99.5814094151
 20
54.2453038457
 10
101.7229392383
 20
51.7688458433
 10
103.7610070764
 20
49.123528626
 10
105.6889651756
 20
46.3179806688
 10
107.5005249375
 20
43.3613530859
 10
109.1897774305
 20
40.263289782
 10
110.7512126642
 20
37.0338959957
 10
112.1797375613
 20
33.6837053382
 10
113.4706925707
 20
30.2236454352
 10
114.6198668653
 20
26.6650022827
 10
115.6235120776
 20
23.0193834353
 10
116.4783545253
 20
19.2986801436
 10
117.1816058902
 20
15.5150285687
 10
117.7309723124
 20
11.6807701953
 10
118.1246618729
 20
7.8084115775
 10
118.3613904381
 20
3.9105835441
 10
118.4403858487
 20
0.0
  0
LWPOLYLINE
  5
9B
330
1B
100
AcDbEntity
 67
     1
  8
0
  6
Continuous
 62
     7
370
    25
100
AcDbPolyline
 90
      101
 70
   128
 43
0.0
 10
110.1718090127
 20
0.0
 10
110.0925461712
 20
-3.566907544
 10
109.8550704609
 20
-7.1197381334
 10
109.46031909
 20
-10.6444703692
 10
108.9098499619
 20
-14.1271937433
 10
108.2058355265
 20
-17.5541635379
 10
107.3510542074
 20
-20.9118550688
 10
106.3488794359
 20
-24.1870170614
 10
105.2032663378
 20
-27.3667239476
 10
103.9187361248
 20
-30.4384268771
 10
102.5003582508
 20
-33.3900032417
 10
100.9537304052
 20
-36.209804518
 10
99.2849564215
 20
-38.8867022385
 10
97.5006221883
 20
-41.4101319109
 10
95.6077696576
 20
-43.7701347111
 10
93.6138690535
 20
-45.9573967864
 10
91.5267893909
 20
-47.9632860124
 10
89.3547674197
 20
-49.7798860609
 10
87.1063751182
 20
-51.4000276414
 10
84.7904858638
 20
-52.8173167952
 10
82.4162394132
 20
-54.0261601296
 10
79.9930058325
 20
-55.0217868921
 10
77.5303485176
 20
-55.8002677988
 10
75.0379864519
 20
-56.3585305413
 10
72.5257558497
 20
-56.6943719114
 10
70.0035713375
 20
-56.8064664969
 10
67.4813868253
 20
-56.6943719114
 10
64.9691562231
 20
-56.3585305413
 10
62.4767941573
 20
-55.8002677988
 10
60.0141368424
 20
-55.0217868921
 10
57.5909032617
 20
-54.0261601296
 10
55.2166568112
 20
-52.8173167952
 10
52.9007675567
 20
-51.4000276414
 10
50.6523752553
 20
-49.7798860609
 10
48.480353284
 20
-47.9632860124
 10
46.3932736214
 20
-45.9573967864
 10
44.3993730174
 20
-43.7701347111
 10
42.5065204867
 20
-41.4101319109
 10
40.7221862535
 20
-38.8867022385
 10
39.0534122698
 20
-36.209804518
 10
37.5067844242
 20
-33.3900032417
 10
36.0884065501
 20
-30.4384268771
 10
34.8038763371
 20
-27.3667239476
 10
33.6582632391
 20
-24.1870170614
 10
32.6560884675
 20
-20.9118550688
 10
31.8013071484
 20
-17.5541635379
 10
31.0972927131
 20
-14.1271937433
 10
30.5468235849
 20
-10.6444703692
 10
30.152072214
 20
-7.1197381334
 10
29.9145965038
 20
-3.566907544
 10
29.8353336623
 20
0.0
 10
29.9145965038
 20
3.566907544
 10
30.152072214
 20
7.1197381334
 10
30.5468235849
 20
10.6444703692
 10
31.0972927131
 20
14.1271937433
 10
31.8013071484
 20
17.5541635379
 10
32.6560884675
 20
20.9118550688
 10
33.6582632391
 20
24.1870170614
 10
34.8038763371
 20
27.3667239476
 10
36.0884065501
 20
30.4384268771
 10
37.5067844242
 20
33.3900032417
 10
39.0534122698
 20
36.209804518
 10
40.7221862535
 20
38.8867022385
 10
42.5065204867
 20
41.4101319109
 10
44.3993730174
 20
43.7701347111
 10
46.3932736214
 20
45.9573967864
 10
48.480353284
 20
47.9632860124
 10
50.6523752553
 20
49.7798860609
 10
52.9007675567
 20
51.4000276414
 10
55.2166568112
 20
52.8173167952
 10
57.5909032617
 20
54.0261601296
 10
60.0141368424
 20
55.0217868921
 10
62.4767941573
 20
55.8002677988
 10
64.9691562231
 20
56.3585305413
 10
67.4813868253
 20
56.6943719114
 10
70.0035713375
 20
56.8064664969
 10
72.5257558497
 20
56.6943719114
 10
75.0379864519
 20
56.3585305413
 10
77.5303485176
 20
55.8002677988
 10
79.9930058325
 20
55.0217868921
 10
82.4162394132
 20
54.0261601296
 10
84.7904858638
 20
52.8173167952
 10
87.1063751182
 20
51.4000276414
 10
89.3547674197
 20
49.7798860609
 10
91.5267893909
 20
47.9632860124
 10
93.6138690535
 20
45.9573967864
 10
95.6077696576
 20
43.7701347111
 10
97.5006221883
 20
41.4101319109
 10
99.2849564215
 20
38.8867022385
 10
100.9537304052
 20
36.209804518
 10
102.5003582508
 20
33.3900032417
 10
103.9187361248
 20
30.4384268771
 10
105.2032663378
 20
27.3667239476
 10
106.3488794359
 20
24.1870170614
 10
107.3510542074
 20
20.9118550688
 10
108.2058355265
 20
17.5541635379
 10
108.9098499619
 20
14.1271937433
 10
109.46031909
 20
10.6444703692
 10
109.8550704609
 20
7.1197381334
 10
110.0925461712
 20
3.566907544
 10
110.1718090127
 20
0.0
  0
LWPOLYLINE
  5
9C
330
1B
100
AcDbEntity
 67
     1
  8
0
  6
Continuous
 62
     7
370
    25
100
AcDbPolyline
 90
       59
 70
   128
 43
0.0
 10
0.0
 20
68.5
 10
-1.2189789239
 20
68.3995388488
 10
-2.4343823726
 20
68.0984500651
 10
-3.6426453584
 20
67.5976167941
 10
-4.8402238377
 20
66.8985080661
 10
-6.0236051065
 20
66.0031744876
 10
-7.1893181037
 20
64.914242226
 10
-8.3339435922
 20
63.6349053075
 10
-9.4541241883
 20
62.1689162475
 10
-10.5465742091
 20
60.5205750446
 10
-11.6080893107
 20
58.6947165675
 10
-12.6355558862
 20
56.6966963737
 10
-13.6259601993
 20
54.5323750008
 10
-14.5763972234
 20
52.2081007762
 10
-15.4840791629
 20
49.7306911967
 10
-16.3463436304
 20
47.1074129315
 10
-17.1606614556
 20
44.3459605076
 10
-17.924644104
 20
41.4544337408
 10
-18.6360506828
 20
38.4413139773
 10
-19.2927945141
 20
35.3154392166
 10
-19.8929492549
 20
32.0859781879
 10
-20.4347545481
 20
28.7624034569
 10
-20.9166211853
 20
25.3544636408
 10
-21.3371357687
 20
21.8721548143
 10
-21.6950648565
 20
18.3256911893
 10
-21.9893585811
 20
14.7254751545
 10
-22.2191537283
 20
11.0820667639
 10
-22.3837762692
 20
7.406152762
 10
-22.4827433377
 20
3.7085152381
 10
-22.5157646463
 20
0.0
 10
-22.4827433377
 20
-3.7085152381
 10
-22.3837762692
 20
-7.406152762
 10
-22.2191537283
 20
-11.0820667639
 10
-21.9893585811
 20
-14.7254751545
 10
-21.6950648565
 20
-18.3256911893
 10
-21.3371357687
 20
-21.8721548143
 10
-20.9166211853
 20
-25.3544636408
 10
-20.4347545481
 20
-28.7624034569
 10
-19.8929492549
 20
-32.0859781879
 10
-19.2927945141
 20
-35.3154392166
 10
-18.6360506828
 20
-38.4413139773
 10
-17.924644104
 20
-41.4544337408
 10
-17.1606614556
 20
-44.3459605076
 10
-16.3463436304
 20
-47.1074129315
 10
-15.4840791629
 20
-49.7306911967
 10
-14.5763972234
 20
-52.2081007762
 10
-13.6259601993
 20
-54.5323750008
 10
-12.6355558862
 20
-56.6966963737
 10
-11.6080893107
 20
-58.6947165675
 10
-10.5465742091
 20
-60.5205750446
 10
-9.4541241883
 20
-62.1689162475
 10
-8.3339435922
 20
-63.6349053075
 10
-7.1893181037
 20
-64.914242226
 10
-6.0236051065
 20
-66.0031744876
 10
-4.8402238377
 20
-66.8985080661
 10
-3.6426453584
 20
-67.5976167941
 10
-2.4343823726
 20
-68.0984500651
 10
-1.2189789239
 20
-68.3995388488
 10
0.0
 20
-68.5
  0
SPLINE
  5
9E
330
1B
100
AcDbEntity
 67
     1
  8
0
  6
Continuous
 62
     7
370
    25
100
AcDbSpline
210
0.0
220
0.0
230
1.0
 70
     8
 71
     3
 72
    20
 73
    16
 74
     0
 42
0.000000001
 43
0.00000001
 40
0.0
 40
0.0
 40
0.0
 40
0.0
 40
0.0001980292076999
 40
0.0881040565801549
 40
0.1786358851621786
 40
0.2667966344528422
 40
0.3575017116064577
 40
0.4471022999886842
 40
0.5392672905984262
 40
0.6297866116774362
 40
0.7229271670650367
 40
0.8128223162079646
 40
0.9053034156478025
 40
0.9942232305870669
 40
1.0
 40
1.0
 40
1.0
 40
1.0
 10
67.88199410074786
 20
68.49994130069216
 30
0.0
 10
67.8810943180875
 20
68.49996086439471
 30
0.0
 10
67.48077709550108
 20
68.50866484081962
 30
0.0
 10
66.45327535841663
 20
68.47840121611172
 30
0.0
 10
64.84816302616919
 20
68.4079635970946
 30
0.0
 10
63.05868193503316
 20
68.28865066194687
 30
0.0
 10
61.19706349344015
 20
68.14309855233263
 30
0.0
 10
59.27087041114888
 20
67.98241962886185
 30
0.0
 10
57.36376065107321
 20
67.82707876687726
 30
0.0
 10
55.50239518167841
 20
67.6925971247568
 30
0.0
 10
53.77974441266394
 20
67.59745280768084
 30
0.0
 10
52.2075607250785
 20
67.54953746225154
 30
0.0
 10
50.90213974907532
 20
67.56052617103265
 30
0.0
 10
50.09049263104048
 20
67.59223817273255
 30
0.0
 10
49.81238097429931
 20
67.62861339997755
 30
0.0
 10
49.79541534747091
 20
67.63083239553663
 30
0.0
  0
LWPOLYLINE
  5
9F
330
1B
100
AcDbEntity
 67
     1
  8
0
  6
Continuous
 62
     7
370
    25
100
AcDbPolyline
 90
      101
 70
   128
 43
0.0
 10
109.4647022314
 20
0.0
 10
109.3861370468
 20
-3.5355122842
 10
109.1507515538
 20
-7.0570715166
 10
108.7594747114
 20
-10.5507797119
 10
108.2138507106
 20
-14.0028487998
 10
107.51603288
 20
-17.3996550407
 10
106.6687751877
 20
-20.7277927924
 10
105.6754213729
 20
-23.9741274156
 10
104.5398917493
 20
-27.1258471105
 10
103.2666677334
 20
-30.1705134796
 10
101.8607741588
 20
-33.0961106156
 10
100.3277594451
 20
-35.8910925231
 10
98.673673701
 20
-38.5444286855
 10
96.9050448473
 20
-41.0456475972
 10
95.0288528541
 20
-43.3848780897
 10
93.052502194
 20
-45.5528882892
 10
90.9837926202
 20
-47.5411220496
 10
88.8308883842
 20
-49.3417327209
 10
86.6022860154
 20
-50.9476141151
 10
84.3067807894
 20
-52.3524285522
 10
81.9534320165
 20
-53.5506318714
 10
79.5515272891
 20
-54.5374953115
 10
77.1105458279
 20
-55.3091241734
 10
74.6401210716
 20
-55.8624731906
 10
72.150002658
 20
-56.1953585472
 10
69.6500179469
 20
-56.3064664969
 10
67.1500332357
 20
-56.1953585472
 10
64.6599148221
 20
-55.8624731906
 10
62.1894900658
 20
-55.3091241734
 10
59.7485086046
 20
-54.5374953115
 10
57.3466038773
 20
-53.5506318714
 10
54.9932551043
 20
-52.3524285522
 10
52.6977498783
 20
-50.9476141151
 10
50.4691475096
 20
-49.3417327209
 10
48.3162432736
 20
-47.5411220496
 10
46.2475336997
 20
-45.5528882892
 10
44.2711830396
 20
-43.3848780897
 10
42.3949910464
 20
-41.0456475972
 10
40.6263621927
 20
-38.5444286855
 10
38.9722764487
 20
-35.8910925231
 10
37.439261735
 20
-33.0961106156
 10
36.0333681603
 20
-30.1705134796
 10
34.7601441445
 20
-27.1258471105
 10
33.6246145208
 20
-23.9741274156
 10
32.631260706
 20
-20.7277927924
 10
31.7840030138
 20
-17.3996550407
 10
31.0861851832
 20
-14.0028487998
 10
30.5405611823
 20
-10.5507797119
 10
30.1492843399
 20
-7.0570715166
 10
29.9138988469
 20
-3.5355122842
 10
29.8353336623
 20
0.0
 10
29.9138988469
 20
3.5355122842
 10
30.1492843399
 20
7.0570715166
 10
30.5405611823
 20
10.5507797119
 10
31.0861851832
 20
14.0028487998
 10
31.7840030138
 20
17.3996550407
 10
32.631260706
 20
20.7277927924
 10
33.6246145208
 20
23.9741274156
 10
34.7601441445
 20
27.1258471105
 10
36.0333681603
 20
30.1705134796
 10
37.439261735
 20
33.0961106156
 10
38.9722764487
 20
35.8910925231
 10
40.6263621927
 20
38.5444286855
 10
42.3949910464
 20
41.0456475972
 10
44.2711830396
 20
43.3848780897
 10
46.2475336997
 20
45.5528882892
 10
48.3162432736
 20
47.5411220496
 10
50.4691475096
 20
49.3417327209
 10
52.6977498783
 20
50.9476141151
 10
54.9932551043
 20
52.3524285522
 10
57.3466038773
 20
53.5506318714
 10
59.7485086046
 20
54.5374953115
 10
62.1894900658
 20
55.3091241734
 10
64.6599148221
 20
55.8624731906
 10
67.1500332357
 20
56.1953585472
 10
69.6500179469
 20
56.3064664969
 10
72.150002658
 20
56.1953585472
 10
74.6401210716
 20
55.8624731906
 10
77.1105458279
 20
55.3091241734
 10
79.5515272891
 20
54.5374953115
 10
81.9534320165
 20
53.5506318714
 10
84.3067807894
 20
52.3524285522
 10
86.6022860154
 20
50.9476141151
 10
88.8308883842
 20
49.3417327209
 10
90.9837926202
 20
47.5411220496
 10
93.052502194
 20
45.5528882892
 10
95.0288528541
 20
43.3848780897
 10
96.9050448473
 20
41.0456475972
 10
98.673673701
 20
38.5444286855
 10
100.3277594451
 20
35.8910925231
 10
101.8607741588
 20
33.0961106156
 10
103.2666677334
 20
30.1705134796
 10
104.5398917493
 20
27.1258471105
 10
105.6754213729
 20
23.9741274156
 10
106.6687751877
 20
20.7277927924
 10
107.51603288
 20
17.3996550407
 10
108.2138507106
 20
14.0028487998
 10
108.7594747114
 20
10.5507797119
 10
109.1507515538
 20
7.0570715166
 10
109.3861370468
 20
3.5355122842
 10
109.4647022314
 20
0.0
  0
LWPOLYLINE
  5
A0
330
1B
100
AcDbEntity
 67
     1
  8
0
  6
Continuous
 62
     7
370
    25
100
AcDbPolyline
 90
       25
 70
   128
 43
0.0
 10
101.3465009829
 20
0.0
 10
101.2670621656
 20
-3.5390547168
 10
101.0290655856
 20
-7.0638589094
 10
100.6334695713
 20
-10.5602194353
 10
100.0818670481
 20
-14.0140576847
 10
99.3764791247
 20
-17.41146627
 10
98.5201461494
 20
-20.7387650258
 10
97.5163162727
 20
-23.9825560946
 10
96.3690315633
 20
-27.1297778744
 10
95.0829117318
 20
-30.167757614
 10
93.6631355289
 20
-33.0842624412
 10
92.1154198921
 20
-35.8675486205
 10
90.4459969262
 20
-38.5064088407
 10
88.6615888081
 20
-40.9902173431
 10
86.7693807196
 20
-43.3089727075
 10
84.7769919149
 20
-45.4533381244
 10
82.6924450403
 20
-47.4146789912
 10
80.5241338305
 20
-49.1850976804
 10
78.2807893094
 20
-50.7574653408
 10
75.9714446336
 20
-52.1254506028
 10
73.6053987191
 20
-53.2835450726
 10
71.1921787977
 20
-54.2270855125
 10
68.7415020542
 20
-54.9522726181
 10
66.263236499
 20
-55.4561863169
 10
63.9408044316
 20
-55.7245720615
  0
LWPOLYLINE
  5
A1
330
1B
100
AcDbEntity
 67
     1
  8
0
  6
Continuous
 62
     7
370
    25
100
AcDbPolyline
 90
       25
 70
   128
 43
0.0
 10
63.9408044316
 20
55.7245720615
 10
66.263236499
 20
55.4561863169
 10
68.7415020542
 20
54.9522726181
 10
71.1921787977
 20
54.2270855125
 10
73.6053987191
 20
53.2835450726
 10
75.9714446336
 20
52.1254506028
 10
78.2807893094
 20
50.7574653408
 10
80.5241338305
 20
49.1850976804
 10
82.6924450403
 20
47.4146789912
 10
84.7769919149
 20
45.4533381244
 10
86.7693807196
 20
43.3089727075
 10
88.6615888081
 20
40.9902173431
 10
90.4459969262
 20
38.5064088407
 10
92.1154198921
 20
35.8675486205
 10
93.6631355289
 20
33.0842624412
 10
95.0829117318
 20
30.167757614
 10
96.3690315633
 20
27.1297778744
 10
97.5163162727
 20
23.9825560946
 10
98.5201461494
 20
20.7387650258
 10
99.3764791247
 20
17.41146627
 10
100.0818670481
 20
14.0140576847
 10
100.6334695713
 20
10.5602194353
 10
101.0290655856
 20
7.0638589094
 10
101.2670621656
 20
3.5390547168
 10
101.3465009829
 20
0.0
  0
LWPOLYLINE
  5
A2
330
1B
100
AcDbEntity
 67
     1
  8
0
  6
Continuous
 62
     7
370
    25
100
AcDbPolyline
 90
       59
 70
   128
 43
0.0
 10
0.0
 20
-68.5
 10
-1.9846187117
 20
-68.3995388488
 10
-3.9634161947
 20
-68.0984500651
 10
-5.9305882951
 20
-67.5976167941
 10
-7.8803649583
 20
-66.8985080661
 10
-9.8070271532
 20
-66.0031744876
 10
-11.7049236478
 20
-64.914242226
 10
-13.5684875846
 20
-63.6349053075
 10
-15.3922528095
 20
-62.1689162475
 10
-17.1708699048
 20
-60.5205750446
 10
-18.8991218802
 20
-58.6947165675
 10
-20.5719394749
 20
-56.6966963737
 10
-22.1844160266
 20
-54.5323750008
 10
-23.7318218637
 20
-52.2081007762
 10
-25.2096181784
 20
-49.7306911967
 10
-26.6134703394
 20
-47.1074129315
 10
-27.9392606065
 20
-44.3459605076
 10
-29.1831002083
 20
-41.4544337408
 10
-30.341340749
 20
-38.4413139773
 10
-31.4105849096
 20
-35.3154392166
 10
-32.3876964127
 20
-32.0859781879
 10
-33.2698092218
 20
-28.7624034569
 10
-34.0543359482
 20
-25.3544636408
 10
-34.7389754398
 20
-21.8721548143
 10
-35.3217195309
 20
-18.3256911893
 10
-35.8008589329
 20
-14.7254751545
 10
-36.1749882471
 20
-11.0820667639
 10
-36.443010088
 20
-7.406152762
 10
-36.6041383012
 20
-3.7085152381
 10
-36.65790027
 20
0.0
 10
-36.6041383012
 20
3.7085152381
 10
-36.443010088
 20
7.406152762
 10
-36.1749882471
 20
11.0820667639
 10
-35.8008589329
 20
14.7254751545
 10
-35.3217195309
 20
18.3256911893
 10
-34.7389754398
 20
21.8721548143
 10
-34.0543359482
 20
25.3544636408
 10
-33.2698092218
 20
28.7624034569
 10
-32.3876964127
 20
32.0859781879
 10
-31.4105849096
 20
35.3154392166
 10
-30.341340749
 20
38.4413139773
 10
-29.1831002083
 20
41.4544337408
 10
-27.9392606065
 20
44.3459605076
 10
-26.6134703394
 20
47.1074129315
 10
-25.2096181784
 20
49.7306911967
 10
-23.7318218637
 20
52.2081007762
 10
-22.1844160266
 20
54.5323750008
 10
-20.5719394749
 20
56.6966963737
 10
-18.8991218802
 20
58.6947165675
 10
-17.1708699048
 20
60.5205750446
 10
-15.3922528095
 20
62.1689162475
 10
-13.5684875846
 20
63.6349053075
 10
-11.7049236478
 20
64.914242226
 10
-9.8070271532
 20
66.0031744876
 10
-7.8803649583
 20
66.8985080661
 10
-5.9305882951
 20
67.5976167941
 10
-3.9634161947
 20
68.0984500651
 10
-1.9846187117
 20
68.3995388488
 10
0.0
 20
68.5
  0
SPLINE
  5
A5
330
1B
100
AcDbEntity
 67
     1
  8
0
  6
Continuous
 62
     7
370
    25
100
AcDbSpline
210
0.0
220
0.0
230
1.0
 70
     8
 71
     3
 72
    25
 73
    21
 74
     0
 42
0.000000001
 43
0.00000001
 40
0.0
 40
0.0
 40
0.0
 40
0.0
 40
0.015788765999087
 40
0.0736136369675681
 40
0.1298688392209338
 40
0.1877722397988401
 40
0.2446543587298187
 40
0.3031630288753213
 40
0.3608857432849547
 40
0.4202733283361411
 40
0.4779280867084698
 40
0.5372513021804184
 40
0.5942201805997699
 40
0.6527997012989645
 40
0.7095571003659842
 40
0.7678944277505672
 40
0.8250432327709529
 40
0.8838268030564861
 40
0.9410549145156767
 40
1.0
 40
1.0
 40
1.0
 40
1.0
 10
-73.53141423450595
 20
68.49489002354315
 30
0.0
 10
-73.52224186340341
 20
68.49638183865014
 30
0.0
 10
-73.47947654554942
 20
68.50333728632191
 30
0.0
 10
-73.72500969027159
 20
68.4632605299731
 30
0.0
 10
-74.27378093631553
 20
68.37684253398335
 30
0.0
 10
-75.13844777725818
 20
68.24902074330272
 30
0.0
 10
-76.28068868645336
 20
68.09645159228356
 30
0.0
 10
-77.66429637061704
 20
67.93623533277471
 30
0.0
 10
-79.27267398361437
 20
67.78436279956028
 30
0.0
 10
-81.03511042149465
 20
67.6606396282356
 30
0.0
 10
-82.92557859721973
 20
67.57785959460834
 30
0.0
 10
-84.8494362496397
 20
67.54688304868702
 30
0.0
 10
-86.78657430330391
 20
67.569999604483
 30
0.0
 10
-88.6468830287122
 20
67.64335653193764
 30
0.0
 10
-90.4204392357857
 20
67.75982327621924
 30
0.0
 10
-92.03201564485784
 20
67.90482419149834
 30
0.0
 10
-93.46939665697583
 20
68.06546302417024
 30
0.0
 10
-94.65776824013301
 20
68.22039612327356
 30
0.0
 10
-95.6088061154879
 20
68.35874701216188
 30
0.0
 10
-95.98137104205993
 20
68.4172922157767
 30
0.0
 10
-96.17040665460256
 20
68.44699745005248
 30
0.0
  0
SPLINE
  5
A6
330
1B
100
AcDbEntity
 67
     1
  8
0
  6
Continuous
 62
     7
370
    25
100
AcDbSpline
210
0.0
220
0.0
230
1.0
 70
     8
 71
     3
 72
    27
 73
    23
 74
     0
 42
0.000000001
 43
0.00000001
 40
0.0
 40
0.0
 40
0.0
 40
0.0
 40
0.0339650465947198
 40
0.0818012092080912
 40
0.1326447382529211
 40
0.1838427863296384
 40
0.2361605990152517
 40
0.2888660036608742
 40
0.3395637595792944
 40
0.3906146413064107
 40
0.44278005985175
 40
0.4953308828212521
 40
0.5459329594201769
 40
0.5968865977372992
 40
0.6489487021099638
 40
0.7013936275167494
 40
0.7683882302895834
 40
0.8362038283926554
 40
0.8869615256209187
 40
0.9380719056437542
 40
0.9902931238483799
 40
1.0
 40
1.0
 40
1.0
 40
1.0
 10
39.0727437857315
 20
-35.8889037683491
 30
0.0
 10
39.53174154014762
 20
-35.26346252731025
 30
0.0
 10
40.63718890734994
 20
-33.75715369116864
 30
0.0
 10
42.25492192927815
 20
-31.065603349148
 30
0.0
 10
43.92894864592646
 20
-27.84961981727356
 30
0.0
 10
45.45024042324113
 20
-24.33364086721713
 30
0.0
 10
46.77801433007794
 20
-20.6020151717445
 30
0.0
 10
47.87542125129106
 20
-16.73135240594623
 30
0.0
 10
48.73550793777655
 20
-12.77363311347679
 30
0.0
 10
49.36254894409709
 20
-8.740281222355991
 30
0.0
 10
49.7564369798185
 20
-4.595350228909514
 30
0.0
 10
49.90273891683933
 20
-0.4288350548211136
 30
0.0
 10
49.8059616675973
 20
3.707688591843485
 30
0.0
 10
49.47274734965224
 20
7.805338506243251
 30
0.0
 10
48.89489498618607
 20
11.89668392806788
 30
0.0
 10
47.99284069353528
 20
16.3146427347241
 30
0.0
 10
46.68610136074367
 20
20.98130282076466
 30
0.0
 10
45.04516461970118
 20
25.36987527468283
 30
0.0
 10
43.2891242523039
 20
29.15737577542992
 30
0.0
 10
41.48789252354959
 20
32.37047694712928
 30
0.0
 10
40.07349613427411
 20
34.62406352628493
 30
0.0
 10
39.20904972356631
 20
35.72006727896241
 30
0.0
 10
39.07355267112702
 20
35.89185962619258
 30
0.0
  0
SPLINE
  5
AA
330
1B
100
AcDbEntity
 67
     1
  8
0
  6
Continuous
 62
     8
370
    25
100
AcDbSpline
210
0.0
220
0.0
230
1.0
 70
     8
 71
     3
 72
     9
 73
     5
 74
     0
 42
0.000000001
 43
0.00000001
 40
0.0
 40
0.0
 40
0.0
 40
0.0
 40
0.6807506950147858
 40
1.0
 40
1.0
 40
1.0
 40
1.0
 10
48.33407588419146
 20
68.02313296335417
 30
0.0
 10
48.3413876716122
 20
68.07568413639564
 30
0.0
 10
48.35212844275542
 20
68.15288005176718
 30
0.0
 10
48.58977041648534
 20
68.21844005613906
 30
0.0
 10
48.66563745143393
 20
68.23937004196962
 30
0.0
  0
SPLINE
  5
AB
330
1B
100
AcDbEntity
 67
     1
  8
0
  6
Continuous
 62
     8
370
    25
100
AcDbSpline
210
0.0
220
0.0
230
1.0
 70
     8
 71
     3
 72
    10
 73
     6
 74
     0
 42
0.000000001
 43
0.00000001
 40
0.0
 40
0.0
 40
0.0
 40
0.0
 40
0.3188049564962034
 40
0.6545767612521606
 40
1.0
 40
1.0
 40
1.0
 40
1.0
 10
49.79541534747091
 20
67.63083239553663
 30
0.0
 10
49.52336911888381
 20
67.66098239929197
 30
0.0
 10
48.96479832005893
 20
67.7228869945869
 30
0.0
 10
48.46141880814276
 20
67.86325652767093
 30
0.0
 10
48.37692258386878
 20
67.9693398085196
 30
0.0
 10
48.33407588419146
 20
68.02313296335417
 30
0.0
  0
LWPOLYLINE
  5
AC
330
1B
100
AcDbEntity
 67
     1
  8
0
  6
Continuous
 62
     8
370
    25
100
AcDbPolyline
 90
       16
 70
   128
 43
0.0
 10
60.9879598773
 20
0.0
 10
60.90852106
 20
-3.5390547168
 10
60.67052448
 20
-7.0638589094
 10
60.2749284657
 20
-10.5602194353
 10
59.7233259425
 20
-14.0140576847
 10
59.0179380191
 20
-17.41146627
 10
58.1616050438
 20
-20.7387650258
 10
57.1577751671
 20
-23.9825560946
 10
56.0104904577
 20
-27.1297778744
 10
54.7243706262
 20
-30.167757614
 10
53.3045944233
 20
-33.0842624412
 10
51.7568787865
 20
-35.8675486205
 10
50.0874558206
 20
-38.5064088407
 10
48.3030477025
 20
-40.9902173431
 10
46.410839614
 20
-43.3089727075
 10
45.2957190588
 20
-44.5438482925
  0
LWPOLYLINE
  5
AD
330
1B
100
AcDbEntity
 67
     1
  8
0
  6
Continuous
 62
     8
370
    25
100
AcDbPolyline
 90
       16
 70
   128
 43
0.0
 10
45.2957190588
 20
44.5438482925
 10
46.410839614
 20
43.3089727075
 10
48.3030477025
 20
40.9902173431
 10
50.0874558206
 20
38.5064088407
 10
51.7568787865
 20
35.8675486205
 10
53.3045944233
 20
33.0842624412
 10
54.7243706262
 20
30.167757614
 10
56.0104904577
 20
27.1297778744
 10
57.1577751671
 20
23.9825560946
 10
58.1616050438
 20
20.7387650258
 10
59.0179380191
 20
17.41146627
 10
59.7233259425
 20
14.0140576847
 10
60.2749284657
 20
10.5602194353
 10
60.67052448
 20
7.0638589094
 10
60.90852106
 20
3.5390547168
 10
60.9879598773
 20
0.0
  0
SPLINE
  5
AE
330
1B
100
AcDbEntity
 67
     1
  8
0
  6
Continuous
 62
     8
370
    25
100
AcDbSpline
210
0.0
220
0.0
230
1.0
 70
     8
 71
     3
 72
    27
 73
    23
 74
     0
 42
0.000000001
 43
0.00000001
 40
0.0
 40
0.0
 40
0.0
 40
0.0
 40
0.001453415232936
 40
0.0543701389513617
 40
0.108801511130441
 40
0.1607040492760447
 40
0.2140760372658878
 40
0.266848683772942
 40
0.3211937848350402
 40
0.3744695681386146
 40
0.4293282892540832
 40
0.4823249187774801
 40
0.5368386025363298
 40
0.5892271919649185
 40
0.6430958108358082
 40
0.6954691766495334
 40
0.7493665035743559
 40
0.8021747027279488
 40
0.8565518563000835
 40
0.9093780754774743
 40
0.9637304107750039
 40
1.0
 40
1.0
 40
1.0
 40
1.0
 10
49.25076244019669
 20
69.01617140077542
 30
0.0
 10
49.25089360424342
 20
69.01472123438991
 30
0.0
 10
49.25580025946803
 20
68.96047263007122
 30
0.0
 10
49.36864948601705
 20
68.8520030737511
 30
0.0
 10
49.82210012095496
 20
68.71162332706187
 30
0.0
 10
50.5528651608976
 20
68.60496382686561
 30
0.0
 10
51.5279778309061
 20
68.54444936644254
 30
0.0
 10
52.74843375123521
 20
68.53625173435441
 30
0.0
 10
54.16572974677081
 20
68.58274112009086
 30
0.0
 10
55.75911841663906
 20
68.67982336832159
 30
0.0
 10
57.451232372315
 20
68.8147234352121
 30
0.0
 10
59.21903414084419
 20
68.97354784339912
 30
0.0
 10
60.97514411752769
 20
69.13517835688916
 30
0.0
 10
62.70670629317176
 20
69.28469451152625
 30
0.0
 10
64.3369536485718
 20
69.40373206223502
 30
0.0
 10
65.8564909038398
 20
69.48177728725273
 30
0.0
 10
67.19905175514846
 20
69.50899163771076
 30
0.0
 10
68.34646802961302
 20
69.48224206466756
 30
0.0
 10
69.2496007972915
 20
69.40445406996142
 30
0.0
 10
69.87024521809123
 20
69.28317685680113
 30
0.0
 10
70.23645662533696
 20
69.14944642486067
 30
0.0
 10
70.19061972999398
 20
69.0588889751491
 30
0.0
 10
70.17227444132132
 20
69.02264519066088
 30
0.0
  0
LWPOLYLINE
  5
B0
330
1B
100
AcDbEntity
 67
     1
  8
0
  6
Continuous
 62
     8
370
    25
100
AcDbPolyline
 90
       15
 70
   128
 43
0.0
 10
54.0834119962
 20
0.0
 10
54.0034529269
 20
-3.4182050213
 10
53.7639253597
 20
-6.8214631018
 10
53.3658766876
 20
-10.1948926598
 10
52.8110474762
 20
-13.5237425461
 10
52.1018638526
 20
-16.7934565473
 10
51.2414268962
 20
-19.9897370358
 10
50.2334990789
 20
-23.0986074904
 10
49.0824878126
 20
-26.1064736116
 10
47.7934261768
 20
-29.0001827662
 10
46.3719509099
 20
-31.7670815003
 10
44.8242777616
 20
-34.3950708697
 10
43.1571743129
 20
-36.8726593456
 10
41.377930383
 20
-39.189013064
 10
41.2052279516
 20
-39.3980458095
  0
LWPOLYLINE
  5
B1
330
1B
100
AcDbEntity
 67
     1
  8
0
  6
Continuous
 62
     8
370
    25
100
AcDbPolyline
 90
       15
 70
   128
 43
0.0
 10
41.2052279516
 20
39.3980458095
 10
41.377930383
 20
39.189013064
 10
43.1571743129
 20
36.8726593456
 10
44.8242777616
 20
34.3950708697
 10
46.3719509099
 20
31.7670815003
 10
47.7934261768
 20
29.0001827662
 10
49.0824878126
 20
26.1064736116
 10
50.2334990789
 20
23.0986074904
 10
51.2414268962
 20
19.9897370358
 10
52.1018638526
 20
16.7934565473
 10
52.8110474762
 20
13.5237425461
 10
53.3658766876
 20
10.1948926598
 10
53.7639253597
 20
6.8214631018
 10
54.0034529269
 20
3.4182050213
 10
54.0834119962
 20
0.0
  0
SPLINE
  5
B2
330
1B
100
AcDbEntity
 67
     1
  8
0
  6
Continuous
 62
     8
370
    25
100
AcDbSpline
210
0.0
220
0.0
230
1.0
 70
     8
 71
     3
 72
    27
 73
    23
 74
     0
 42
0.000000001
 43
0.00000001
 40
0.0
 40
0.0
 40
0.0
 40
0.0
 40
0.0761535728356014
 40
0.1298944284115519
 40
0.1836393148358602
 40
0.1840449106524237
 40
0.2376619035679419
 40
0.2912795540232858
 40
0.3442613189897502
 40
0.3972394991946291
 40
0.4502588357276633
 40
0.503275805439851
 40
0.5569555978418491
 40
0.6106381840269944
 40
0.6645644880778433
 40
0.7184944127948998
 40
0.7718846448168211
 40
0.8252737610705901
 40
0.8782982541142724
 40
0.9313189172041186
 40
0.9843404891329798
 40
1.0
 40
1.0
 40
1.0
 40
1.0
 10
-95.50000000000007
 20
69.5
 30
0.0
 10
-95.4430145686692
 20
69.48953838477777
 30
0.0
 10
-95.34581505780066
 20
69.47169410670969
 30
0.0
 10
-94.67378321915427
 20
69.35436693403705
 30
0.0
 10
-94.11598587766504
 20
69.26442659091204
 30
0.0
 10
-93.46988251577261
 20
69.16597124883273
 30
0.0
 10
-92.73811143384707
 20
69.05997159580635
 30
0.0
 10
-91.43705828997292
 20
68.89783907353308
 30
0.0
 10
-89.95760164525315
 20
68.75023090278381
 30
0.0
 10
-88.3475899094227
 20
68.6315959342219
 30
0.0
 10
-86.64016102852297
 20
68.55739224588875
 30
0.0
 10
-84.87893083561839
 20
68.53256859596101
 30
0.0
 10
-83.1137101446996
 20
68.56485928328182
 30
0.0
 10
-81.39286545243965
 20
68.64726762580614
 30
0.0
 10
-79.7768902412563
 20
68.77379142765986
 30
0.0
 10
-78.3116553128745
 20
68.92676999864125
 30
0.0
 10
-77.04414243145006
 20
69.08990965683212
 30
0.0
 10
-76.00234796770407
 20
69.24439533261832
 30
0.0
 10
-75.2110574911969
 20
69.37406330355768
 30
0.0
 10
-74.70781218379148
 20
69.46244226209019
 30
0.0
 10
-74.48407128856124
 20
69.50263199843292
 30
0.0
 10
-74.5224322793333
 20
69.49579874397047
 30
0.0
 10
-74.53117871033602
 20
69.49424073966776
 30
0.0
  0
LINE
  5
B3
330
1B
100
AcDbEntity
 67
     1
  8
0
  6
Continuous
 62
     7
370
    25
100
AcDbLine
 10
-99.0
 20
-68.5
 30
0.0
 11
70.0035713375
 21
-68.5
 31
0.0
  0
LINE
  5
B4
330
1B
100
AcDbEntity
 67
     1
  8
0
  6
Continuous
 62
     7
370
    25
100
AcDbLine
 10
49.075784574
 20
68.5
 30
0.0
 11
-73.5314142345
 21
68.5
 31
0.0
  0
LINE
  5
B5
330
1B
100
AcDbEntity
 67
     1
  8
0
  6
Continuous
 62
     7
370
    25
100
AcDbLine
 10
70.0035713375
 20
68.5
 30
0.0
 11
67.8819946824
 21
68.5
 31
0.0
  0
LINE
  5
B6
330
1B
100
AcDbEntity
 67
     1
  8
0
  6
Continuous
 62
     7
370
    25
100
AcDbLine
 10
49.2505230103
 20
84.1
 30
0.0
 11
49.2505230103
 21
69.0225128434
 31
0.0
  0
LINE
  5
B7
330
1B
100
AcDbEntity
 67
     1
  8
0
  6
Continuous
 62
     7
370
    25
100
AcDbLine
 10
70.2505230103
 20
69.0227344181
 30
0.0
 11
70.2505230103
 21
84.1
 31
0.0
  0
LINE
  5
B8
330
1B
100
AcDbEntity
 67
     1
  8
0
  6
Continuous
 62
     7
370
    25
100
AcDbLine
 10
-96.5
 20
68.5
 30
0.0
 11
-99.0
 21
68.5
 31
0.0
  0
LINE
  5
B9
330
1B
100
AcDbEntity
 67
     1
  8
0
  6
Continuous
 62
     7
370
    25
100
AcDbLine
 10
-95.5
 20
84.1
 30
0.0
 11
-95.5
 21
69.5
 31
0.0
  0
LINE
  5
BA
330
1B
100
AcDbEntity
 67
     1
  8
0
  6
Continuous
 62
     7
370
    25
100
AcDbLine
 10
-74.5
 20
69.4942847831
 30
0.0
 11
-74.5
 21
84.1
 31
0.0
  0
LINE
  5
BB
330
1B
100
AcDbEntity
 67
     1
  8
0
  6
Continuous
 62
     7
370
    25
100
AcDbLine
 10
48.6656374514
 20
68.239370042
 30
0.0
 11
48.8388748086
 21
68.2935722555
 31
0.0
  0
LINE
  5
BC
330
1B
100
AcDbEntity
 67
     1
  8
0
  6
Continuous
 62
     7
370
    25
100
AcDbLine
 10
49.2505230103
 20
84.1
 30
0.0
 11
70.2505230103
 21
84.1
 31
0.0
  0
LINE
  5
BD
330
1B
100
AcDbEntity
 67
     1
  8
0
  6
Continuous
 62
     7
370
    25
100
AcDbLine
 10
-99.0
 20
68.5
 30
0.0
 11
-99.0
 21
-68.5
 31
0.0
  0
LINE
  5
BE
330
1B
100
AcDbEntity
 67
     1
  8
0
  6
Continuous
 62
     7
370
    25
100
AcDbLine
 10
-95.5
 20
84.1
 30
0.0
 11
-74.5
 21
84.1
 31
0.0
  0
LINE
  5
BF
330
1B
100
AcDbEntity
 67
     1
  8
0
  6
Continuous
 62
     8
370
    25
100
AcDbLine
 10
-96.1704066546
 20
68.4469974501
 30
0.0
 11
-96.5
 21
68.5
 31
0.0
  0
ARC
  5
C0
330
1B
100
AcDbEntity
 67
     1
  8
0
  6
Continuous
 62
     7
370
    25
100
AcDbCircle
 10
-13.4982540426
 20
-1.1373837577
 30
0.0
 40
61.47460873923699
100
AcDbArc
 50
327.1772941116
 51
1.0601288701
  0
ARC
  5
C1
330
1B
100
AcDbEntity
 67
     1
  8
0
  6
Continuous
 62
     7
370
    25
100
AcDbCircle
 10
-13.4982540426
 20
1.1373837577
 30
0.0
 40
61.47460873923537
100
AcDbArc
 50
358.9398711299
 51
32.8227058884
  0
VIEWPORT
  5
106
330
1B
100
AcDbEntity
 67
     1
  8
0
100
AcDbViewport
 10
0.0
 20
0.0
 30
0.0
 40
205.6
 41
156.0
 68
     1
 69
     1
 12
9.7201929244
 22
24.9701929244
 13
0.0
 23
0.0
 14
10.0
 24
10.0
 15
10.0
 25
10.0
 16
0.0
 26
0.0
 36
1.0
 17
0.0
 27
0.0
 37
0.0
 42
50.0
 43
0.0
 44
0.0
 45
190.6791935657
 50
0.0
 51
0.0
 72
   100
 90
   557152
  1

281
     0
 71
     1
 74
     0
110
0.0
120
0.0
130
0.0
111
1.0
121
0.0
131
0.0
112
0.0
122
1.0
132
0.0
 79
     0
146
0.0
  0
ENDSEC
  0
SECTION
  2
OBJECTS
  0
DICTIONARY
  5
C
330
0
100
AcDbDictionary
281
     1
  3
ACAD_GROUP
350
D
  3
ACAD_LAYOUT
350
1A
  3
ACAD_MLINESTYLE
350
17
  3
ACAD_PLOTSETTINGS
350
19
  3
ACAD_PLOTSTYLENAME
350
E
  3
ACAD_SCALELIST
350
47
  0
DICTIONARY
  5
D
102
{ACAD_REACTORS
330
C
102
}
330
C
100
AcDbDictionary
281
     1
  0
DICTIONARY
  5
1A
102
{ACAD_REACTORS
330
C
102
}
330
C
100
AcDbDictionary
281
     1
  3
_Left
350
26
  3
_Top
350
1E
  3
Model
350
22
  0
DICTIONARY
  5
17
102
{ACAD_REACTORS
330
C
102
}
330
C
100
AcDbDictionary
281
     1
  3
Standard
350
18
  0
DICTIONARY
  5
19
102
{ACAD_REACTORS
330
C
102
}
330
C
100
AcDbDictionary
281
     1
  0
ACDBDICTIONARYWDFLT
  5
E
102
{ACAD_REACTORS
330
C
102
}
330
C
100
AcDbDictionary
281
     1
  3
Normal
350
F
100
AcDbDictionaryWithDefault
340
F
  0
DICTIONARY
  5
47
102
{ACAD_REACTORS
330
C
102
}
330
C
100
AcDbDictionary
281
     1
  3
A0
350
48
  3
A1
350
49
  3
A2
350
4A
  3
A3
350
4B
  3
A4
350
4C
  3
A5
350
4D
  3
A6
350
4E
  3
A7
350
4F
  3
A8
350
50
  3
A9
350
51
  3
B0
350
52
  3
B1
350
53
  3
B2
350
54
  3
B3
350
55
  3
B4
350
56
  3
B5
350
57
  3
B6
350
58
  3
B7
350
59
  3
B8
350
5A
  3
B9
350
5B
  3
C0
350
5C
  3
C1
350
5D
  3
C2
350
5E
  3
C3
350
5F
  3
C4
350
60
  3
C5
350
61
  3
C6
350
62
  3
C7
350
63
  3
C8
350
64
  3
C9
350
65
  3
D0
350
66
  3
D1
350
67
  3
D2
350
68
  0
LAYOUT
  5
26
102
{ACAD_REACTORS
330
1A
102
}
330
1A
100
AcDbPlotSettings
  1

  2
none_device
  4
ISO_A4_(210.00_x_297.00_MM)
  6

 40
7.5
 41
20.0
 42
7.5
 43
20.0
 44
210.0
 45
297.0
 46
0.0
 47
0.0
 48
0.0
 49
0.0
140
0.0
141
0.0
142
1.0
143
0.8460715403
 70
   688
 72
     1
 73
     1
 74
     1
  7

 75
     0
147
1.1819331492
148
99.0
149
68.5
100
AcDbLayout
  1
_Left
 70
     1
 71
     2
 10
0.0
 20
0.0
 11
0.0
 21
0.0
 12
0.0
 22
0.0
 32
0.0
 14
0.0
 24
0.0
 34
0.0
 15
0.0
 25
0.0
 35
0.0
146
0.0
 13
0.0
 23
0.0
 33
0.0
 16
1.0
 26
0.0
 36
0.0
 17
0.0
 27
1.0
 37
0.0
 76
     0
330
23
331
108
  0
LAYOUT
  5
1E
102
{ACAD_REACTORS
330
1A
102
}
330
1A
100
AcDbPlotSettings
  1

  2
none_device
  4
ISO_A4_(210.00_x_297.00_MM)
  6

 40
7.5
 41
20.0
 42
7.5
 43
20.0
 44
210.0
 45
297.0
 46
0.0
 47
0.0
 48
0.0
 49
0.0
140
0.0
141
0.0
142
1.0
143
0.8460715403
 70
   688
 72
     1
 73
     1
 74
     1
  7

 75
     0
147
1.1819331492
148
99.0
149
68.5
100
AcDbLayout
  1
_Top
 70
     1
 71
     1
 10
-115.9214308053
 20
-74.845536552
 11
135.3618166541
 21
102.8294869042
 12
0.0
 22
0.0
 32
0.0
 14
-99.0
 24
-68.5
 34
0.0
 15
118.4403858487
 25
84.1
 35
0.0
146
0.0
 13
0.0
 23
0.0
 33
0.0
 16
1.0
 26
0.0
 36
0.0
 17
0.0
 27
1.0
 37
0.0
 76
     0
330
1B
331
106
  0
LAYOUT
  5
22
102
{ACAD_REACTORS
330
1A
102
}
330
1A
100
AcDbPlotSettings
  1

  2
none_device
  4
ANSI_A_(11.00_x_8.50_Inches)
  6

 40
6.35
 41
19.05
 42
6.35000508
 43
19.05000254
 44
279.4
 45
215.9
 46
122.2362739785
 47
60.3499666884
 48
0.0
 49
0.0
140
0.0
141
0.0
142
0.0450143502
143
1.0
 70
  1696
 72
     0
 73
     0
 74
     0
  7

 75
     0
147
0.0179189148
148
-1300.4909072572
149
0.0
100
AcDbLayout
  1
Model
 70
     1
 71
     0
 10
0.0
 20
0.0
 11
420.0
 21
297.0
 12
0.0
 22
0.0
 32
0.0
 14
-99.0
 24
-68.5
 34
0.0
 15
118.4403858487
 25
118.4403858487
 35
0.0
146
0.0
 13
0.0
 23
0.0
 33
0.0
 16
1.0
 26
0.0
 36
0.0
 17
0.0
 27
1.0
 37
0.0
 76
     0
330
1F
331
29
  0
MLINESTYLE
  5
18
102
{ACAD_REACTORS
330
17
102
}
330
17
100
AcDbMlineStyle
  2
Standard
 70
     0
  3

 62
   256
 51
90.0
 52
90.0
 71
     2
 49
0.5
 62
   256
  6
BYLAYER
 49
-0.5
 62
   256
  6
BYLAYER
  0
ACDBPLACEHOLDER
  5
F
102
{ACAD_REACTORS
330
E
102
}
330
E
  0
SCALE
  5
48
102
{ACAD_REACTORS
330
47
102
}
330
47
100
AcDbScale
 70
     0
300
1:1
140
1.0
141
1.0
290
     1
  0
SCALE
  5
49
102
{ACAD_REACTORS
330
47
102
}
330
47
100
AcDbScale
 70
     0
300
1:2
140
1.0
141
2.0
290
     0
  0
SCALE
  5
4A
102
{ACAD_REACTORS
330
47
102
}
330
47
100
AcDbScale
 70
     0
300
1:4
140
1.0
141
4.0
290
     0
  0
SCALE
  5
4B
102
{ACAD_REACTORS
330
47
102
}
330
47
100
AcDbScale
 70
     0
300
1:5
140
1.0
141
5.0
290
     0
  0
SCALE
  5
4C
102
{ACAD_REACTORS
330
47
102
}
330
47
100
AcDbScale
 70
     0
300
1:8
140
1.0
141
8.0
290
     0
  0
SCALE
  5
4D
102
{ACAD_REACTORS
330
47
102
}
330
47
100
AcDbScale
 70
     0
300
1:10
140
1.0
141
10.0
290
     0
  0
SCALE
  5
4E
102
{ACAD_REACTORS
330
47
102
}
330
47
100
AcDbScale
 70
     0
300
1:16
140
1.0
141
16.0
290
     0
  0
SCALE
  5
4F
102
{ACAD_REACTORS
330
47
102
}
330
47
100
AcDbScale
 70
     0
300
1:20
140
1.0
141
20.0
290
     0
  0
SCALE
  5
50
102
{ACAD_REACTORS
330
47
102
}
330
47
100
AcDbScale
 70
     0
300
1:30
140
1.0
141
30.0
290
     0
  0
SCALE
  5
51
102
{ACAD_REACTORS
330
47
102
}
330
47
100
AcDbScale
 70
     0
300
1:40
140
1.0
141
40.0
290
     0
  0
SCALE
  5
52
102
{ACAD_REACTORS
330
47
102
}
330
47
100
AcDbScale
 70
     0
300
1:50
140
1.0
141
50.0
290
     0
  0
SCALE
  5
53
102
{ACAD_REACTORS
330
47
102
}
330
47
100
AcDbScale
 70
     0
300
1:100
140
1.0
141
100.0
290
     0
  0
SCALE
  5
54
102
{ACAD_REACTORS
330
47
102
}
330
47
100
AcDbScale
 70
     0
300
2:1
140
2.0
141
1.0
290
     0
  0
SCALE
  5
55
102
{ACAD_REACTORS
330
47
102
}
330
47
100
AcDbScale
 70
     0
300
4:1
140
4.0
141
1.0
290
     0
  0
SCALE
  5
56
102
{ACAD_REACTORS
330
47
102
}
330
47
100
AcDbScale
 70
     0
300
8:1
140
8.0
141
1.0
290
     0
  0
SCALE
  5
57
102
{ACAD_REACTORS
330
47
102
}
330
47
100
AcDbScale
 70
     0
300
10:1
140
10.0
141
1.0
290
     0
  0
SCALE
  5
58
102
{ACAD_REACTORS
330
47
102
}
330
47
100
AcDbScale
 70
     0
300
100:1
140
100.0
141
1.0
290
     0
  0
SCALE
  5
59
102
{ACAD_REACTORS
330
47
102
}
330
47
100
AcDbScale
 70
     0
300
1/128" = 1'-0"
140
0.0078125
141
12.0
290
     0
  0
SCALE
  5
5A
102
{ACAD_REACTORS
330
47
102
}
330
47
100
AcDbScale
 70
     0
300
1/64" = 1'-0"
140
0.015625
141
12.0
290
     0
  0
SCALE
  5
5B
102
{ACAD_REACTORS
330
47
102
}
330
47
100
AcDbScale
 70
     0
300
1/32" = 1'-0"
140
0.03125
141
12.0
290
     0
  0
SCALE
  5
5C
102
{ACAD_REACTORS
330
47
102
}
330
47
100
AcDbScale
 70
     0
300
1/16" = 1'-0"
140
0.0625
141
12.0
290
     0
  0
SCALE
  5
5D
102
{ACAD_REACTORS
330
47
102
}
330
47
100
AcDbScale
 70
     0
300
3/32" = 1'-0"
140
0.09375
141
12.0
290
     0
  0
SCALE
  5
5E
102
{ACAD_REACTORS
330
47
102
}
330
47
100
AcDbScale
 70
     0
300
1/8" = 1'-0"
140
0.125
141
12.0
290
     0
  0
SCALE
  5
5F
102
{ACAD_REACTORS
330
47
102
}
330
47
100
AcDbScale
 70
     0
300
3/16" = 1'-0"
140
0.1875
141
12.0
290
     0
  0
SCALE
  5
60
102
{ACAD_REACTORS
330
47
102
}
330
47
100
AcDbScale
 70
     0
300
1/4" = 1'-0"
140
0.25
141
12.0
290
     0
  0
SCALE
  5
61
102
{ACAD_REACTORS
330
47
102
}
330
47
100
AcDbScale
 70
     0
300
3/8" = 1'-0"
140
0.375
141
12.0
290
     0
  0
SCALE
  5
62
102
{ACAD_REACTORS
330
47
102
}
330
47
100
AcDbScale
 70
     0
300
1/2" = 1'-0"
140
0.5
141
12.0
290
     0
  0
SCALE
  5
63
102
{ACAD_REACTORS
330
47
102
}
330
47
100
AcDbScale
 70
     0
300
3/4" = 1'-0"
140
0.75
141
12.0
290
     0
  0
SCALE
  5
64
102
{ACAD_REACTORS
330
47
102
}
330
47
100
AcDbScale
 70
     0
300
1" = 1'-0"
140
1.0
141
12.0
290
     0
  0
SCALE
  5
65
102
{ACAD_REACTORS
330
47
102
}
330
47
100
AcDbScale
 70
     0
300
1-1/2" = 1'-0"
140
1.5
141
12.0
290
     0
  0
SCALE
  5
66
102
{ACAD_REACTORS
330
47
102
}
330
47
100
AcDbScale
 70
     0
300
3" = 1'-0"
140
3.0
141
12.0
290
     0
  0
SCALE
  5
67
102
{ACAD_REACTORS
330
47
102
}
330
47
100
AcDbScale
 70
     0
300
6" = 1'-0"
140
6.0
141
12.0
290
     0
  0
SCALE
  5
68
102
{ACAD_REACTORS
330
47
102
}
330
47
100
AcDbScale
 70
     0
300
1'-0" = 1'-0"
140
12.0
141
12.0
290
     0
  0
ENDSEC
  0
EOF
