  0
SECTION
  2
HEADER
  9
$ACADVER
  1
AC1015
  9
$ACADMAINTVER
 70
     6
  9
$DWGCODEPAGE
  3
ANSI_1252
  9
$INSBASE
 10
0.0
 20
0.0
 30
0.0
  9
$EXTMIN
 10
-21.5709682736
 20
-41.5
 30
0.0
  9
$EXTMAX
 10
112.4290317264
 20
41.5
 30
0.0
  9
$LIMMIN
 10
0.0
 20
0.0
  9
$LIMMAX
 10
420.0
 20
297.0
  9
$ORTHOMODE
 70
     0
  9
$REGENMODE
 70
     1
  9
$FILLMODE
 70
     1
  9
$QTEXTMODE
 70
     0
  9
$MIRRTEXT
 70
     1
  9
$LTSCALE
 40
1.0
  9
$ATTMODE
 70
     1
  9
$TEXTSIZE
 40
6.35
  9
$TRACEWID
 40
1.0
  9
$TEXTSTYLE
  7
Standard
  9
$CLAYER
  8
0
  9
$CELTYPE
  6
ByLayer
  9
$CECOLOR
 62
   256
  9
$CELTSCALE
 40
1.0
  9
$DISPSILH
 70
     0
  9
$DIMSCALE
 40
1.0
  9
$DIMASZ
 40
5.9944
  9
$DIMEXO
 40
0.9906
  9
$DIMDLI
 40
3.75
  9
$DIMRND
 40
0.0
  9
$DIMDLE
 40
0.0
  9
$DIMEXE
 40
0.9906
  9
$DIMTP
 40
0.0
  9
$DIMTM
 40
0.0
  9
$DIMTXT
 40
6.35
  9
$DIMCEN
 40
2.5
  9
$DIMTSZ
 40
0.0
  9
$DIMTOL
 70
     0
  9
$DIMLIM
 70
     0
  9
$DIMTIH
 70
     1
  9
$DIMTOH
 70
     1
  9
$DIMSE1
 70
     0
  9
$DIMSE2
 70
     0
  9
$DIMTAD
 70
     1
  9
$DIMZIN
 70
     0
  9
$DIMBLK
  1

  9
$DIMASO
 70
     1
  9
$DIMSHO
 70
     1
  9
$DIMPOST
  1

  9
$DIMAPOST
  1

  9
$DIMALT
 70
     0
  9
$DIMALTD
 70
     3
  9
$DIMALTF
 40
0.0393700787
  9
$DIMLFAC
 40
1.0
  9
$DIMTOFL
 70
     1
  9
$DIMTVP
 40
0.0
  9
$DIMTIX
 70
     0
  9
$DIMSOXD
 70
     0
  9
$DIMSAH
 70
     0
  9
$DIMBLK1
  1

  9
$DIMBLK2
  1

  9
$DIMSTYLE
  2
ISO-25
  9
$DIMCLRD
 70
     0
  9
$DIMCLRE
 70
     0
  9
$DIMCLRT
 70
     0
  9
$DIMTFAC
 40
1.0
  9
$DIMGAP
 40
1.524
  9
$DIMJUST
 70
     0
  9
$DIMSD1
 70
     0
  9
$DIMSD2
 70
     0
  9
$DIMTOLJ
 70
     0
  9
$DIMTZIN
 70
     0
  9
$DIMALTZ
 70
     0
  9
$DIMALTTZ
 70
     0
  9
$DIMUPT
 70
     0
  9
$DIMDEC
 70
     2
  9
$DIMTDEC
 70
     2
  9
$DIMALTU
 70
     2
  9
$DIMALTTD
 70
     3
  9
$DIMTXSTY
  7
Standard
  9
$DIMAUNIT
 70
     0
  9
$DIMADEC
 70
     2
  9
$DIMALTRND
 40
0.0
  9
$DIMAZIN
 70
     0
  9
$DIMDSEP
 70
    44
  9
$DIMATFIT
 70
     3
  9
$DIMFRAC
 70
     0
  9
$DIMLDRBLK
  1

  9
$DIMLUNIT
 70
     2
  9
$DIMLWD
 70
    -2
  9
$DIMLWE
 70
    -2
  9
$DIMTMOVE
 70
     0
  9
$LUNITS
 70
     2
  9
$LUPREC
 70
     2
  9
$SKETCHINC
 40
1.0
  9
$FILLETRAD
 40
10.0
  9
$AUNITS
 70
     0
  9
$AUPREC
 70
     2
  9
$MENU
  1
.
  9
$ELEVATION
 40
0.0
  9
$PELEVATION
 40
0.0
  9
$THICKNESS
 40
0.0
  9
$LIMCHECK
 70
     0
  9
$CHAMFERA
 40
0.0
  9
$CHAMFERB
 40
0.0
  9
$CHAMFERC
 40
0.0
  9
$CHAMFERD
 40
0.0
  9
$SKPOLY
 70
     0
  9
$TDCREATE
 40
2459349.590969502
  9
$TDUCREATE
 40
2459349.549302835
  9
$TDUPDATE
 40
2459349.591000428
  9
$TDUUPDATE
 40
2459349.549333761
  9
$TDINDWG
 40
0.0000000116
  9
$TDUSRTIMER
 40
0.0000000116
  9
$USRTIMER
 70
     1
  9
$ANGBASE
 50
0.0
  9
$ANGDIR
 70
     0
  9
$PDMODE
 70
     0
  9
$PDSIZE
 40
-1.0
  9
$PLINEWID
 40
0.0
  9
$SPLFRAME
 70
     0
  9
$SPLINETYPE
 70
     6
  9
$SPLINESEGS
 70
     8
  9
$HANDSEED
  5
123
  9
$SURFTAB1
 70
     6
  9
$SURFTAB2
 70
     6
  9
$SURFTYPE
 70
     6
  9
$SURFU
 70
     6
  9
$SURFV
 70
     6
  9
$UCSBASE
  2

  9
$UCSNAME
  2

  9
$UCSORG
 10
0.0
 20
0.0
 30
0.0
  9
$UCSXDIR
 10
1.0
 20
0.0
 30
0.0
  9
$UCSYDIR
 10
0.0
 20
1.0
 30
0.0
  9
$UCSORTHOREF
  2

  9
$UCSORTHOVIEW
 70
     0
  9
$UCSORGTOP
 10
0.0
 20
0.0
 30
0.0
  9
$UCSORGBOTTOM
 10
0.0
 20
0.0
 30
0.0
  9
$UCSORGLEFT
 10
0.0
 20
0.0
 30
0.0
  9
$UCSORGRIGHT
 10
0.0
 20
0.0
 30
0.0
  9
$UCSORGFRONT
 10
0.0
 20
0.0
 30
0.0
  9
$UCSORGBACK
 10
0.0
 20
0.0
 30
0.0
  9
$PUCSBASE
  2

  9
$PUCSNAME
  2

  9
$PUCSORG
 10
0.0
 20
0.0
 30
0.0
  9
$PUCSXDIR
 10
1.0
 20
0.0
 30
0.0
  9
$PUCSYDIR
 10
0.0
 20
1.0
 30
0.0
  9
$PUCSORTHOREF
  2

  9
$PUCSORTHOVIEW
 70
     0
  9
$PUCSORGTOP
 10
0.0
 20
0.0
 30
0.0
  9
$PUCSORGBOTTOM
 10
0.0
 20
0.0
 30
0.0
  9
$PUCSORGLEFT
 10
0.0
 20
0.0
 30
0.0
  9
$PUCSORGRIGHT
 10
0.0
 20
0.0
 30
0.0
  9
$PUCSORGFRONT
 10
0.0
 20
0.0
 30
0.0
  9
$PUCSORGBACK
 10
0.0
 20
0.0
 30
0.0
  9
$USERI1
 70
     0
  9
$USERI2
 70
     0
  9
$USERI3
 70
     0
  9
$USERI4
 70
     0
  9
$USERI5
 70
     0
  9
$USERR1
 40
0.0
  9
$USERR2
 40
0.0
  9
$USERR3
 40
0.0
  9
$USERR4
 40
0.0
  9
$USERR5
 40
0.0
  9
$WORLDVIEW
 70
     1
  9
$SHADEDGE
 70
     3
  9
$SHADEDIF
 70
    70
  9
$TILEMODE
 70
     1
  9
$MAXACTVP
 70
    64
  9
$PINSBASE
 10
0.0
 20
0.0
 30
0.0
  9
$PLIMCHECK
 70
     0
  9
$PEXTMIN
 10
-41.5
 20
-41.5
 30
0.0
  9
$PEXTMAX
 10
41.5
 20
41.5
 30
0.0
  9
$PLIMMIN
 10
-50.0128205128
 20
-44.6923076923
  9
$PLIMMAX
 10
76.4025641026
 20
44.6923076923
  9
$UNITMODE
 70
     0
  9
$VISRETAIN
 70
     1
  9
$PLINEGEN
 70
     0
  9
$PSLTSCALE
 70
     1
  9
$TREEDEPTH
 70
  3020
  9
$CMLSTYLE
  2
Standard
  9
$CMLJUST
 70
     0
  9
$CMLSCALE
 40
20.0
  9
$PROXYGRAPHICS
 70
     1
  9
$MEASUREMENT
 70
     1
  9
$CELWEIGHT
370
    -1
  9
$ENDCAPS
280
     0
  9
$JOINSTYLE
280
     0
  9
$LWDISPLAY
290
     1
  9
$INSUNITS
 70
     4
  9
$HYPERLINKBASE
  1

  9
$STYLESHEET
  1

  9
$XEDIT
290
     1
  9
$CEPSNTYPE
380
     0
  9
$PSTYLEMODE
290
     1
  9
$FINGERPRINTGUID
  2
{b4693535-b5b0-4862-944a-a47606fc07e1}
  9
$VERSIONGUID
  2
{FAEB1C32-E019-11D5-929B-00C0DF256EC4}
  9
$EXTNAMES
290
     1
  9
$PSVPSCALE
 40
0.0
  9
$OLESTARTUP
290
     0
  0
ENDSEC
  0
SECTION
  2
CLASSES
  0
CLASS
  1
ACDBDICTIONARYWDFLT
  2
AcDbDictionaryWithDefault
  3
ObjectDBX Classes
 90
        0
280
     0
281
     0
  0
CLASS
  1
VISUALSTYLE
  2
AcDbVisualStyle
  3
ObjectDBX Classes
 90
     4095
280
     0
281
     0
  0
CLASS
  1
MATERIAL
  2
AcDbMaterial
  3
ObjectDBX Classes
 90
     1153
280
     0
281
     0
  0
CLASS
  1
SCALE
  2
AcDbScale
  3
ObjectDBX Classes
 90
     1153
280
     0
281
     0
  0
CLASS
  1
TABLESTYLE
  2
AcDbTableStyle
  3
ObjectDBX Classes
 90
     4095
280
     0
281
     0
  0
CLASS
  1
MLEADERSTYLE
  2
AcDbMLeaderStyle
  3
ACDB_MLEADERSTYLE_CLASS
 90
     4095
280
     0
281
     0
  0
CLASS
  1
SUN
  2
AcDbSun
  3
SCENEOE
 90
     1153
280
     0
281
     0
  0
CLASS
  1
ACDBPLACEHOLDER
  2
AcDbPlaceHolder
  3
ObjectDBX Classes
 90
        0
280
     0
281
     0
  0
CLASS
  1
LAYOUT
  2
AcDbLayout
  3
ObjectDBX Classes
 90
        0
280
     0
281
     0
  0
ENDSEC
  0
SECTION
  2
TABLES
  0
TABLE
  2
VPORT
  5
8
330
0
100
AcDbSymbolTable
 70
     1
  0
VPORT
  5
29
330
8
100
AcDbSymbolTableRecord
100
AcDbViewportTableRecord
  2
*Active
 70
     0
 10
0.0
 20
0.0
 11
1.0
 21
1.0
 12
45.4290317264
 22
0.0
 13
0.0
 23
0.0
 14
10.0
 24
10.0
 15
10.0
 25
10.0
 16
0.0
 26
0.0
 36
1.0
 17
0.0
 27
0.0
 37
0.0
 40
84.66
 41
1.6144578313
 42
50.0
 43
0.0
 44
0.0
 50
0.0
 51
0.0
 71
     0
 72
   100
 73
     1
 74
     3
 75
     0
 76
     0
 77
     0
 78
     0
281
     0
 65
     1
110
0.0
120
0.0
130
0.0
111
1.0
121
0.0
131
0.0
112
0.0
122
1.0
132
0.0
 79
     0
146
0.0
  0
ENDTAB
  0
TABLE
  2
LTYPE
  5
5
330
0
100
AcDbSymbolTable
 70
     6
  0
LTYPE
  5
14
330
5
100
AcDbSymbolTableRecord
100
AcDbLinetypeTableRecord
  2
ByBlock
 70
     0
  3

 72
    65
 73
     0
 40
0.0
  0
LTYPE
  5
15
330
5
100
AcDbSymbolTableRecord
100
AcDbLinetypeTableRecord
  2
ByLayer
 70
     0
  3

 72
    65
 73
     0
 40
0.0
  0
LTYPE
  5
16
330
5
100
AcDbSymbolTableRecord
100
AcDbLinetypeTableRecord
  2
Continuous
 70
     0
  3
Solid line
 72
    65
 73
     0
 40
0.0
  0
LTYPE
  5
6E
330
5
100
AcDbSymbolTableRecord
100
AcDbLinetypeTableRecord
  2
HIDDEN
 70
     0
  3
Hidden __ __ __ __ __ __ __ __ __ __ __ __ __ __
 72
    65
 73
     2
 40
1.905
 49
1.27
 74
     0
 49
-0.635
 74
     0
  0
LTYPE
  5
6F
330
5
100
AcDbSymbolTableRecord
100
AcDbLinetypeTableRecord
  2
PHANTOM
 70
     0
  3
Phantom ______  __  __  ______  __  __  ______
 72
    65
 73
     6
 40
12.7
 49
6.35
 74
     0
 49
-1.27
 74
     0
 49
1.27
 74
     0
 49
-1.27
 74
     0
 49
1.27
 74
     0
 49
-1.27
 74
     0
  0
LTYPE
  5
70
330
5
100
AcDbSymbolTableRecord
100
AcDbLinetypeTableRecord
  2
CENTER
 70
     0
  3
Center ____ _ ____ _ ____ _ ____ _ ____ _ ____
 72
    65
 73
     4
 40
10.16
 49
6.35
 74
     0
 49
-1.27
 74
     0
 49
1.27
 74
     0
 49
-1.27
 74
     0
  0
LTYPE
  5
71
330
5
100
AcDbSymbolTableRecord
100
AcDbLinetypeTableRecord
  2
CENTERX2
 70
     0
  3
Center (2x) ________  __  ________  __  _____
 72
    65
 73
     4
 40
20.32
 49
12.7
 74
     0
 49
-2.54
 74
     0
 49
2.54
 74
     0
 49
-2.54
 74
     0
  0
LTYPE
  5
72
330
5
100
AcDbSymbolTableRecord
100
AcDbLinetypeTableRecord
  2
DOT2
 70
     0
  3
Dot (.5x) ........................................
 72
    65
 73
     2
 40
0.635
 49
0.0
 74
     0
 49
-0.635
 74
     0
  0
ENDTAB
  0
TABLE
  2
LAYER
  5
2
330
0
100
AcDbSymbolTable
 70
     1
  0
LAYER
  5
10
330
2
100
AcDbSymbolTableRecord
100
AcDbLayerTableRecord
  2
0
 70
     0
 62
     7
  6
Continuous
370
    -3
390
F
  0
ENDTAB
  0
TABLE
  2
STYLE
  5
3
330
0
100
AcDbSymbolTable
 70
     1
  0
STYLE
  5
11
330
3
100
AcDbSymbolTableRecord
100
AcDbTextStyleTableRecord
  2
Standard
 70
     0
 40
0.0
 41
1.0
 50
0.0
 71
     0
 42
6.35
  3
txt
  4

  0
ENDTAB
  0
TABLE
  2
VIEW
  5
6
330
0
100
AcDbSymbolTable
 70
     0
  0
ENDTAB
  0
TABLE
  2
UCS
  5
7
330
0
100
AcDbSymbolTable
 70
     0
  0
ENDTAB
  0
TABLE
  2
APPID
  5
9
330
0
100
AcDbSymbolTable
 70
     1
  0
APPID
  5
12
330
9
100
AcDbSymbolTableRecord
100
AcDbRegAppTableRecord
  2
ACAD
 70
     0
  0
ENDTAB
  0
TABLE
  2
DIMSTYLE
  5
A
330
0
100
AcDbSymbolTable
 70
     1
100
AcDbDimStyleTable
  0
DIMSTYLE
105
27
330
A
100
AcDbSymbolTableRecord
100
AcDbDimStyleTableRecord
  2
ISO-25
 70
     0
 41
2.5
 42
0.625
 43
3.75
 44
1.25
 73
     0
 74
     0
 77
     1
 78
     8
140
2.5
141
2.5
143
0.0393700787
147
0.625
171
     3
172
     1
178
     0
271
     2
272
     2
274
     3
278
    44
283
     0
284
     8
340
11
  0
ENDTAB
  0
TABLE
  2
BLOCK_RECORD
  5
1
330
0
100
AcDbSymbolTable
 70
     1
  0
BLOCK_RECORD
  5
1F
330
1
100
AcDbSymbolTableRecord
100
AcDbBlockTableRecord
  2
*Model_Space
340
22
  0
BLOCK_RECORD
  5
1B
330
1
100
AcDbSymbolTableRecord
100
AcDbBlockTableRecord
  2
*Paper_Space
340
1E
  0
BLOCK_RECORD
  5
23
330
1
100
AcDbSymbolTableRecord
100
AcDbBlockTableRecord
  2
*Paper_Space0
340
26
  0
ENDTAB
  0
ENDSEC
  0
SECTION
  2
BLOCKS
  0
BLOCK
  5
20
330
1F
100
AcDbEntity
  8
0
100
AcDbBlockBegin
  2
*Model_Space
 70
     0
 10
0.0
 20
0.0
 30
0.0
  3
*Model_Space
  1

  0
ENDBLK
  5
21
330
1F
100
AcDbEntity
  8
0
100
AcDbBlockEnd
  0
BLOCK
  5
1C
330
1B
100
AcDbEntity
 67
     1
  8
0
100
AcDbBlockBegin
  2
*Paper_Space
 70
     0
 10
0.0
 20
0.0
 30
0.0
  3
*Paper_Space
  1

  0
ENDBLK
  5
1D
330
1B
100
AcDbEntity
 67
     1
  8
0
100
AcDbBlockEnd
  0
BLOCK
  5
24
330
23
100
AcDbEntity
  8
0
100
AcDbBlockBegin
  2
*Paper_Space0
 70
     0
 10
0.0
 20
0.0
 30
0.0
  3
*Paper_Space0
  1

  0
ENDBLK
  5
25
330
23
100
AcDbEntity
  8
0
100
AcDbBlockEnd
  0
ENDSEC
  0
SECTION
  2
ENTITIES
  0
SPLINE
  5
91
330
1F
100
AcDbEntity
  8
0
  6
Continuous
 62
     7
370
    25
100
AcDbSpline
210
0.0
220
0.0
230
1.0
 70
     8
 71
     3
 72
    20
 73
    16
 74
     0
 42
0.000000001
 43
0.00000001
 40
0.0
 40
0.0
 40
0.0
 40
0.0
 40
0.25
 40
0.25
 40
0.375
 40
0.375
 40
0.5
 40
0.5
 40
0.625
 40
0.625
 40
0.75
 40
0.75
 40
0.875
 40
0.875
 40
1.0
 40
1.0
 40
1.0
 40
1.0
 10
56.29001826865247
 20
-12.27370155173332
 30
0.0
 10
55.85726064035758
 20
-12.66648357510312
 30
0.0
 10
55.33088930010867
 20
-13.02203897986562
 30
0.0
 10
54.40433911441683
 20
-13.5008951029978
 30
0.0
 10
54.06987637992997
 20
-13.65211255773005
 30
0.0
 10
53.37187277120638
 20
-13.92755816742665
 30
0.0
 10
53.007068060823
 20
-14.05271124985868
 30
0.0
 10
52.24632059512213
 20
-14.27825003454136
 30
0.0
 10
51.85038117943299
 20
-14.37863839315163
 30
0.0
 10
51.02615495416521
 20
-14.55368580707027
 30
0.0
 10
50.60466335767484
 20
-14.62680224284173
 30
0.0
 10
49.75114579176137
 20
-14.74387812167231
 30
0.0
 10
49.31789537892065
 20
-14.78809661397264
 30
0.0
 10
48.43829223273008
 20
-14.84763207631076
 30
0.0
 10
47.98997678275799
 20
-14.86289341328636
 30
0.0
 10
47.54149915424802
 20
-14.86289341328636
 30
0.0
  0
SPLINE
  5
92
330
1F
100
AcDbEntity
  8
0
  6
Continuous
 62
     7
370
    25
100
AcDbSpline
210
0.0
220
0.0
230
1.0
 70
     8
 71
     3
 72
     8
 73
     4
 74
     0
 42
0.000000001
 43
0.00000001
 40
0.0
 40
0.0
 40
0.0
 40
0.0
 40
0.0026666665118183
 40
0.0026666665118183
 40
0.0026666665118183
 40
0.0026666665118183
 10
56.29001826865247
 20
-12.27370155173332
 30
0.0
 10
55.86111550656099
 20
-12.66298479877153
 30
0.0
 10
55.43208331010766
 20
-13.05223239827237
 30
0.0
 10
55.00294788700936
 20
-13.44145153759827
 30
0.0
  0
SPLINE
  5
93
330
1F
100
AcDbEntity
  8
0
  6
Continuous
 62
     7
370
    25
100
AcDbSpline
210
0.0
220
0.0
230
1.0
 70
     8
 71
     3
 72
    20
 73
    16
 74
     0
 42
0.000000001
 43
0.00000001
 40
0.0
 40
0.0
 40
0.0
 40
0.0
 40
0.125
 40
0.125
 40
0.25
 40
0.25
 40
0.3749999999999999
 40
0.3749999999999999
 40
0.4999999999999998
 40
0.4999999999999998
 40
0.75
 40
0.75
 40
0.875
 40
0.875
 40
1.0
 40
1.0
 40
1.0
 40
1.0
 10
55.00294788700936
 20
-13.44145153759827
 30
0.0
 10
54.61864698741108
 20
-13.7900064629966
 30
0.0
 10
54.18271539586084
 20
-14.13025243265489
 30
0.0
 10
53.22592735864249
 20
-14.77664562361036
 30
0.0
 10
52.70269123406595
 20
-15.08446944050768
 30
0.0
 10
51.59149367513901
 20
-15.65661308094717
 30
0.0
 10
51.00147495858078
 20
-15.92255658738975
 30
0.0
 10
49.75324460077704
 20
-16.41456530004127
 30
0.0
 10
49.09403930454309
 20
-16.64093225222803
 30
0.0
 10
47.01578809585887
 20
-17.25574698903724
 30
0.0
 10
45.55244751480843
 20
-17.5652345265257
 30
0.0
 10
43.24346729967269
 20
-17.88248104101757
 30
0.0
 10
42.45071024843887
 20
-17.96343182963231
 30
0.0
 10
40.86124816132973
 20
-18.07064990955236
 30
0.0
 10
40.06115064037861
 20
-18.09763590492866
 30
0.0
 10
39.25561348108135
 20
-18.09763590492866
 30
0.0
  0
SPLINE
  5
95
330
1F
100
AcDbEntity
  8
0
  6
Continuous
 62
     7
370
    25
100
AcDbSpline
210
0.0
220
0.0
230
1.0
 70
     8
 71
     3
 72
    20
 73
    16
 74
     0
 42
0.000000001
 43
0.00000001
 40
0.0
 40
0.0
 40
0.0
 40
0.0
 40
0.250000000000001
 40
0.250000000000001
 40
0.375000000000001
 40
0.375000000000001
 40
0.500000000000001
 40
0.500000000000001
 40
0.6250000000000004
 40
0.6250000000000004
 40
0.7500000000000003
 40
0.7500000000000003
 40
0.8750000000000001
 40
0.8750000000000001
 40
1.0
 40
1.0
 40
1.0
 40
1.0
 10
39.25561348108133
 20
-23.29378832763548
 30
0.0
 10
40.86866463789394
 20
-23.29378832763548
 30
0.0
 10
42.44533907034594
 20
-23.18701731272905
 30
0.0
 10
44.75733594347387
 20
-22.87125465787669
 30
0.0
 10
45.52359818634147
 20
-22.73846753966959
 30
0.0
 10
46.99598669413211
 20
-22.42661488428534
 30
0.0
 10
47.70628333973168
 20
-22.24732170974742
 30
0.0
 10
49.07591059330954
 20
-21.84274981707117
 30
0.0
 10
49.73524581489806
 20
-21.61747526169263
 30
0.0
 10
51.00103651131005
 20
-21.11921390933423
 30
0.0
 10
51.59836816325249
 20
-20.84968169316078
 30
0.0
 10
52.71584287219269
 20
-20.27338619867478
 30
0.0
 10
53.23949807711958
 20
-19.96427422170697
 30
0.0
 10
54.18992750594111
 20
-19.32087384251889
 30
0.0
 10
54.61904453213078
 20
-18.98579831883986
 30
0.0
 10
55.00294788700936
 20
-18.6376039603053
 30
0.0
  0
SPLINE
  5
96
330
1F
100
AcDbEntity
  8
0
  6
Continuous
 62
     7
370
    25
100
AcDbSpline
210
0.0
220
0.0
230
1.0
 70
     8
 71
     3
 72
    20
 73
    16
 74
     0
 42
0.000000001
 43
0.00000001
 40
0.0
 40
0.0
 40
0.0
 40
0.0
 40
0.2500000000000008
 40
0.2500000000000008
 40
0.3750000000000007
 40
0.3750000000000007
 40
0.5000000000000006
 40
0.5000000000000006
 40
0.6250000000000004
 40
0.6250000000000004
 40
0.7500000000000002
 40
0.7500000000000002
 40
0.8750000000000001
 40
0.8750000000000001
 40
1.0
 40
1.0
 40
1.0
 40
1.0
 10
39.25561348108133
 20
18.0976359049274
 30
0.0
 10
40.86866463789396
 20
18.0976359049274
 30
0.0
 10
42.44533907034593
 20
17.99086489002096
 30
0.0
 10
44.75733594347388
 20
17.6751022351686
 30
0.0
 10
45.52359818634148
 20
17.54231511696151
 30
0.0
 10
46.99598669413211
 20
17.23046246157725
 30
0.0
 10
47.70628333973168
 20
17.05116928703933
 30
0.0
 10
49.07591059330957
 20
16.64659739436306
 30
0.0
 10
49.73524581489809
 20
16.42132283898453
 30
0.0
 10
51.00103651131001
 20
15.92306148662612
 30
0.0
 10
51.59836816325248
 20
15.65352927045266
 30
0.0
 10
52.71584287219268
 20
15.07723377596666
 30
0.0
 10
53.2394980771196
 20
14.76812179899884
 30
0.0
 10
54.18992750594112
 20
14.12472141981076
 30
0.0
 10
54.61904453213078
 20
13.78964589613172
 30
0.0
 10
55.00294788700936
 20
13.44145153759716
 30
0.0
  0
SPLINE
  5
97
330
1F
100
AcDbEntity
  8
0
  6
Continuous
 62
     7
370
    25
100
AcDbSpline
210
0.0
220
0.0
230
1.0
 70
     8
 71
     3
 72
     8
 73
     4
 74
     0
 42
0.000000001
 43
0.00000001
 40
0.0
 40
0.0
 40
0.0
 40
0.0
 40
0.0026666665118183
 40
0.0026666665118183
 40
0.0026666665118183
 40
0.0026666665118183
 10
55.00294788700936
 20
13.44145153759715
 30
0.0
 10
55.43208331010766
 20
13.05223239827125
 30
0.0
 10
55.86111550656099
 20
12.66298479877042
 30
0.0
 10
56.29001826865247
 20
12.27370155173222
 30
0.0
  0
SPLINE
  5
98
330
1F
100
AcDbEntity
  8
0
  6
Continuous
 62
     7
370
    25
100
AcDbSpline
210
0.0
220
0.0
230
1.0
 70
     8
 71
     3
 72
    20
 73
    16
 74
     0
 42
0.000000001
 43
0.00000001
 40
0.0
 40
0.0
 40
0.0
 40
0.0
 40
0.2500000000000015
 40
0.2500000000000015
 40
0.3750000000000013
 40
0.3750000000000013
 40
0.5000000000000011
 40
0.5000000000000011
 40
0.6250000000000009
 40
0.6250000000000009
 40
0.7500000000000006
 40
0.7500000000000006
 40
0.8750000000000003
 40
0.8750000000000003
 40
1.0
 40
1.0
 40
1.0
 40
1.0
 10
47.54149915424802
 20
14.86289341328522
 30
0.0
 10
48.43838116444257
 20
14.86289341328522
 30
0.0
 10
49.31499326601725
 20
14.80341658516459
 30
0.0
 10
50.60037455727472
 20
14.62753302868182
 30
0.0
 10
51.02634607331569
 20
14.55357314907362
 30
0.0
 10
51.84472724234481
 20
14.37991075331098
 30
0.0
 10
52.23950178196609
 20
14.28007234401196
 30
0.0
 10
53.0006830846319
 20
14.05480003995892
 30
0.0
 10
53.36709240265249
 20
13.92936845049142
 30
0.0
 10
54.07047970366262
 20
13.65195016577753
 30
0.0
 10
54.40087274593385
 20
13.50248172511557
 30
0.0
 10
55.01660115803938
 20
13.18467008634535
 30
0.0
 10
55.30265440071025
 20
13.01603965507938
 30
0.0
 10
55.83078345372887
 20
12.65917106347237
 30
0.0
 10
56.07365520785477
 20
12.47007826526921
 30
0.0
 10
56.29001826865247
 20
12.27370155173222
 30
0.0
  0
SPLINE
  5
9A
330
1F
100
AcDbEntity
  8
0
  6
Continuous
 62
     7
370
    25
100
AcDbSpline
210
0.0
220
0.0
230
1.0
 70
     8
 71
     3
 72
    20
 73
    16
 74
     0
 42
0.000000001
 43
0.00000001
 40
0.0
 40
0.0
 40
0.0
 40
0.0
 40
0.125
 40
0.125
 40
0.2500000000000001
 40
0.2500000000000001
 40
0.3750000000000001
 40
0.3750000000000001
 40
0.5000000000000004
 40
0.5000000000000004
 40
0.7500000000000002
 40
0.7500000000000002
 40
0.8750000000000001
 40
0.8750000000000001
 40
1.0
 40
1.0
 40
1.0
 40
1.0
 10
55.00294788700936
 20
18.63760396030429
 30
0.0
 10
54.61864698741109
 20
18.9861588857026
 30
0.0
 10
54.18271539586082
 20
19.32640485536087
 30
0.0
 10
53.22592735864249
 20
19.97279804631632
 30
0.0
 10
52.70269123406595
 20
20.28062186321363
 30
0.0
 10
51.59149367513901
 20
20.85276550365307
 30
0.0
 10
51.00147495858076
 20
21.11870901009564
 30
0.0
 10
49.75324460077702
 20
21.61071772274714
 30
0.0
 10
49.09403930454309
 20
21.83708467493388
 30
0.0
 10
47.01578809585888
 20
22.45189941174307
 30
0.0
 10
45.55244751480843
 20
22.76138694923151
 30
0.0
 10
43.24346729967269
 20
23.07863346372336
 30
0.0
 10
42.45071024843888
 20
23.1595842523381
 30
0.0
 10
40.86124816132971
 20
23.26680233225815
 30
0.0
 10
40.06115064037861
 20
23.29378832763444
 30
0.0
 10
39.25561348108135
 20
23.29378832763444
 30
0.0
  0
SPLINE
  5
9F
330
1F
100
AcDbEntity
  8
0
  6
Continuous
 62
     7
370
    25
100
AcDbSpline
210
0.0
220
0.0
230
1.0
 70
     8
 71
     3
 72
     8
 73
     4
 74
     0
 42
0.000000001
 43
0.00000001
 40
0.0
 40
0.0
 40
0.0
 40
0.0
 40
0.0026666665118183
 40
0.0026666665118183
 40
0.0026666665118183
 40
0.0026666665118183
 10
55.00294788700936
 20
32.07905549790252
 30
0.0
 10
55.43208331010766
 20
31.30061721925073
 30
0.0
 10
55.86111550656099
 20
30.52212202024907
 30
0.0
 10
56.29001826865247
 20
29.74355552617267
 30
0.0
  0
SPLINE
  5
A0
330
1F
100
AcDbEntity
  8
0
  6
Continuous
 62
     7
370
    25
100
AcDbSpline
210
0.0
220
0.0
230
1.0
 70
     8
 71
     3
 72
     8
 73
     4
 74
     0
 42
0.000000001
 43
0.00000001
 40
0.0
 40
0.0
 40
0.0
 40
0.0
 40
0.0026666665118183
 40
0.0026666665118183
 40
0.0026666665118183
 40
0.0026666665118183
 10
56.29001826865247
 20
-29.74355552617268
 30
0.0
 10
55.86111550656099
 20
-30.52212202024907
 30
0.0
 10
55.43208331010766
 20
-31.30061721925073
 30
0.0
 10
55.00294788700936
 20
-32.07905549790252
 30
0.0
  0
SPLINE
  5
A2
330
1F
100
AcDbEntity
  8
0
  6
Continuous
 62
     7
370
    25
100
AcDbSpline
210
0.0
220
0.0
230
1.0
 70
     8
 71
     3
 72
     8
 73
     4
 74
     0
 42
0.000000001
 43
0.00000001
 40
0.0
 40
0.0
 40
0.0
 40
0.0
 40
0.0026666665118183
 40
0.0026666665118183
 40
0.0026666665118183
 40
0.0026666665118183
 10
55.00294788700936
 20
-18.63760396030529
 30
0.0
 10
55.43208331010766
 20
-18.2483848209794
 30
0.0
 10
55.86111550656099
 20
-17.85913722147858
 30
0.0
 10
56.29001826865247
 20
-17.46985397444038
 30
0.0
  0
SPLINE
  5
A3
330
1F
100
AcDbEntity
  8
0
  6
Continuous
 62
     7
370
    25
100
AcDbSpline
210
0.0
220
0.0
230
1.0
 70
     8
 71
     3
 72
     8
 73
     4
 74
     0
 42
0.000000001
 43
0.00000001
 40
0.0
 40
0.0
 40
0.0
 40
0.0
 40
0.0026666665118183
 40
0.0026666665118183
 40
0.0026666665118183
 40
0.0026666665118183
 10
56.29001826865247
 20
17.4698539744394
 30
0.0
 10
55.86111550656099
 20
17.85913722147759
 30
0.0
 10
55.43208331010766
 20
18.2483848209784
 30
0.0
 10
55.00294788700936
 20
18.63760396030429
 30
0.0
  0
SPLINE
  5
A4
330
1F
100
AcDbEntity
  8
0
  6
Continuous
 62
     7
370
    25
100
AcDbSpline
210
0.0
220
0.0
230
1.0
 70
     8
 71
     3
 72
    20
 73
    16
 74
     0
 42
0.000000001
 43
0.00000001
 40
0.0
 40
0.0
 40
0.0
 40
0.0
 40
0.2500000000000018
 40
0.2500000000000018
 40
0.3750000000000015
 40
0.3750000000000015
 40
0.5000000000000012
 40
0.5000000000000012
 40
0.6250000000000009
 40
0.6250000000000009
 40
0.7500000000000006
 40
0.7500000000000006
 40
0.8750000000000003
 40
0.8750000000000003
 40
1.0
 40
1.0
 40
1.0
 40
1.0
 10
47.54149915424802
 20
34.92193924927862
 30
0.0
 10
48.43838116444257
 20
34.92193924927862
 30
0.0
 10
49.31499326601725
 20
34.80298559303736
 30
0.0
 10
50.60037455727473
 20
34.45121848007185
 30
0.0
 10
51.02634607331569
 20
34.30329872085544
 30
0.0
 10
51.8447272423448
 20
33.95597392933015
 30
0.0
 10
52.2395017819661
 20
33.75629711073213
 30
0.0
 10
53.0006830846319
 20
33.30575250262606
 30
0.0
 10
53.36709240265249
 20
33.05488932369106
 30
0.0
 10
54.07047970366264
 20
32.50005275426327
 30
0.0
 10
54.40087274593385
 20
32.20111587293937
 30
0.0
 10
55.01660115803939
 20
31.56549259539892
 30
0.0
 10
55.30265440071025
 20
31.22823173286697
 30
0.0
 10
55.83078345372888
 20
30.51449454965298
 30
0.0
 10
56.07365520785476
 20
30.13630895324665
 30
0.0
 10
56.29001826865247
 20
29.74355552617268
 30
0.0
  0
SPLINE
  5
A5
330
1F
100
AcDbEntity
  8
0
  6
Continuous
 62
     7
370
    25
100
AcDbSpline
210
0.0
220
0.0
230
1.0
 70
     8
 71
     3
 72
    20
 73
    16
 74
     0
 42
0.000000001
 43
0.00000001
 40
0.0
 40
0.0
 40
0.0
 40
0.0
 40
0.2500000000000016
 40
0.2500000000000016
 40
0.3750000000000013
 40
0.3750000000000013
 40
0.500000000000001
 40
0.500000000000001
 40
0.6250000000000008
 40
0.6250000000000008
 40
0.7500000000000006
 40
0.7500000000000006
 40
0.8750000000000003
 40
0.8750000000000003
 40
1.0
 40
1.0
 40
1.0
 40
1.0
 10
56.29001826865247
 20
-29.74355552617268
 30
0.0
 10
55.85726064035759
 20
-30.52911957291226
 30
0.0
 10
55.33088930010867
 20
-31.24023038243725
 30
0.0
 10
54.40433911441684
 20
-32.19794262870155
 30
0.0
 10
54.06987637992997
 20
-32.50037753816607
 30
0.0
 10
53.37187277120639
 20
-33.05126875755926
 30
0.0
 10
53.00706806082301
 20
-33.30157492242332
 30
0.0
 10
52.24632059512212
 20
-33.75265249178867
 30
0.0
 10
51.850381179433
 20
-33.95342920900919
 30
0.0
 10
51.02615495416521
 20
-34.30352403684646
 30
0.0
 10
50.60466335767484
 20
-34.44975690838938
 30
0.0
 10
49.75114579176135
 20
-34.68390866605053
 30
0.0
 10
49.31789537892063
 20
-34.77234565065118
 30
0.0
 10
48.43829223273008
 20
-34.89141657532745
 30
0.0
 10
47.98997678275799
 20
-34.92193924927863
 30
0.0
 10
47.54149915424802
 20
-34.92193924927862
 30
0.0
  0
SPLINE
  5
B9
330
1F
100
AcDbEntity
  8
0
  6
Continuous
 62
     7
370
    25
100
AcDbSpline
210
0.0
220
0.0
230
1.0
 70
     8
 71
     3
 72
    28
 73
    24
 74
     0
 42
0.000000001
 43
0.00000001
 40
0.0
 40
0.0
 40
0.0
 40
0.0
 40
0.1250000000000009
 40
0.1250000000000009
 40
0.2500000000000018
 40
0.2500000000000018
 40
0.3125000000000019
 40
0.3125000000000019
 40
0.3750000000000019
 40
0.3750000000000019
 40
0.5000000000000012
 40
0.5000000000000012
 40
0.6250000000000004
 40
0.6250000000000004
 40
0.6875000000000003
 40
0.6875000000000003
 40
0.7500000000000002
 40
0.7500000000000002
 40
0.8750000000000001
 40
0.8750000000000001
 40
0.9375000000000001
 40
0.9375000000000001
 40
1.0
 40
1.0
 40
1.0
 40
1.0
 10
55.00294788700936
 20
-32.07905549790252
 30
0.0
 10
54.61412342480192
 20
-32.7843709502443
 30
0.0
 10
54.18074167119785
 20
-33.45891684060728
 30
0.0
 10
53.23441201990018
 20
-34.73838392204177
 30
0.0
 10
52.72048676029197
 20
-35.34506675809008
 30
0.0
 10
51.88784114961013
 20
-36.20501460206496
 30
0.0
 10
51.59996686851463
 20
-36.48329122665049
 30
0.0
 10
51.00304416374867
 20
-37.02267536683803
 30
0.0
 10
50.6947947054544
 20
-37.28291584722154
 30
0.0
 10
49.75200492489251
 20
-38.02648854675542
 30
0.0
 10
49.09545844494827
 20
-38.47656702709747
 30
0.0
 10
47.72740488196283
 20
-39.28720858543361
 30
0.0
 10
47.01590143290731
 20
-39.64777758217082
 30
0.0
 10
45.90602069544423
 20
-40.11920599301636
 30
0.0
 10
45.52913574159034
 20
-40.26452605483501
 30
0.0
 10
44.77116538425203
 20
-40.52795059623489
 30
0.0
 10
44.38884129732434
 20
-40.64660742222958
 30
0.0
 10
43.23195189347216
 20
-40.96380093991765
 30
0.0
 10
42.44751427788375
 20
-41.12373601714879
 30
0.0
 10
41.25068645343926
 20
-41.28476656140811
 30
0.0
 10
40.84987846598117
 20
-41.32496904972946
 30
0.0
 10
40.05175622654531
 20
-41.37822134436902
 30
0.0
 10
39.65335856885792
 20
-41.39142423256293
 30
0.0
 10
39.25561348108133
 20
-41.39142423256295
 30
0.0
  0
SPLINE
  5
BA
330
1F
100
AcDbEntity
  8
0
  6
Continuous
 62
     7
370
    25
100
AcDbSpline
210
0.0
220
0.0
230
1.0
 70
     8
 71
     3
 72
    22
 73
    18
 74
     0
 42
0.000000001
 43
0.00000001
 40
0.0
 40
0.0
 40
0.0
 40
0.0
 40
0.0624999999999999
 40
0.0624999999999999
 40
0.1249999999999998
 40
0.1249999999999998
 40
0.2499999999999997
 40
0.2499999999999997
 40
0.3749999999999996
 40
0.3749999999999996
 40
0.4999999999999994
 40
0.4999999999999994
 40
0.6249999999999994
 40
0.6249999999999994
 40
0.7499999999999993
 40
0.7499999999999993
 40
1.0
 40
1.0
 40
1.0
 40
1.0
 10
39.25561348108133
 20
41.39142423256294
 30
0.0
 10
39.65574465661366
 20
41.39142423256294
 30
0.0
 10
40.05608017161243
 20
41.37806227160046
 30
0.0
 10
40.85716389937328
 20
41.32435163242911
 30
0.0
 10
41.2591710099007
 20
41.28381820546551
 30
0.0
 10
42.4562084567784
 20
41.12217350884906
 30
0.0
 10
43.23872838928408
 20
40.96208894114791
 30
0.0
 10
44.77383321725314
 20
40.54090459111048
 30
0.0
 10
45.52641576977519
 20
40.27979690256323
 30
0.0
 10
47.00109422228146
 20
39.65470489480784
 30
0.0
 10
47.72518541358876
 20
39.28859225149903
 30
0.0
 10
49.09996164395416
 20
38.47383002016497
 30
0.0
 10
49.75617464655008
 20
38.02327187105803
 30
0.0
 10
51.00689403135942
 20
37.03669288832906
 30
0.0
 10
51.60273349561662
 20
36.49930537361976
 30
0.0
 10
53.28534306980877
 20
34.76201914421384
 30
0.0
 10
54.23030792031842
 20
33.48060030943559
 30
0.0
 10
55.00294788700936
 20
32.07905549790252
 30
0.0
  0
LINE
  5
C4
330
1F
100
AcDbEntity
  8
0
  6
Continuous
 62
     7
370
    25
100
AcDbLine
 10
15.4290317264
 20
-41.5
 30
0.0
 11
39.2556134811
 21
-41.5
 31
0.0
  0
LINE
  5
C5
330
1F
100
AcDbEntity
  8
0
  6
Continuous
 62
     7
370
    25
100
AcDbLine
 10
39.2556134811
 20
41.5
 30
0.0
 11
15.4290317264
 21
41.5
 31
0.0
  0
LINE
  5
C6
330
1F
100
AcDbEntity
  8
0
  6
Continuous
 62
     7
370
    25
100
AcDbLine
 10
13.9290317264
 20
-39.0
 30
0.0
 11
15.4290317264
 21
-39.0
 31
0.0
  0
LINE
  5
C7
330
1F
100
AcDbEntity
  8
0
  6
Continuous
 62
     7
370
    25
100
AcDbLine
 10
15.4290317264
 20
39.0
 30
0.0
 11
13.9290317264
 21
39.0
 31
0.0
  0
LINE
  5
C8
330
1F
100
AcDbEntity
  8
0
  6
Continuous
 62
     7
370
    25
100
AcDbLine
 10
55.002947887
 20
-32.2190285645
 30
0.0
 11
58.4290317264
 21
-26.0312190484
 31
0.0
  0
LINE
  5
C9
330
1F
100
AcDbEntity
  8
0
  6
Continuous
 62
     7
370
    25
100
AcDbLine
 10
58.4290317264
 20
26.0312190484
 30
0.0
 11
55.002947887
 21
32.2190285645
 31
0.0
  0
LINE
  5
CA
330
1F
100
AcDbEntity
  8
0
  6
Continuous
 62
     7
370
    25
100
AcDbLine
 10
60.1787355493
 20
-25.0
 30
0.0
 11
112.4290317264
 21
-25.0
 31
0.0
  0
LINE
  5
CB
330
1F
100
AcDbEntity
  8
0
  6
Continuous
 62
     7
370
    25
100
AcDbLine
 10
112.4290317264
 20
25.0
 30
0.0
 11
60.1787355493
 21
25.0
 31
0.0
  0
LINE
  5
CC
330
1F
100
AcDbEntity
  8
0
  6
Continuous
 62
     7
370
    25
100
AcDbLine
 10
-21.5709682736
 20
-25.0
 30
0.0
 11
11.9290317264
 21
-25.0
 31
0.0
  0
LINE
  5
CD
330
1F
100
AcDbEntity
  8
0
  6
Continuous
 62
     7
370
    25
100
AcDbLine
 10
11.9290317264
 20
25.0
 30
0.0
 11
-21.5709682736
 21
25.0
 31
0.0
  0
LINE
  5
CE
330
1F
100
AcDbEntity
  8
0
  6
Continuous
 62
     7
370
    25
100
AcDbLine
 10
22.9290317264
 20
41.3914242326
 30
0.0
 11
39.2556134811
 21
41.3914242326
 31
0.0
  0
LINE
  5
CF
330
1F
100
AcDbEntity
  8
0
  6
Continuous
 62
     7
370
    25
100
AcDbLine
 10
22.9290317264
 20
41.3914242326
 30
0.0
 11
22.9290317264
 21
23.2937883276
 31
0.0
  0
LINE
  5
D0
330
1F
100
AcDbEntity
  8
0
  6
Continuous
 62
     7
370
    25
100
AcDbLine
 10
39.2556134811
 20
23.2937883276
 30
0.0
 11
22.9290317264
 21
23.2937883276
 31
0.0
  0
LINE
  5
D1
330
1F
100
AcDbEntity
  8
0
  6
Continuous
 62
     7
370
    25
100
AcDbLine
 10
39.2556134811
 20
18.0976359049
 30
0.0
 11
39.2556134811
 21
23.2937883276
 31
0.0
  0
LINE
  5
D2
330
1F
100
AcDbEntity
  8
0
  6
Continuous
 62
     7
370
    25
100
AcDbLine
 10
22.9290317264
 20
18.0976359049
 30
0.0
 11
39.2556134811
 21
18.0976359049
 31
0.0
  0
LINE
  5
D3
330
1F
100
AcDbEntity
  8
0
  6
Continuous
 62
     7
370
    25
100
AcDbLine
 10
22.9290317264
 20
18.0976359049
 30
0.0
 11
22.9290317264
 21
-18.0976359049
 31
0.0
  0
LINE
  5
D4
330
1F
100
AcDbEntity
  8
0
  6
Continuous
 62
     7
370
    25
100
AcDbLine
 10
39.2556134811
 20
-18.0976359049
 30
0.0
 11
22.9290317264
 21
-18.0976359049
 31
0.0
  0
LINE
  5
D5
330
1F
100
AcDbEntity
  8
0
  6
Continuous
 62
     7
370
    25
100
AcDbLine
 10
39.2556134811
 20
-23.2937883276
 30
0.0
 11
39.2556134811
 21
-18.0976359049
 31
0.0
  0
LINE
  5
D6
330
1F
100
AcDbEntity
  8
0
  6
Continuous
 62
     7
370
    25
100
AcDbLine
 10
22.9290317264
 20
-23.2937883276
 30
0.0
 11
39.2556134811
 21
-23.2937883276
 31
0.0
  0
LINE
  5
D7
330
1F
100
AcDbEntity
  8
0
  6
Continuous
 62
     7
370
    25
100
AcDbLine
 10
22.9290317264
 20
-23.2937883276
 30
0.0
 11
22.9290317264
 21
-41.3914242326
 31
0.0
  0
LINE
  5
D8
330
1F
100
AcDbEntity
  8
0
  6
Continuous
 62
     7
370
    25
100
AcDbLine
 10
39.2556134811
 20
-41.3914242326
 30
0.0
 11
22.9290317264
 21
-41.3914242326
 31
0.0
  0
LINE
  5
D9
330
1F
100
AcDbEntity
  8
0
  6
Continuous
 62
     7
370
    25
100
AcDbLine
 10
15.4290317264
 20
-41.5
 30
0.0
 11
15.4290317264
 21
41.5
 31
0.0
  0
LINE
  5
DA
330
1F
100
AcDbEntity
  8
0
  6
Continuous
 62
     7
370
    25
100
AcDbLine
 10
11.9290317264
 20
-36.9999999977
 30
0.0
 11
11.9290317264
 21
37.0
 31
0.0
  0
LINE
  5
DB
330
1F
100
AcDbEntity
  8
0
  6
Continuous
 62
     7
370
    25
100
AcDbLine
 10
22.9290317264
 20
-14.8628934133
 30
0.0
 11
47.5414991542
 21
-14.8628934133
 31
0.0
  0
LINE
  5
DC
330
1F
100
AcDbEntity
  8
0
  6
Continuous
 62
     7
370
    25
100
AcDbLine
 10
55.002947887
 20
-18.6376039603
 30
0.0
 11
55.002947887
 21
-13.4414515376
 31
0.0
  0
LINE
  5
DD
330
1F
100
AcDbEntity
  8
0
  6
Continuous
 62
     7
370
    25
100
AcDbLine
 10
22.9290317264
 20
14.8628934133
 30
0.0
 11
47.5414991542
 21
14.8628934133
 31
0.0
  0
LINE
  5
DE
330
1F
100
AcDbEntity
  8
0
  6
Continuous
 62
     7
370
    25
100
AcDbLine
 10
55.002947887
 20
13.4414515376
 30
0.0
 11
55.002947887
 21
18.6376039603
 31
0.0
  0
LINE
  5
DF
330
1F
100
AcDbEntity
  8
0
  6
Continuous
 62
     7
370
    25
100
AcDbLine
 10
56.2900182687
 20
12.2737015517
 30
0.0
 11
56.2900182687
 21
-12.2737015517
 31
0.0
  0
LINE
  5
E0
330
1F
100
AcDbEntity
  8
0
  6
Continuous
 62
     7
370
    25
100
AcDbLine
 10
47.5414991542
 20
-14.8628934133
 30
0.0
 11
47.5414991542
 21
14.8628934133
 31
0.0
  0
LINE
  5
E1
330
1F
100
AcDbEntity
  8
0
  6
Continuous
 62
     7
370
    25
100
AcDbLine
 10
56.2900182687
 20
29.7435555262
 30
0.0
 11
56.2900182687
 21
17.4698539744
 31
0.0
  0
LINE
  5
E2
330
1F
100
AcDbEntity
  8
0
  6
Continuous
 62
     7
370
    25
100
AcDbLine
 10
56.2900182687
 20
-17.4698539744
 30
0.0
 11
56.2900182687
 21
-29.7435555262
 31
0.0
  0
LINE
  5
E3
330
1F
100
AcDbEntity
  8
0
  6
Continuous
 62
     7
370
    25
100
AcDbLine
 10
22.9290317264
 20
34.9219392493
 30
0.0
 11
47.5414991542
 21
34.9219392493
 31
0.0
  0
LINE
  5
E4
330
1F
100
AcDbEntity
  8
0
  6
Continuous
 62
     7
370
    25
100
AcDbLine
 10
22.9290317264
 20
-34.9219392493
 30
0.0
 11
47.5414991542
 21
-34.9219392493
 31
0.0
  0
LINE
  5
E5
330
1F
100
AcDbEntity
  8
0
  6
Continuous
 62
     7
370
    25
100
AcDbLine
 10
112.4290317264
 20
-25.0
 30
0.0
 11
112.4290317264
 21
25.0
 31
0.0
  0
LINE
  5
E6
330
1F
100
AcDbEntity
  8
0
  6
Continuous
 62
     7
370
    25
100
AcDbLine
 10
-21.5709682736
 20
-6.0149854021
 30
0.0
 11
8.9290317264
 21
-6.0149854021
 31
0.0
  0
LINE
  5
E7
330
1F
100
AcDbEntity
  8
0
  6
Continuous
 62
     7
370
    25
100
AcDbLine
 10
8.9290317264
 20
11.9755266815
 30
0.0
 11
-21.5709682736
 21
11.9755266815
 31
0.0
  0
LINE
  5
E8
330
1F
100
AcDbEntity
  8
0
  6
Continuous
 62
     7
370
    25
100
AcDbLine
 10
-21.5709682736
 20
18.0071441732
 30
0.0
 11
8.9290317264
 21
18.0071441732
 31
0.0
  0
LINE
  5
E9
330
1F
100
AcDbEntity
  8
0
  6
Continuous
 62
     7
370
    25
100
AcDbLine
 10
8.9290317264
 20
18.0071441732
 30
0.0
 11
8.9290317264
 21
24.9927645385
 31
0.0
  0
LINE
  5
EA
330
1F
100
AcDbEntity
  8
0
  6
Continuous
 62
     7
370
    25
100
AcDbLine
 10
8.9290317264
 20
24.9927645385
 30
0.0
 11
-21.5709682736
 21
24.9927645385
 31
0.0
  0
LINE
  5
EB
330
1F
100
AcDbEntity
  8
0
  6
Continuous
 62
     7
370
    25
100
AcDbLine
 10
-21.5709682736
 20
25.0
 30
0.0
 11
-21.5709682736
 21
-25.0
 31
0.0
  0
LINE
  5
EC
330
1F
100
AcDbEntity
  8
0
  6
Continuous
 62
     7
370
    25
100
AcDbLine
 10
-21.5709682736
 20
-24.0221295754
 30
0.0
 11
8.9290317264
 21
-24.0221295754
 31
0.0
  0
LINE
  5
ED
330
1F
100
AcDbEntity
  8
0
  6
Continuous
 62
     7
370
    25
100
AcDbLine
 10
8.9290317264
 20
-24.0221295754
 30
0.0
 11
8.9290317264
 21
-13.017237857
 31
0.0
  0
LINE
  5
EE
330
1F
100
AcDbEntity
  8
0
  6
Continuous
 62
     7
370
    25
100
AcDbLine
 10
8.9290317264
 20
-13.017237857
 30
0.0
 11
-21.5709682736
 21
-13.017237857
 31
0.0
  0
LINE
  5
EF
330
1F
100
AcDbEntity
  8
0
  6
Continuous
 62
     7
370
    25
100
AcDbLine
 10
8.9290317264
 20
-6.0149854021
 30
0.0
 11
8.9290317264
 21
11.9755266815
 31
0.0
  0
LINE
  5
F0
330
1F
100
AcDbEntity
  8
0
  6
Continuous
 62
     8
370
    25
100
AcDbLine
 10
39.2556134811
 20
41.3914242326
 30
0.0
 11
39.2556134811
 21
41.5
 31
0.0
  0
LINE
  5
F1
330
1F
100
AcDbEntity
  8
0
  6
Continuous
 62
     8
370
    25
100
AcDbLine
 10
39.2556134811
 20
-41.5
 30
0.0
 11
39.2556134811
 21
-41.3914242326
 31
0.0
  0
LINE
  5
F2
330
1F
100
AcDbEntity
  8
0
  6
Continuous
 62
     8
370
    25
100
AcDbLine
 10
13.9290317264
 20
-39.0
 30
0.0
 11
13.9290317264
 21
39.0
 31
0.0
  0
LINE
  5
F3
330
1F
100
AcDbEntity
  8
0
  6
Continuous
 62
     8
370
    25
100
AcDbLine
 10
58.4290317264
 20
-26.0312190484
 30
0.0
 11
58.4290317264
 21
26.0312190484
 31
0.0
  0
LINE
  5
F4
330
1F
100
AcDbEntity
  8
0
  6
Continuous
 62
     8
370
    25
100
AcDbLine
 10
55.002947887
 20
32.0790554979
 30
0.0
 11
55.002947887
 21
32.2190285645
 31
0.0
  0
LINE
  5
F5
330
1F
100
AcDbEntity
  8
0
  6
Continuous
 62
     8
370
    25
100
AcDbLine
 10
55.002947887
 20
-32.2190285645
 30
0.0
 11
55.002947887
 21
-32.0790554979
 31
0.0
  0
LINE
  5
F6
330
1F
100
AcDbEntity
  8
0
  6
Continuous
 62
     8
370
    25
100
AcDbLine
 10
47.5414991542
 20
22.2977943254
 30
0.0
 11
47.5414991542
 21
34.9219392493
 31
0.0
  0
LINE
  5
F7
330
1F
100
AcDbEntity
  8
0
  6
Continuous
 62
     8
370
    25
100
AcDbLine
 10
47.5414991542
 20
-34.9219392493
 30
0.0
 11
47.5414991542
 21
-22.2989734047
 31
0.0
  0
LINE
  5
F8
330
1F
100
AcDbEntity
  8
0
  6
Continuous
 62
     8
370
    25
100
AcDbLine
 10
60.1787355493
 20
-25.0
 30
0.0
 11
60.1787355493
 21
25.0
 31
0.0
  0
ARC
  5
F9
330
1F
100
AcDbEntity
  8
0
  6
Continuous
 62
     7
370
    25
100
AcDbCircle
 10
13.9290317264
 20
-37.0
 30
0.0
 40
2.0
100
AcDbArc
 50
180.0
 51
270.0
  0
ARC
  5
FA
330
1F
100
AcDbEntity
  8
0
  6
Continuous
 62
     7
370
    25
100
AcDbCircle
 10
13.9290317264
 20
37.0
 30
0.0
 40
2.0
100
AcDbArc
 50
90.0
 51
180.0
  0
ARC
  5
FB
330
1F
100
AcDbEntity
  8
0
  6
Continuous
 62
     7
370
    25
100
AcDbCircle
 10
60.1787355493
 20
-27.0
 30
0.0
 40
2.000000000000004
100
AcDbArc
 50
90.0
 51
151.0274542403
  0
ARC
  5
FC
330
1F
100
AcDbEntity
  8
0
  6
Continuous
 62
     7
370
    25
100
AcDbCircle
 10
60.1787355493
 20
27.0
 30
0.0
 40
1.999999999999986
100
AcDbArc
 50
208.9725457597
 51
270.0
  0
ARC
  5
FD
330
1F
100
AcDbEntity
  8
0
  6
Continuous
 62
     7
370
    25
100
AcDbCircle
 10
39.2556134811
 20
-23.5
 30
0.0
 40
17.99999999999999
100
AcDbArc
 50
270.0
 51
331.0274542403
  0
ARC
  5
FE
330
1F
100
AcDbEntity
  8
0
  6
Continuous
 62
     7
370
    25
100
AcDbCircle
 10
39.2556134811
 20
23.5
 30
0.0
 40
17.99999999999996
100
AcDbArc
 50
28.9725457597
 51
90.0
  0
SPLINE
  5
FF
330
1B
100
AcDbEntity
 67
     1
  8
0
  6
Continuous
 62
     7
370
    25
100
AcDbSpline
210
0.0
220
0.0
230
1.0
 70
     8
 71
     3
 72
    43
 73
    39
 74
     0
 42
0.000000001
 43
0.00000001
 40
0.0
 40
0.0
 40
0.0
 40
0.0
 40
0.0249240110820898
 40
0.0501274045617153
 40
0.0757037971949456
 40
0.1014216525563607
 40
0.1297417864811549
 40
0.1576272687233873
 40
0.1852281953733587
 40
0.213363448085149
 40
0.2417821837075499
 40
0.2701626821619341
 40
0.2981857912293336
 40
0.3257476871945121
 40
0.3537629036754415
 40
0.3821402863010512
 40
0.4105608916543173
 40
0.4387028738336016
 40
0.4663088896108358
 40
0.4941853487182424
 40
0.5225011340750895
 40
0.5509414163526334
 40
0.5791830240297852
 40
0.6069160474456441
 40
0.6346356795078895
 40
0.6628698865184094
 40
0.6913093309264449
 40
0.7196308977121487
 40
0.7475193725165186
 40
0.7751186719414115
 40
0.8032516654773795
 40
0.8316697608373944
 40
0.8600512810235488
 40
0.8880770053326715
 40
0.9156389705846099
 40
0.9436515405980347
 40
0.9720278677424189
 40
1.0
 40
1.0
 40
1.0
 40
1.0
 10
-1.891655133180606
 20
-20.66359457735056
 30
0.0
 10
-0.9745616215221252
 20
-20.71217074609648
 30
0.0
 10
0.8699054399158127
 20
-20.80986759171113
 30
0.0
 10
3.649136051709966
 20
-20.48645951762897
 30
0.0
 10
6.38855994743025
 20
-19.81108307449592
 30
0.0
 10
9.117169860241164
 20
-18.71921772478803
 30
0.0
 10
11.73697416359176
 20
-17.20567423658317
 30
0.0
 10
14.1556920687577
 20
-15.27484076468273
 30
0.0
 10
16.25914786909373
 20
-13.0143891175317
 30
0.0
 10
18.01671225108594
 20
-10.45114212742195
 30
0.0
 10
19.38254951378308
 20
-7.627160934467458
 30
0.0
 10
20.30616434963979
 20
-4.633638424012688
 30
0.0
 10
20.76681263293527
 20
-1.567204003798444
 30
0.0
 10
20.77031934752316
 20
1.519724896646831
 30
0.0
 10
20.31676452238584
 20
4.586798763452754
 30
0.0
 10
19.40020398106383
 20
7.582132730017268
 30
0.0
 10
18.04085096590011
 20
10.40946900085747
 30
0.0
 10
16.28890315392054
 20
12.97717089545318
 30
0.0
 10
14.19052458782218
 20
15.24250257315174
 30
0.0
 10
11.77642190879715
 20
17.17854346647478
 30
0.0
 10
9.07377850980446
 20
18.74882214040444
 30
0.0
 10
6.152922756104589
 20
19.89936499879619
 30
0.0
 10
3.113427891147836
 20
20.59291001021177
 30
0.0
 10
0.0316281908190594
 20
20.82547587077073
 30
0.0
 10
-3.050576056713536
 20
20.60225639896623
 30
0.0
 10
-6.091408879871821
 20
19.91825716820022
 30
0.0
 10
-9.01573585688732
 20
18.77681730882615
 30
0.0
 10
-11.72376495863833
 20
17.21458275013555
 30
0.0
 10
-14.1440761202917
 20
15.28563368853662
 30
0.0
 10
-16.24920586719769
 20
13.02677260212048
 30
0.0
 10
-18.00865324127478
 20
10.46501755811078
 30
0.0
 10
-19.376614545144
 20
7.642175906000163
 30
0.0
 10
-20.30270472773689
 20
4.649192297746319
 30
0.0
 10
-20.76526062708213
 20
1.583234148062518
 30
0.0
 10
-20.77278921736045
 20
-1.504653529388506
 30
0.0
 10
-20.31520767778879
 20
-4.568291713166608
 30
0.0
 10
-19.42995992260157
 20
-7.562122494785447
 30
0.0
 10
-18.47246882403662
 20
-9.405417910052652
 30
0.0
 10
-17.99715737934465
 20
-10.32045451784763
 30
0.0
  0
SPLINE
  5
100
330
1B
100
AcDbEntity
 67
     1
  8
0
  6
Continuous
 62
     7
370
    25
100
AcDbSpline
210
0.0
220
0.0
230
1.0
 70
     8
 71
     3
 72
    47
 73
    43
 74
     0
 42
0.000000001
 43
0.00000001
 40
0.0
 40
0.0
 40
0.0
 40
0.0
 40
0.0625000000000001
 40
0.0625000000000001
 40
0.1250000000000002
 40
0.1875000000000002
 40
0.1875000000000002
 40
0.2500000000000003
 40
0.2500000000000003
 40
0.3125000000000003
 40
0.3125000000000003
 40
0.3437500000000003
 40
0.3437500000000003
 40
0.3750000000000003
 40
0.3750000000000003
 40
0.4375000000000004
 40
0.4375000000000004
 40
0.4687500000000005
 40
0.4687500000000005
 40
0.5000000000000006
 40
0.5000000000000006
 40
0.5625000000000006
 40
0.5625000000000006
 40
0.5937500000000006
 40
0.5937500000000006
 40
0.6250000000000004
 40
0.6250000000000004
 40
0.6875000000000003
 40
0.6875000000000003
 40
0.7187500000000003
 40
0.7187500000000003
 40
0.7500000000000002
 40
0.7500000000000002
 40
0.8125000000000002
 40
0.8125000000000002
 40
0.8437500000000001
 40
0.8437500000000001
 40
0.8750000000000001
 40
0.8750000000000001
 40
0.9375000000000001
 40
0.9375000000000001
 40
1.0
 40
1.0
 40
1.0
 40
1.0
 10
13.22715333160354
 20
17.89147603587388
 30
0.0
 10
14.15222547767504
 20
17.16975048785313
 30
0.0
 10
15.01568553003157
 20
16.38000124479517
 30
0.0
 10
16.61685535817699
 20
14.66523361189874
 30
0.0
 10
18.06084297313312
 20
12.84483035563136
 30
0.0
 10
19.20224420246399
 20
10.82107138359608
 30
0.0
 10
20.18648816060064
 20
8.691693550666619
 30
0.0
 10
20.58754904073618
 20
7.600905153153725
 30
0.0
 10
21.21335581643176
 20
5.373663731701041
 30
0.0
 10
21.43842838622544
 20
4.236474556308815
 30
0.0
 10
21.63996946585897
 20
2.494178454844856
 30
0.0
 10
21.68398639900581
 20
1.908360735237048
 30
0.0
 10
21.72495497817431
 20
0.7454339922019961
 30
0.0
 10
21.7223954972544
 20
0.1657431372845076
 30
0.0
 10
21.64520413734635
 20
-1.567982524731865
 30
0.0
 10
21.50110730435332
 20
-2.716674118398255
 30
0.0
 10
21.14265920574976
 20
-4.428765636900123
 30
0.0
 10
20.99856261173221
 20
-4.999718387733788
 30
0.0
 10
20.66708985591418
 20
-6.118300612642937
 30
0.0
 10
20.47949040423199
 20
-6.667863431842719
 30
0.0
 10
19.85252739640263
 20
-8.288000892206398
 30
0.0
 10
19.34941488384512
 20
-9.330209506292798
 30
0.0
 10
18.46506735829832
 20
-10.83581997500048
 30
0.0
 10
18.14696231766165
 20
-11.33021196254354
 30
0.0
 10
17.4745367630767
 20
-12.28668324229666
 30
0.0
 10
17.12083268584248
 20
-12.74836765197098
 30
0.0
 10
16.00857285033031
 20
-14.08502220463685
 30
0.0
 10
15.19968049324712
 20
-14.91236108881995
 30
0.0
 10
13.88174225725763
 20
-16.05439142457404
 30
0.0
 10
13.42334946546371
 20
-16.41953701908333
 30
0.0
 10
12.47701867848325
 20
-17.11044896252989
 30
0.0
 10
11.9926169656002
 20
-17.43384170950357
 30
0.0
 10
10.50668439565219
 20
-18.33975756636561
 30
0.0
 10
9.472643062216704
 20
-18.85844429693721
 30
0.0
 10
7.856247608246712
 20
-19.50818801850814
 30
0.0
 10
7.306334904915997
 20
-19.70333478539992
 30
0.0
 10
6.184584371520003
 20
-20.04900814753005
 30
0.0
 10
5.620455264541437
 20
-20.1971747649594
 30
0.0
 10
3.918611187947806
 20
-20.56997510413261
 30
0.0
 10
2.771501905264456
 20
-20.72338274185712
 30
0.0
 10
0.4522151270963394
 20
-20.84013509112662
 30
0.0
 10
-0.7258790126764303
 20
-20.80255887128951
 30
0.0
 10
-1.891655133180614
 20
-20.66359457735055
 30
0.0
  0
SPLINE
  5
10E
330
1B
100
AcDbEntity
 67
     1
  8
0
  6
Continuous
 62
     7
370
    25
100
AcDbSpline
210
0.0
220
0.0
230
1.0
 70
     8
 71
     3
 72
    54
 73
    50
 74
     0
 42
0.000000001
 43
0.00000001
 40
0.0
 40
0.0
 40
0.0
 40
0.0
 40
0.0312500000000001
 40
0.0312500000000001
 40
0.0625000000000002
 40
0.0625000000000002
 40
0.1250000000000004
 40
0.1250000000000004
 40
0.1562500000000006
 40
0.1562500000000006
 40
0.1875000000000007
 40
0.1875000000000007
 40
0.2500000000000008
 40
0.2500000000000008
 40
0.2812500000000009
 40
0.2812500000000009
 40
0.3125000000000009
 40
0.3125000000000009
 40
0.3750000000000011
 40
0.3750000000000011
 40
0.4062500000000012
 40
0.4062500000000012
 40
0.4375000000000012
 40
0.4375000000000012
 40
0.5000000000000012
 40
0.5000000000000012
 40
0.5312500000000011
 40
0.5312500000000011
 40
0.562500000000001
 40
0.562500000000001
 40
0.6250000000000008
 40
0.6250000000000008
 40
0.6562500000000007
 40
0.6562500000000007
 40
0.6875000000000006
 40
0.6875000000000006
 40
0.7500000000000004
 40
0.7500000000000004
 40
0.7812500000000003
 40
0.7812500000000003
 40
0.8125000000000002
 40
0.8125000000000002
 40
0.8750000000000001
 40
0.8750000000000001
 40
0.9062500000000001
 40
0.9062500000000001
 40
0.9375000000000001
 40
0.9375000000000001
 40
1.0
 40
1.0
 40
1.0
 40
1.0
 10
-18.02449858974647
 20
-10.28007541743871
 30
0.0
 10
-18.34398363114343
 20
-9.753384816635336
 30
0.0
 10
-18.63893598666144
 20
-9.214509893029536
 30
0.0
 10
-19.18029410249434
 20
-8.112649054097767
 30
0.0
 10
-19.42711020500101
 20
-7.548583571737002
 30
0.0
 10
-20.09111811001367
 20
-5.82677964555285
 30
0.0
 10
-20.42653058661113
 20
-4.656272331851667
 30
0.0
 10
-20.77480470202238
 20
-2.867830079661287
 30
0.0
 10
-20.86493397492643
 20
-2.266203138478196
 30
0.0
 10
-20.99244979903735
 20
-1.05181745204568
 30
0.0
 10
-21.0297428316085
 20
-0.4361379868847491
 30
0.0
 10
-21.05989266410543
 20
1.405082827057464
 30
0.0
 10
-20.97415705145956
 20
2.619147281539085
 30
0.0
 10
-20.69135935796684
 20
4.420697743329717
 30
0.0
 10
-20.57124942875376
 20
5.017938481705786
 30
0.0
 10
-20.27835932413011
 20
6.205743288917333
 30
0.0
 10
-20.10455433116251
 20
6.798883801278637
 30
0.0
 10
-19.51178772163332
 20
8.538247368217865
 30
0.0
 10
-19.02153584724258
 20
9.65074560824298
 30
0.0
 10
-18.14685918568712
 20
11.25051692524407
 30
0.0
 10
-17.83195458694301
 20
11.7722140301963
 30
0.0
 10
-17.15443347093555
 20
12.79198292412827
 30
0.0
 10
-16.79033077660026
 20
13.29158927125323
 30
0.0
 10
-15.64579182351205
 20
14.72705647049005
 30
0.0
 10
-14.80836912349124
 20
15.60809174505185
 30
0.0
 10
-13.44599965734293
 20
16.8212014362288
 30
0.0
 10
-12.97398503148752
 20
17.20730803888548
 30
0.0
 10
-11.9933452346416
 20
17.9421498517773
 30
0.0
 10
-11.48369679052707
 20
18.29120803571881
 30
0.0
 10
-9.92801317735646
 20
19.26252133044339
 30
0.0
 10
-8.846651530598095
 20
19.8165905493147
 30
0.0
 10
-7.15931343343329
 20
20.50973140714076
 30
0.0
 10
-6.585927355004976
 20
20.71766316325621
 30
0.0
 10
-5.416743422539515
 20
21.08617288967449
 30
0.0
 10
-4.820416713533114
 20
21.24655630883682
 30
0.0
 10
-3.031536073414995
 20
21.64733329550758
 30
0.0
 10
-1.827987673543951
 20
21.81180352522565
 30
0.0
 10
-0.0064719080589056
 20
21.90676858615986
 30
0.0
 10
0.6034138674990717
 20
21.91299306726268
 30
0.0
 10
1.82860068523867
 20
21.87469752960987
 30
0.0
 10
2.444278272046554
 20
21.82967376297061
 30
0.0
 10
4.265494053007811
 20
21.62021456013967
 30
0.0
 10
5.45684286555361
 20
21.38188223079051
 30
0.0
 10
7.210176625122156
 20
20.87852266770437
 30
0.0
 10
7.788977842856343
 20
20.68630275347354
 30
0.0
 10
8.935026000384434
 20
20.25183780231428
 30
0.0
 10
9.502637682681536
 20
20.00915984016277
 30
0.0
 10
11.16195977181548
 20
19.21638093027614
 30
0.0
 10
12.2193106404415
 20
18.59896361164487
 30
0.0
 10
13.22715333160355
 20
17.89147603587387
 30
0.0
  0
CIRCLE
  5
115
330
1B
100
AcDbEntity
 67
     1
  8
0
  6
Continuous
 62
     7
370
    25
100
AcDbCircle
 10
0.0
 20
0.0
 30
0.0
 40
36.99999999999998
  0
CIRCLE
  5
116
330
1B
100
AcDbEntity
 67
     1
  8
0
  6
Continuous
 62
     7
370
    25
100
AcDbCircle
 10
0.0
 20
0.0
 30
0.0
 40
39.00000000000004
  0
CIRCLE
  5
117
330
1B
100
AcDbEntity
 67
     1
  8
0
  6
Continuous
 62
     7
370
    25
100
AcDbCircle
 10
0.0
 20
0.0
 30
0.0
 40
41.5
  0
CIRCLE
  5
118
330
1B
100
AcDbEntity
 67
     1
  8
0
  6
Continuous
 62
     7
370
    25
100
AcDbCircle
 10
0.0
 20
0.0
 30
0.0
 40
20.0
  0
LINE
  5
119
330
1B
100
AcDbEntity
 67
     1
  8
0
  6
Continuous
 62
     7
370
    25
100
AcDbLine
 10
0.6014322276
 20
24.9927645385
 30
0.0
 11
17.341936418
 21
18.0071441732
 31
0.0
  0
LINE
  5
11A
330
1B
100
AcDbEntity
 67
     1
  8
0
  6
Continuous
 62
     7
370
    25
100
AcDbLine
 10
21.9450851149
 20
11.9755266815
 30
0.0
 11
24.2656125126
 21
-6.0149854021
 31
0.0
  0
LINE
  5
11B
330
1B
100
AcDbEntity
 67
     1
  8
0
  6
Continuous
 62
     7
370
    25
100
AcDbLine
 10
21.3436528873
 20
-13.017237857
 30
0.0
 11
6.9236760947
 21
-24.0221295754
 31
0.0
  0
LINE
  5
11C
330
1B
100
AcDbEntity
 67
     1
  8
0
  6
Continuous
 62
     7
370
    25
100
AcDbLine
 10
-0.6014322276
 20
-24.9927645385
 30
0.0
 11
-17.341936418
 21
-18.0071441732
 31
0.0
  0
LINE
  5
11D
330
1B
100
AcDbEntity
 67
     1
  8
0
  6
Continuous
 62
     7
370
    25
100
AcDbLine
 10
-21.9450851149
 20
-11.9755266815
 30
0.0
 11
-24.2656125126
 21
6.0149854021
 31
0.0
  0
LINE
  5
11E
330
1B
100
AcDbEntity
 67
     1
  8
0
  6
Continuous
 62
     7
370
    25
100
AcDbLine
 10
-21.3436528873
 20
13.017237857
 30
0.0
 11
-6.9236760947
 21
24.0221295754
 31
0.0
  0
ARC
  5
11F
330
1B
100
AcDbEntity
 67
     1
  8
0
  6
Continuous
 62
     7
370
    25
100
AcDbCircle
 10
0.0
 20
0.0
 30
0.0
 40
24.9999999999999
100
AcDbArc
 50
328.621485876
 51
286.0780789255
  0
ARC
  5
120
330
1B
100
AcDbEntity
 67
     1
  8
0
  6
Continuous
 62
     7
370
    25
100
AcDbCircle
 10
0.0
 20
0.0
 30
0.0
 40
20.74999999999995
100
AcDbArc
 50
209.6978004163
 51
264.7694193993
  0
VIEWPORT
  5
121
330
1B
100
AcDbEntity
 67
     1
  8
0
100
AcDbViewport
 10
0.0
 20
0.0
 30
0.0
 40
205.6
 41
156.0
 68
     1
 69
     1
 12
45.4290317264
 22
0.0
 13
0.0
 23
0.0
 14
10.0
 24
10.0
 15
10.0
 25
10.0
 16
0.0
 26
0.0
 36
1.0
 17
0.0
 27
0.0
 37
0.0
 42
50.0
 43
0.0
 44
0.0
 45
103.706614786
 50
0.0
 51
0.0
 72
   100
 90
   557152
  1

281
     0
 71
     1
 74
     0
110
0.0
120
0.0
130
0.0
111
1.0
121
0.0
131
0.0
112
0.0
122
1.0
132
0.0
 79
     0
146
0.0
  0
ENDSEC
  0
SECTION
  2
OBJECTS
  0
DICTIONARY
  5
C
330
0
100
AcDbDictionary
281
     1
  3
ACAD_GROUP
350
D
  3
ACAD_LAYOUT
350
1A
  3
ACAD_MLINESTYLE
350
17
  3
ACAD_PLOTSETTINGS
350
19
  3
ACAD_PLOTSTYLENAME
350
E
  3
ACAD_SCALELIST
350
47
  0
DICTIONARY
  5
D
102
{ACAD_REACTORS
330
C
102
}
330
C
100
AcDbDictionary
281
     1
  0
DICTIONARY
  5
1A
102
{ACAD_REACTORS
330
C
102
}
330
C
100
AcDbDictionary
281
     1
  3
_Left
350
1E
  3
Layout2
350
26
  3
Model
350
22
  0
DICTIONARY
  5
17
102
{ACAD_REACTORS
330
C
102
}
330
C
100
AcDbDictionary
281
     1
  3
Standard
350
18
  0
DICTIONARY
  5
19
102
{ACAD_REACTORS
330
C
102
}
330
C
100
AcDbDictionary
281
     1
  0
ACDBDICTIONARYWDFLT
  5
E
102
{ACAD_REACTORS
330
C
102
}
330
C
100
AcDbDictionary
281
     1
  3
Normal
350
F
100
AcDbDictionaryWithDefault
340
F
  0
DICTIONARY
  5
47
102
{ACAD_REACTORS
330
C
102
}
330
C
100
AcDbDictionary
281
     1
  3
A0
350
48
  3
A1
350
49
  3
A2
350
4A
  3
A3
350
4B
  3
A4
350
4C
  3
A5
350
4D
  3
A6
350
4E
  3
A7
350
4F
  3
A8
350
50
  3
A9
350
51
  3
B0
350
52
  3
B1
350
53
  3
B2
350
54
  3
B3
350
55
  3
B4
350
56
  3
B5
350
57
  3
B6
350
58
  3
B7
350
59
  3
B8
350
5A
  3
B9
350
5B
  3
C0
350
5C
  3
C1
350
5D
  3
C2
350
5E
  3
C3
350
5F
  3
C4
350
60
  3
C5
350
61
  3
C6
350
62
  3
C7
350
63
  3
C8
350
64
  3
C9
350
65
  3
D0
350
66
  3
D1
350
67
  3
D2
350
68
  0
LAYOUT
  5
1E
102
{ACAD_REACTORS
330
1A
102
}
330
1A
100
AcDbPlotSettings
  1

  2
none_device
  4
ISO_A4_(210.00_x_297.00_MM)
  6

 40
7.5
 41
20.0
 42
7.5
 43
20.0
 44
210.0
 45
297.0
 46
0.0
 47
0.0
 48
0.0
 49
0.0
140
0.0
141
0.0
142
1.0
143
0.4256410256
 70
   688
 72
     1
 73
     1
 74
     1
  7

 75
     0
147
2.3493975904
148
41.5
149
41.5
100
AcDbLayout
  1
_Left
 70
     1
 71
     1
 10
-50.0128205128
 20
-44.6923076923
 11
76.4025641026
 21
44.6923076923
 12
0.0
 22
0.0
 32
0.0
 14
-41.5
 24
-41.5
 34
0.0
 15
41.5
 25
41.5
 35
0.0
146
0.0
 13
0.0
 23
0.0
 33
0.0
 16
1.0
 26
0.0
 36
0.0
 17
0.0
 27
1.0
 37
0.0
 76
     0
330
1B
331
121
  0
LAYOUT
  5
26
102
{ACAD_REACTORS
330
1A
102
}
330
1A
100
AcDbPlotSettings
  1

  2
none_device
  4

  6

 40
0.0
 41
0.0
 42
0.0
 43
0.0
 44
0.0
 45
0.0
 46
0.0
 47
0.0
 48
0.0
 49
0.0
140
0.0
141
0.0
142
1.0
143
1.0
 70
   688
 72
     1
 73
     0
 74
     5
  7

 75
    16
147
1.0
148
0.0
149
0.0
100
AcDbLayout
  1
Layout2
 70
     1
 71
     2
 10
0.0
 20
0.0
 11
0.0
 21
0.0
 12
0.0
 22
0.0
 32
0.0
 14
0.0
 24
0.0
 34
0.0
 15
0.0
 25
0.0
 35
0.0
146
0.0
 13
0.0
 23
0.0
 33
0.0
 16
1.0
 26
0.0
 36
0.0
 17
0.0
 27
1.0
 37
0.0
 76
     0
330
23
  0
LAYOUT
  5
22
102
{ACAD_REACTORS
330
1A
102
}
330
1A
100
AcDbPlotSettings
  1

  2
none_device
  4
ANSI_A_(11.00_x_8.50_Inches)
  6

 40
6.35
 41
19.05
 42
6.35000508
 43
19.05000254
 44
279.4
 45
215.9
 46
39.5743052979
 47
88.89999873
 48
0.0
 49
0.0
140
0.0
141
0.0
142
0.0812686567
143
1.0
 70
  1696
 72
     0
 73
     0
 74
     0
  7

 75
     0
147
0.0179189148
148
-1300.4909072572
149
0.0
100
AcDbLayout
  1
Model
 70
     1
 71
     0
 10
0.0
 20
0.0
 11
420.0
 21
297.0
 12
0.0
 22
0.0
 32
0.0
 14
-21.5709682736
 24
-41.5
 34
0.0
 15
112.4290317264
 25
41.5
 35
0.0
146
0.0
 13
0.0
 23
0.0
 33
0.0
 16
1.0
 26
0.0
 36
0.0
 17
0.0
 27
1.0
 37
0.0
 76
     0
330
1F
331
29
  0
MLINESTYLE
  5
18
102
{ACAD_REACTORS
330
17
102
}
330
17
100
AcDbMlineStyle
  2
Standard
 70
     0
  3

 62
   256
 51
90.0
 52
90.0
 71
     2
 49
0.5
 62
   256
  6
BYLAYER
 49
-0.5
 62
   256
  6
BYLAYER
  0
ACDBPLACEHOLDER
  5
F
102
{ACAD_REACTORS
330
E
102
}
330
E
  0
SCALE
  5
48
102
{ACAD_REACTORS
330
47
102
}
330
47
100
AcDbScale
 70
     0
300
1:1
140
1.0
141
1.0
290
     1
  0
SCALE
  5
49
102
{ACAD_REACTORS
330
47
102
}
330
47
100
AcDbScale
 70
     0
300
1:2
140
1.0
141
2.0
290
     0
  0
SCALE
  5
4A
102
{ACAD_REACTORS
330
47
102
}
330
47
100
AcDbScale
 70
     0
300
1:4
140
1.0
141
4.0
290
     0
  0
SCALE
  5
4B
102
{ACAD_REACTORS
330
47
102
}
330
47
100
AcDbScale
 70
     0
300
1:5
140
1.0
141
5.0
290
     0
  0
SCALE
  5
4C
102
{ACAD_REACTORS
330
47
102
}
330
47
100
AcDbScale
 70
     0
300
1:8
140
1.0
141
8.0
290
     0
  0
SCALE
  5
4D
102
{ACAD_REACTORS
330
47
102
}
330
47
100
AcDbScale
 70
     0
300
1:10
140
1.0
141
10.0
290
     0
  0
SCALE
  5
4E
102
{ACAD_REACTORS
330
47
102
}
330
47
100
AcDbScale
 70
     0
300
1:16
140
1.0
141
16.0
290
     0
  0
SCALE
  5
4F
102
{ACAD_REACTORS
330
47
102
}
330
47
100
AcDbScale
 70
     0
300
1:20
140
1.0
141
20.0
290
     0
  0
SCALE
  5
50
102
{ACAD_REACTORS
330
47
102
}
330
47
100
AcDbScale
 70
     0
300
1:30
140
1.0
141
30.0
290
     0
  0
SCALE
  5
51
102
{ACAD_REACTORS
330
47
102
}
330
47
100
AcDbScale
 70
     0
300
1:40
140
1.0
141
40.0
290
     0
  0
SCALE
  5
52
102
{ACAD_REACTORS
330
47
102
}
330
47
100
AcDbScale
 70
     0
300
1:50
140
1.0
141
50.0
290
     0
  0
SCALE
  5
53
102
{ACAD_REACTORS
330
47
102
}
330
47
100
AcDbScale
 70
     0
300
1:100
140
1.0
141
100.0
290
     0
  0
SCALE
  5
54
102
{ACAD_REACTORS
330
47
102
}
330
47
100
AcDbScale
 70
     0
300
2:1
140
2.0
141
1.0
290
     0
  0
SCALE
  5
55
102
{ACAD_REACTORS
330
47
102
}
330
47
100
AcDbScale
 70
     0
300
4:1
140
4.0
141
1.0
290
     0
  0
SCALE
  5
56
102
{ACAD_REACTORS
330
47
102
}
330
47
100
AcDbScale
 70
     0
300
8:1
140
8.0
141
1.0
290
     0
  0
SCALE
  5
57
102
{ACAD_REACTORS
330
47
102
}
330
47
100
AcDbScale
 70
     0
300
10:1
140
10.0
141
1.0
290
     0
  0
SCALE
  5
58
102
{ACAD_REACTORS
330
47
102
}
330
47
100
AcDbScale
 70
     0
300
100:1
140
100.0
141
1.0
290
     0
  0
SCALE
  5
59
102
{ACAD_REACTORS
330
47
102
}
330
47
100
AcDbScale
 70
     0
300
1/128" = 1'-0"
140
0.0078125
141
12.0
290
     0
  0
SCALE
  5
5A
102
{ACAD_REACTORS
330
47
102
}
330
47
100
AcDbScale
 70
     0
300
1/64" = 1'-0"
140
0.015625
141
12.0
290
     0
  0
SCALE
  5
5B
102
{ACAD_REACTORS
330
47
102
}
330
47
100
AcDbScale
 70
     0
300
1/32" = 1'-0"
140
0.03125
141
12.0
290
     0
  0
SCALE
  5
5C
102
{ACAD_REACTORS
330
47
102
}
330
47
100
AcDbScale
 70
     0
300
1/16" = 1'-0"
140
0.0625
141
12.0
290
     0
  0
SCALE
  5
5D
102
{ACAD_REACTORS
330
47
102
}
330
47
100
AcDbScale
 70
     0
300
3/32" = 1'-0"
140
0.09375
141
12.0
290
     0
  0
SCALE
  5
5E
102
{ACAD_REACTORS
330
47
102
}
330
47
100
AcDbScale
 70
     0
300
1/8" = 1'-0"
140
0.125
141
12.0
290
     0
  0
SCALE
  5
5F
102
{ACAD_REACTORS
330
47
102
}
330
47
100
AcDbScale
 70
     0
300
3/16" = 1'-0"
140
0.1875
141
12.0
290
     0
  0
SCALE
  5
60
102
{ACAD_REACTORS
330
47
102
}
330
47
100
AcDbScale
 70
     0
300
1/4" = 1'-0"
140
0.25
141
12.0
290
     0
  0
SCALE
  5
61
102
{ACAD_REACTORS
330
47
102
}
330
47
100
AcDbScale
 70
     0
300
3/8" = 1'-0"
140
0.375
141
12.0
290
     0
  0
SCALE
  5
62
102
{ACAD_REACTORS
330
47
102
}
330
47
100
AcDbScale
 70
     0
300
1/2" = 1'-0"
140
0.5
141
12.0
290
     0
  0
SCALE
  5
63
102
{ACAD_REACTORS
330
47
102
}
330
47
100
AcDbScale
 70
     0
300
3/4" = 1'-0"
140
0.75
141
12.0
290
     0
  0
SCALE
  5
64
102
{ACAD_REACTORS
330
47
102
}
330
47
100
AcDbScale
 70
     0
300
1" = 1'-0"
140
1.0
141
12.0
290
     0
  0
SCALE
  5
65
102
{ACAD_REACTORS
330
47
102
}
330
47
100
AcDbScale
 70
     0
300
1-1/2" = 1'-0"
140
1.5
141
12.0
290
     0
  0
SCALE
  5
66
102
{ACAD_REACTORS
330
47
102
}
330
47
100
AcDbScale
 70
     0
300
3" = 1'-0"
140
3.0
141
12.0
290
     0
  0
SCALE
  5
67
102
{ACAD_REACTORS
330
47
102
}
330
47
100
AcDbScale
 70
     0
300
6" = 1'-0"
140
6.0
141
12.0
290
     0
  0
SCALE
  5
68
102
{ACAD_REACTORS
330
47
102
}
330
47
100
AcDbScale
 70
     0
300
1'-0" = 1'-0"
140
12.0
141
12.0
290
     0
  0
ENDSEC
  0
EOF
