  0
SECTION
  2
HEADER
  9
$ACADVER
  1
AC1015
  9
$ACADMAINTVER
 70
     6
  9
$DWGCODEPAGE
  3
ANSI_1252
  9
$INSBASE
 10
0.0
 20
0.0
 30
0.0
  9
$EXTMIN
 10
-13.5709682736
 20
-35.0
 30
0.0
  9
$EXTMAX
 10
107.4290317264
 20
35.0
 30
0.0
  9
$LIMMIN
 10
0.0
 20
0.0
  9
$LIMMAX
 10
420.0
 20
297.0
  9
$ORTHOMODE
 70
     0
  9
$REGENMODE
 70
     1
  9
$FILLMODE
 70
     1
  9
$QTEXTMODE
 70
     0
  9
$MIRRTEXT
 70
     1
  9
$LTSCALE
 40
1.0
  9
$ATTMODE
 70
     1
  9
$TEXTSIZE
 40
6.35
  9
$TRACEWID
 40
1.0
  9
$TEXTSTYLE
  7
Standard
  9
$CLAYER
  8
0
  9
$CELTYPE
  6
ByLayer
  9
$CECOLOR
 62
   256
  9
$CELTSCALE
 40
1.0
  9
$DISPSILH
 70
     0
  9
$DIMSCALE
 40
1.0
  9
$DIMASZ
 40
5.9944
  9
$DIMEXO
 40
0.9906
  9
$DIMDLI
 40
3.75
  9
$DIMRND
 40
0.0
  9
$DIMDLE
 40
0.0
  9
$DIMEXE
 40
0.9906
  9
$DIMTP
 40
0.0
  9
$DIMTM
 40
0.0
  9
$DIMTXT
 40
6.35
  9
$DIMCEN
 40
2.5
  9
$DIMTSZ
 40
0.0
  9
$DIMTOL
 70
     0
  9
$DIMLIM
 70
     0
  9
$DIMTIH
 70
     1
  9
$DIMTOH
 70
     1
  9
$DIMSE1
 70
     0
  9
$DIMSE2
 70
     0
  9
$DIMTAD
 70
     1
  9
$DIMZIN
 70
     0
  9
$DIMBLK
  1

  9
$DIMASO
 70
     1
  9
$DIMSHO
 70
     1
  9
$DIMPOST
  1

  9
$DIMAPOST
  1

  9
$DIMALT
 70
     0
  9
$DIMALTD
 70
     3
  9
$DIMALTF
 40
0.0393700787
  9
$DIMLFAC
 40
1.0
  9
$DIMTOFL
 70
     1
  9
$DIMTVP
 40
0.0
  9
$DIMTIX
 70
     0
  9
$DIMSOXD
 70
     0
  9
$DIMSAH
 70
     0
  9
$DIMBLK1
  1

  9
$DIMBLK2
  1

  9
$DIMSTYLE
  2
ISO-25
  9
$DIMCLRD
 70
     0
  9
$DIMCLRE
 70
     0
  9
$DIMCLRT
 70
     0
  9
$DIMTFAC
 40
1.0
  9
$DIMGAP
 40
1.524
  9
$DIMJUST
 70
     0
  9
$DIMSD1
 70
     0
  9
$DIMSD2
 70
     0
  9
$DIMTOLJ
 70
     0
  9
$DIMTZIN
 70
     0
  9
$DIMALTZ
 70
     0
  9
$DIMALTTZ
 70
     0
  9
$DIMUPT
 70
     0
  9
$DIMDEC
 70
     2
  9
$DIMTDEC
 70
     2
  9
$DIMALTU
 70
     2
  9
$DIMALTTD
 70
     3
  9
$DIMTXSTY
  7
Standard
  9
$DIMAUNIT
 70
     0
  9
$DIMADEC
 70
     2
  9
$DIMALTRND
 40
0.0
  9
$DIMAZIN
 70
     0
  9
$DIMDSEP
 70
    44
  9
$DIMATFIT
 70
     3
  9
$DIMFRAC
 70
     0
  9
$DIMLDRBLK
  1

  9
$DIMLUNIT
 70
     2
  9
$DIMLWD
 70
    -2
  9
$DIMLWE
 70
    -2
  9
$DIMTMOVE
 70
     0
  9
$LUNITS
 70
     2
  9
$LUPREC
 70
     2
  9
$SKETCHINC
 40
1.0
  9
$FILLETRAD
 40
10.0
  9
$AUNITS
 70
     0
  9
$AUPREC
 70
     2
  9
$MENU
  1
.
  9
$ELEVATION
 40
0.0
  9
$PELEVATION
 40
0.0
  9
$THICKNESS
 40
0.0
  9
$LIMCHECK
 70
     0
  9
$CHAMFERA
 40
0.0
  9
$CHAMFERB
 40
0.0
  9
$CHAMFERC
 40
0.0
  9
$CHAMFERD
 40
0.0
  9
$SKPOLY
 70
     0
  9
$TDCREATE
 40
2459380.627326192
  9
$TDUCREATE
 40
2459380.585659525
  9
$TDUPDATE
 40
2459380.627355127
  9
$TDUUPDATE
 40
2459380.585688461
  9
$TDINDWG
 40
0.0000000116
  9
$TDUSRTIMER
 40
0.0000000116
  9
$USRTIMER
 70
     1
  9
$ANGBASE
 50
0.0
  9
$ANGDIR
 70
     0
  9
$PDMODE
 70
     0
  9
$PDSIZE
 40
-1.0
  9
$PLINEWID
 40
0.0
  9
$SPLFRAME
 70
     0
  9
$SPLINETYPE
 70
     6
  9
$SPLINESEGS
 70
     8
  9
$HANDSEED
  5
1B2
  9
$SURFTAB1
 70
     6
  9
$SURFTAB2
 70
     6
  9
$SURFTYPE
 70
     6
  9
$SURFU
 70
     6
  9
$SURFV
 70
     6
  9
$UCSBASE
  2

  9
$UCSNAME
  2

  9
$UCSORG
 10
0.0
 20
0.0
 30
0.0
  9
$UCSXDIR
 10
1.0
 20
0.0
 30
0.0
  9
$UCSYDIR
 10
0.0
 20
1.0
 30
0.0
  9
$UCSORTHOREF
  2

  9
$UCSORTHOVIEW
 70
     0
  9
$UCSORGTOP
 10
0.0
 20
0.0
 30
0.0
  9
$UCSORGBOTTOM
 10
0.0
 20
0.0
 30
0.0
  9
$UCSORGLEFT
 10
0.0
 20
0.0
 30
0.0
  9
$UCSORGRIGHT
 10
0.0
 20
0.0
 30
0.0
  9
$UCSORGFRONT
 10
0.0
 20
0.0
 30
0.0
  9
$UCSORGBACK
 10
0.0
 20
0.0
 30
0.0
  9
$PUCSBASE
  2

  9
$PUCSNAME
  2

  9
$PUCSORG
 10
0.0
 20
0.0
 30
0.0
  9
$PUCSXDIR
 10
1.0
 20
0.0
 30
0.0
  9
$PUCSYDIR
 10
0.0
 20
1.0
 30
0.0
  9
$PUCSORTHOREF
  2

  9
$PUCSORTHOVIEW
 70
     0
  9
$PUCSORGTOP
 10
0.0
 20
0.0
 30
0.0
  9
$PUCSORGBOTTOM
 10
0.0
 20
0.0
 30
0.0
  9
$PUCSORGLEFT
 10
0.0
 20
0.0
 30
0.0
  9
$PUCSORGRIGHT
 10
0.0
 20
0.0
 30
0.0
  9
$PUCSORGFRONT
 10
0.0
 20
0.0
 30
0.0
  9
$PUCSORGBACK
 10
0.0
 20
0.0
 30
0.0
  9
$USERI1
 70
     0
  9
$USERI2
 70
     0
  9
$USERI3
 70
     0
  9
$USERI4
 70
     0
  9
$USERI5
 70
     0
  9
$USERR1
 40
0.0
  9
$USERR2
 40
0.0
  9
$USERR3
 40
0.0
  9
$USERR4
 40
0.0
  9
$USERR5
 40
0.0
  9
$WORLDVIEW
 70
     1
  9
$SHADEDGE
 70
     3
  9
$SHADEDIF
 70
    70
  9
$TILEMODE
 70
     1
  9
$MAXACTVP
 70
    64
  9
$PINSBASE
 10
0.0
 20
0.0
 30
0.0
  9
$PLIMCHECK
 70
     0
  9
$PEXTMIN
 10
-35.0
 20
-35.0
 30
0.0
  9
$PEXTMAX
 10
35.0
 20
35.0
 30
0.0
  9
$PLIMMIN
 10
-42.1794871795
 20
-37.6923076923
  9
$PLIMMAX
 10
64.4358974359
 20
37.6923076923
  9
$UNITMODE
 70
     0
  9
$VISRETAIN
 70
     1
  9
$PLINEGEN
 70
     0
  9
$PSLTSCALE
 70
     1
  9
$TREEDEPTH
 70
  3020
  9
$CMLSTYLE
  2
Standard
  9
$CMLJUST
 70
     0
  9
$CMLSCALE
 40
20.0
  9
$PROXYGRAPHICS
 70
     1
  9
$MEASUREMENT
 70
     1
  9
$CELWEIGHT
370
    -1
  9
$ENDCAPS
280
     0
  9
$JOINSTYLE
280
     0
  9
$LWDISPLAY
290
     1
  9
$INSUNITS
 70
     4
  9
$HYPERLINKBASE
  1

  9
$STYLESHEET
  1

  9
$XEDIT
290
     1
  9
$CEPSNTYPE
380
     0
  9
$PSTYLEMODE
290
     1
  9
$FINGERPRINTGUID
  2
{f8c8e538-c606-482a-a061-3032b5103ccb}
  9
$VERSIONGUID
  2
{FAEB1C32-E019-11D5-929B-00C0DF256EC4}
  9
$EXTNAMES
290
     1
  9
$PSVPSCALE
 40
0.0
  9
$OLESTARTUP
290
     0
  0
ENDSEC
  0
SECTION
  2
CLASSES
  0
CLASS
  1
ACDBDICTIONARYWDFLT
  2
AcDbDictionaryWithDefault
  3
ObjectDBX Classes
 90
        0
280
     0
281
     0
  0
CLASS
  1
VISUALSTYLE
  2
AcDbVisualStyle
  3
ObjectDBX Classes
 90
     4095
280
     0
281
     0
  0
CLASS
  1
MATERIAL
  2
AcDbMaterial
  3
ObjectDBX Classes
 90
     1153
280
     0
281
     0
  0
CLASS
  1
SCALE
  2
AcDbScale
  3
ObjectDBX Classes
 90
     1153
280
     0
281
     0
  0
CLASS
  1
TABLESTYLE
  2
AcDbTableStyle
  3
ObjectDBX Classes
 90
     4095
280
     0
281
     0
  0
CLASS
  1
MLEADERSTYLE
  2
AcDbMLeaderStyle
  3
ACDB_MLEADERSTYLE_CLASS
 90
     4095
280
     0
281
     0
  0
CLASS
  1
SUN
  2
AcDbSun
  3
SCENEOE
 90
     1153
280
     0
281
     0
  0
CLASS
  1
ACDBPLACEHOLDER
  2
AcDbPlaceHolder
  3
ObjectDBX Classes
 90
        0
280
     0
281
     0
  0
CLASS
  1
LAYOUT
  2
AcDbLayout
  3
ObjectDBX Classes
 90
        0
280
     0
281
     0
  0
ENDSEC
  0
SECTION
  2
TABLES
  0
TABLE
  2
VPORT
  5
8
330
0
100
AcDbSymbolTable
 70
     1
  0
VPORT
  5
29
330
8
100
AcDbSymbolTableRecord
100
AcDbViewportTableRecord
  2
*Active
 70
     0
 10
0.0
 20
0.0
 11
1.0
 21
1.0
 12
46.9290317264
 22
0.0
 13
0.0
 23
0.0
 14
10.0
 24
10.0
 15
10.0
 25
10.0
 16
0.0
 26
0.0
 36
1.0
 17
0.0
 27
0.0
 37
0.0
 40
71.4
 41
1.7285714286
 42
50.0
 43
0.0
 44
0.0
 50
0.0
 51
0.0
 71
     0
 72
   100
 73
     1
 74
     3
 75
     0
 76
     0
 77
     0
 78
     0
281
     0
 65
     1
110
0.0
120
0.0
130
0.0
111
1.0
121
0.0
131
0.0
112
0.0
122
1.0
132
0.0
 79
     0
146
0.0
  0
ENDTAB
  0
TABLE
  2
LTYPE
  5
5
330
0
100
AcDbSymbolTable
 70
     6
  0
LTYPE
  5
14
330
5
100
AcDbSymbolTableRecord
100
AcDbLinetypeTableRecord
  2
ByBlock
 70
     0
  3

 72
    65
 73
     0
 40
0.0
  0
LTYPE
  5
15
330
5
100
AcDbSymbolTableRecord
100
AcDbLinetypeTableRecord
  2
ByLayer
 70
     0
  3

 72
    65
 73
     0
 40
0.0
  0
LTYPE
  5
16
330
5
100
AcDbSymbolTableRecord
100
AcDbLinetypeTableRecord
  2
Continuous
 70
     0
  3
Solid line
 72
    65
 73
     0
 40
0.0
  0
LTYPE
  5
6E
330
5
100
AcDbSymbolTableRecord
100
AcDbLinetypeTableRecord
  2
HIDDEN
 70
     0
  3
Hidden __ __ __ __ __ __ __ __ __ __ __ __ __ __
 72
    65
 73
     2
 40
1.905
 49
1.27
 74
     0
 49
-0.635
 74
     0
  0
LTYPE
  5
6F
330
5
100
AcDbSymbolTableRecord
100
AcDbLinetypeTableRecord
  2
PHANTOM
 70
     0
  3
Phantom ______  __  __  ______  __  __  ______
 72
    65
 73
     6
 40
12.7
 49
6.35
 74
     0
 49
-1.27
 74
     0
 49
1.27
 74
     0
 49
-1.27
 74
     0
 49
1.27
 74
     0
 49
-1.27
 74
     0
  0
LTYPE
  5
70
330
5
100
AcDbSymbolTableRecord
100
AcDbLinetypeTableRecord
  2
CENTER
 70
     0
  3
Center ____ _ ____ _ ____ _ ____ _ ____ _ ____
 72
    65
 73
     4
 40
10.16
 49
6.35
 74
     0
 49
-1.27
 74
     0
 49
1.27
 74
     0
 49
-1.27
 74
     0
  0
LTYPE
  5
71
330
5
100
AcDbSymbolTableRecord
100
AcDbLinetypeTableRecord
  2
CENTERX2
 70
     0
  3
Center (2x) ________  __  ________  __  _____
 72
    65
 73
     4
 40
20.32
 49
12.7
 74
     0
 49
-2.54
 74
     0
 49
2.54
 74
     0
 49
-2.54
 74
     0
  0
LTYPE
  5
72
330
5
100
AcDbSymbolTableRecord
100
AcDbLinetypeTableRecord
  2
DOT2
 70
     0
  3
Dot (.5x) ........................................
 72
    65
 73
     2
 40
0.635
 49
0.0
 74
     0
 49
-0.635
 74
     0
  0
ENDTAB
  0
TABLE
  2
LAYER
  5
2
330
0
100
AcDbSymbolTable
 70
     1
  0
LAYER
  5
10
330
2
100
AcDbSymbolTableRecord
100
AcDbLayerTableRecord
  2
0
 70
     0
 62
     7
  6
Continuous
370
    -3
390
F
  0
ENDTAB
  0
TABLE
  2
STYLE
  5
3
330
0
100
AcDbSymbolTable
 70
     1
  0
STYLE
  5
11
330
3
100
AcDbSymbolTableRecord
100
AcDbTextStyleTableRecord
  2
Standard
 70
     0
 40
0.0
 41
1.0
 50
0.0
 71
     0
 42
6.35
  3
txt
  4

  0
ENDTAB
  0
TABLE
  2
VIEW
  5
6
330
0
100
AcDbSymbolTable
 70
     0
  0
ENDTAB
  0
TABLE
  2
UCS
  5
7
330
0
100
AcDbSymbolTable
 70
     0
  0
ENDTAB
  0
TABLE
  2
APPID
  5
9
330
0
100
AcDbSymbolTable
 70
     1
  0
APPID
  5
12
330
9
100
AcDbSymbolTableRecord
100
AcDbRegAppTableRecord
  2
ACAD
 70
     0
  0
ENDTAB
  0
TABLE
  2
DIMSTYLE
  5
A
330
0
100
AcDbSymbolTable
 70
     1
100
AcDbDimStyleTable
  0
DIMSTYLE
105
27
330
A
100
AcDbSymbolTableRecord
100
AcDbDimStyleTableRecord
  2
ISO-25
 70
     0
 41
2.5
 42
0.625
 43
3.75
 44
1.25
 73
     0
 74
     0
 77
     1
 78
     8
140
2.5
141
2.5
143
0.0393700787
147
0.625
171
     3
172
     1
178
     0
271
     2
272
     2
274
     3
278
    44
283
     0
284
     8
340
11
  0
ENDTAB
  0
TABLE
  2
BLOCK_RECORD
  5
1
330
0
100
AcDbSymbolTable
 70
     1
  0
BLOCK_RECORD
  5
1F
330
1
100
AcDbSymbolTableRecord
100
AcDbBlockTableRecord
  2
*Model_Space
340
22
  0
BLOCK_RECORD
  5
1B
330
1
100
AcDbSymbolTableRecord
100
AcDbBlockTableRecord
  2
*Paper_Space
340
1E
  0
BLOCK_RECORD
  5
23
330
1
100
AcDbSymbolTableRecord
100
AcDbBlockTableRecord
  2
*Paper_Space0
340
26
  0
ENDTAB
  0
ENDSEC
  0
SECTION
  2
BLOCKS
  0
BLOCK
  5
20
330
1F
100
AcDbEntity
  8
0
100
AcDbBlockBegin
  2
*Model_Space
 70
     0
 10
0.0
 20
0.0
 30
0.0
  3
*Model_Space
  1

  0
ENDBLK
  5
21
330
1F
100
AcDbEntity
  8
0
100
AcDbBlockEnd
  0
BLOCK
  5
1C
330
1B
100
AcDbEntity
 67
     1
  8
0
100
AcDbBlockBegin
  2
*Paper_Space
 70
     0
 10
0.0
 20
0.0
 30
0.0
  3
*Paper_Space
  1

  0
ENDBLK
  5
1D
330
1B
100
AcDbEntity
 67
     1
  8
0
100
AcDbBlockEnd
  0
BLOCK
  5
24
330
23
100
AcDbEntity
  8
0
100
AcDbBlockBegin
  2
*Paper_Space0
 70
     0
 10
0.0
 20
0.0
 30
0.0
  3
*Paper_Space0
  1

  0
ENDBLK
  5
25
330
23
100
AcDbEntity
  8
0
100
AcDbBlockEnd
  0
ENDSEC
  0
SECTION
  2
ENTITIES
  0
SPLINE
  5
7F
330
1F
100
AcDbEntity
  8
0
  6
Continuous
 62
     7
370
    25
100
AcDbSpline
210
0.0
220
0.0
230
1.0
 70
     8
 71
     3
 72
     9
 73
     5
 74
     0
 42
0.000000001
 43
0.00000001
 40
0.0
 40
0.0
 40
0.0
 40
0.0
 40
0.4999963324063749
 40
1.0
 40
1.0
 40
1.0
 40
1.0
 10
-11.73132034992116
 20
-19.44485964365141
 30
0.0
 10
-11.60765477418413
 20
-19.69491901546325
 30
0.0
 10
-11.36032180847643
 20
-20.19504142757848
 30
0.0
 10
-11.11299437381515
 20
-20.6951664578732
 30
0.0
 10
-10.98932974938798
 20
-20.94523080727593
 30
0.0
  0
SPLINE
  5
80
330
1F
100
AcDbEntity
  8
0
  6
Continuous
 62
     7
370
    25
100
AcDbSpline
210
0.0
220
0.0
230
1.0
 70
     8
 71
     3
 72
     9
 73
     5
 74
     0
 42
0.000000001
 43
0.00000001
 40
0.0
 40
0.0
 40
0.0
 40
0.0
 40
0.4999963324063698
 40
1.0
 40
1.0
 40
1.0
 40
1.0
 10
-10.25548701658783
 20
-19.44485964365141
 30
0.0
 10
-10.13182144085079
 20
-19.69491901546325
 30
0.0
 10
-9.884488475143096
 20
-20.19504142757847
 30
0.0
 10
-9.637161040481818
 20
-20.6951664578732
 30
0.0
 10
-9.513496416054645
 20
-20.94523080727593
 30
0.0
  0
SPLINE
  5
81
330
1F
100
AcDbEntity
  8
0
  6
Continuous
 62
     7
370
    25
100
AcDbSpline
210
0.0
220
0.0
230
1.0
 70
     8
 71
     3
 72
     9
 73
     5
 74
     0
 42
0.000000001
 43
0.00000001
 40
0.0
 40
0.0
 40
0.0
 40
0.0
 40
0.499996332406372
 40
1.0
 40
1.0
 40
1.0
 40
1.0
 10
-8.779653683254493
 20
-19.44485964365141
 30
0.0
 10
-8.655988107517457
 20
-19.69491901546325
 30
0.0
 10
-8.40865514180976
 20
-20.19504142757848
 30
0.0
 10
-8.161327707148482
 20
-20.69516645787319
 30
0.0
 10
-8.037663082721316
 20
-20.94523080727593
 30
0.0
  0
SPLINE
  5
82
330
1F
100
AcDbEntity
  8
0
  6
Continuous
 62
     7
370
    25
100
AcDbSpline
210
0.0
220
0.0
230
1.0
 70
     8
 71
     3
 72
     9
 73
     5
 74
     0
 42
0.000000001
 43
0.00000001
 40
0.0
 40
0.0
 40
0.0
 40
0.0
 40
0.4999963324063739
 40
1.0
 40
1.0
 40
1.0
 40
1.0
 10
-7.303820349921164
 20
-19.44485964365141
 30
0.0
 10
-7.180154774184127
 20
-19.69491901546325
 30
0.0
 10
-6.93282180847643
 20
-20.19504142757848
 30
0.0
 10
-6.685494373815145
 20
-20.6951664578732
 30
0.0
 10
-6.56182974938798
 20
-20.94523080727593
 30
0.0
  0
SPLINE
  5
83
330
1F
100
AcDbEntity
  8
0
  6
Continuous
 62
     7
370
    25
100
AcDbSpline
210
0.0
220
0.0
230
1.0
 70
     8
 71
     3
 72
     9
 73
     5
 74
     0
 42
0.000000001
 43
0.00000001
 40
0.0
 40
0.0
 40
0.0
 40
0.0
 40
0.4999963324063719
 40
1.0
 40
1.0
 40
1.0
 40
1.0
 10
-5.827987016587828
 20
-19.44485964365141
 30
0.0
 10
-5.704321440850792
 20
-19.69491901546325
 30
0.0
 10
-5.456988475143095
 20
-20.19504142757848
 30
0.0
 10
-5.209661040481817
 20
-20.69516645787319
 30
0.0
 10
-5.085996416054652
 20
-20.94523080727593
 30
0.0
  0
SPLINE
  5
84
330
1F
100
AcDbEntity
  8
0
  6
Continuous
 62
     7
370
    25
100
AcDbSpline
210
0.0
220
0.0
230
1.0
 70
     8
 71
     3
 72
     9
 73
     5
 74
     0
 42
0.000000001
 43
0.00000001
 40
0.0
 40
0.0
 40
0.0
 40
0.0
 40
0.499996332406372
 40
1.0
 40
1.0
 40
1.0
 40
1.0
 10
-4.352153683254499
 20
-19.44485964365141
 30
0.0
 10
-4.228488107517456
 20
-19.69491901546325
 30
0.0
 10
-3.981155141809765
 20
-20.19504142757848
 30
0.0
 10
-3.733827707148481
 20
-20.69516645787319
 30
0.0
 10
-3.610163082721316
 20
-20.94523080727593
 30
0.0
  0
SPLINE
  5
85
330
1F
100
AcDbEntity
  8
0
  6
Continuous
 62
     7
370
    25
100
AcDbSpline
210
0.0
220
0.0
230
1.0
 70
     8
 71
     3
 72
     9
 73
     5
 74
     0
 42
0.000000001
 43
0.00000001
 40
0.0
 40
0.0
 40
0.0
 40
0.0
 40
0.4999963324063715
 40
1.0
 40
1.0
 40
1.0
 40
1.0
 10
-2.876320349921163
 20
-19.44485964365141
 30
0.0
 10
-2.752654774184127
 20
-19.69491901546325
 30
0.0
 10
-2.505321808476429
 20
-20.19504142757848
 30
0.0
 10
-2.257994373815145
 20
-20.6951664578732
 30
0.0
 10
-2.134329749387986
 20
-20.94523080727593
 30
0.0
  0
SPLINE
  5
86
330
1F
100
AcDbEntity
  8
0
  6
Continuous
 62
     7
370
    25
100
AcDbSpline
210
0.0
220
0.0
230
1.0
 70
     8
 71
     3
 72
     9
 73
     5
 74
     0
 42
0.000000001
 43
0.00000001
 40
0.0
 40
0.0
 40
0.0
 40
0.0
 40
0.499996332406372
 40
1.0
 40
1.0
 40
1.0
 40
1.0
 10
-1.400487016587827
 20
-19.44485964365141
 30
0.0
 10
-1.276821440850791
 20
-19.69491901546325
 30
0.0
 10
-1.029488475143093
 20
-20.19504142757848
 30
0.0
 10
-0.7821610404818158
 20
-20.6951664578732
 30
0.0
 10
-0.6584964160546505
 20
-20.94523080727593
 30
0.0
  0
SPLINE
  5
87
330
1F
100
AcDbEntity
  8
0
  6
Continuous
 62
     7
370
    25
100
AcDbSpline
210
0.0
220
0.0
230
1.0
 70
     8
 71
     3
 72
     9
 73
     5
 74
     0
 42
0.000000001
 43
0.00000001
 40
0.0
 40
0.0
 40
0.0
 40
0.0
 40
0.4999963324063719
 40
1.0
 40
1.0
 40
1.0
 40
1.0
 10
0.0753463167455018
 20
-19.44485964365141
 30
0.0
 10
0.1990118924825382
 20
-19.69491901546325
 30
0.0
 10
0.4463448581902354
 20
-20.19504142757848
 30
0.0
 10
0.6936722928515202
 20
-20.69516645787319
 30
0.0
 10
0.8173369172786854
 20
-20.94523080727593
 30
0.0
  0
SPLINE
  5
88
330
1F
100
AcDbEntity
  8
0
  6
Continuous
 62
     7
370
    25
100
AcDbSpline
210
0.0
220
0.0
230
1.0
 70
     8
 71
     3
 72
     9
 73
     5
 74
     0
 42
0.000000001
 43
0.00000001
 40
0.0
 40
0.0
 40
0.0
 40
0.0
 40
0.4999963324063715
 40
1.0
 40
1.0
 40
1.0
 40
1.0
 10
1.551179650078838
 20
-19.44485964365141
 30
0.0
 10
1.674845225815874
 20
-19.69491901546325
 30
0.0
 10
1.922178191523565
 20
-20.19504142757848
 30
0.0
 10
2.169505626184849
 20
-20.69516645787319
 30
0.0
 10
2.293170250612015
 20
-20.94523080727593
 30
0.0
  0
SPLINE
  5
89
330
1F
100
AcDbEntity
  8
0
  6
Continuous
 62
     7
370
    25
100
AcDbSpline
210
0.0
220
0.0
230
1.0
 70
     8
 71
     3
 72
     9
 73
     5
 74
     0
 42
0.000000001
 43
0.00000001
 40
0.0
 40
0.0
 40
0.0
 40
0.0
 40
0.4999963324063714
 40
1.0
 40
1.0
 40
1.0
 40
1.0
 10
3.027012983412174
 20
-19.44485964365141
 30
0.0
 10
3.15067855914921
 20
-19.69491901546325
 30
0.0
 10
3.398011524856901
 20
-20.19504142757848
 30
0.0
 10
3.645338959518185
 20
-20.69516645787319
 30
0.0
 10
3.76900358394535
 20
-20.94523080727593
 30
0.0
  0
SPLINE
  5
8A
330
1F
100
AcDbEntity
  8
0
  6
Continuous
 62
     7
370
    25
100
AcDbSpline
210
0.0
220
0.0
230
1.0
 70
     8
 71
     3
 72
     9
 73
     5
 74
     0
 42
0.000000001
 43
0.00000001
 40
0.0
 40
0.0
 40
0.0
 40
0.0
 40
0.8804697694274061
 40
1.0
 40
1.0
 40
1.0
 40
1.0
 10
4.502846316745503
 20
-19.44485964365141
 30
0.0
 10
4.626512243216009
 20
-19.69491884943984
 30
0.0
 10
4.766966726452757
 20
-19.97892542691843
 30
0.0
 10
4.907418068749274
 20
-20.26293349119439
 30
0.0
 10
4.924206250078209
 20
-20.29688104060176
 30
0.0
  0
SPLINE
  5
8B
330
1F
100
AcDbEntity
  8
0
  6
Continuous
 62
     7
370
    25
100
AcDbSpline
210
0.0
220
0.0
230
1.0
 70
     8
 71
     3
 72
     9
 73
     5
 74
     0
 42
0.000000001
 43
0.00000001
 40
0.0
 40
0.0
 40
0.0
 40
0.0
 40
0.500003667593629
 40
0.9999999999999999
 40
0.9999999999999999
 40
0.9999999999999999
 40
0.9999999999999999
 10
-10.25141308272132
 20
20.94523080727593
 30
0.0
 10
-10.37507770714848
 20
20.69516645787319
 30
0.0
 10
-10.62240514180976
 20
20.19504142757847
 30
0.0
 10
-10.86973810751746
 20
19.69491901546325
 30
0.0
 10
-10.99340368325449
 20
19.44485964365141
 30
0.0
  0
SPLINE
  5
8C
330
1F
100
AcDbEntity
  8
0
  6
Continuous
 62
     7
370
    25
100
AcDbSpline
210
0.0
220
0.0
230
1.0
 70
     8
 71
     3
 72
     9
 73
     5
 74
     0
 42
0.000000001
 43
0.00000001
 40
0.0
 40
0.0
 40
0.0
 40
0.0
 40
0.5000036675936295
 40
0.9999999999999999
 40
0.9999999999999999
 40
0.9999999999999999
 40
0.9999999999999999
 10
-8.775579749387981
 20
20.94523080727593
 30
0.0
 10
-8.899244373815145
 20
20.69516645787319
 30
0.0
 10
-9.14657180847643
 20
20.19504142757847
 30
0.0
 10
-9.393904774184128
 20
19.69491901546325
 30
0.0
 10
-9.517570349921165
 20
19.44485964365141
 30
0.0
  0
SPLINE
  5
8D
330
1F
100
AcDbEntity
  8
0
  6
Continuous
 62
     7
370
    25
100
AcDbSpline
210
0.0
220
0.0
230
1.0
 70
     8
 71
     3
 72
     9
 73
     5
 74
     0
 42
0.000000001
 43
0.00000001
 40
0.0
 40
0.0
 40
0.0
 40
0.0
 40
0.5000036675936266
 40
1.0
 40
1.0
 40
1.0
 40
1.0
 10
-7.299746416054652
 20
20.94523080727593
 30
0.0
 10
-7.423411040481811
 20
20.69516645787319
 30
0.0
 10
-7.670738475143095
 20
20.19504142757847
 30
0.0
 10
-7.918071440850792
 20
19.69491901546325
 30
0.0
 10
-8.04173701658783
 20
19.44485964365141
 30
0.0
  0
SPLINE
  5
8E
330
1F
100
AcDbEntity
  8
0
  6
Continuous
 62
     7
370
    25
100
AcDbSpline
210
0.0
220
0.0
230
1.0
 70
     8
 71
     3
 72
     9
 73
     5
 74
     0
 42
0.000000001
 43
0.00000001
 40
0.0
 40
0.0
 40
0.0
 40
0.0
 40
0.5000036675936289
 40
0.9999999999999999
 40
0.9999999999999999
 40
0.9999999999999999
 40
0.9999999999999999
 10
-5.823913082721316
 20
20.94523080727593
 30
0.0
 10
-5.947577707148481
 20
20.69516645787319
 30
0.0
 10
-6.194905141809759
 20
20.19504142757847
 30
0.0
 10
-6.442238107517456
 20
19.69491901546324
 30
0.0
 10
-6.5659036832545
 20
19.44485964365141
 30
0.0
  0
SPLINE
  5
8F
330
1F
100
AcDbEntity
  8
0
  6
Continuous
 62
     7
370
    25
100
AcDbSpline
210
0.0
220
0.0
230
1.0
 70
     8
 71
     3
 72
     9
 73
     5
 74
     0
 42
0.000000001
 43
0.00000001
 40
0.0
 40
0.0
 40
0.0
 40
0.0
 40
0.5000036675936286
 40
0.9999999999999999
 40
0.9999999999999999
 40
0.9999999999999999
 40
0.9999999999999999
 10
-4.348079749387987
 20
20.94523080727593
 30
0.0
 10
-4.471744373815145
 20
20.69516645787319
 30
0.0
 10
-4.71907180847643
 20
20.19504142757847
 30
0.0
 10
-4.966404774184127
 20
19.69491901546325
 30
0.0
 10
-5.090070349921164
 20
19.44485964365141
 30
0.0
  0
SPLINE
  5
90
330
1F
100
AcDbEntity
  8
0
  6
Continuous
 62
     7
370
    25
100
AcDbSpline
210
0.0
220
0.0
230
1.0
 70
     8
 71
     3
 72
     9
 73
     5
 74
     0
 42
0.000000001
 43
0.00000001
 40
0.0
 40
0.0
 40
0.0
 40
0.0
 40
0.5000036675936285
 40
1.0
 40
1.0
 40
1.0
 40
1.0
 10
-2.872246416054651
 20
20.94523080727593
 30
0.0
 10
-2.995911040481816
 20
20.69516645787319
 30
0.0
 10
-3.243238475143094
 20
20.19504142757847
 30
0.0
 10
-3.490571440850791
 20
19.69491901546325
 30
0.0
 10
-3.614237016587834
 20
19.44485964365141
 30
0.0
  0
SPLINE
  5
91
330
1F
100
AcDbEntity
  8
0
  6
Continuous
 62
     7
370
    25
100
AcDbSpline
210
0.0
220
0.0
230
1.0
 70
     8
 71
     3
 72
     9
 73
     5
 74
     0
 42
0.000000001
 43
0.00000001
 40
0.0
 40
0.0
 40
0.0
 40
0.0
 40
0.5000036675936291
 40
0.9999999999999999
 40
0.9999999999999999
 40
0.9999999999999999
 40
0.9999999999999999
 10
-1.396413082721315
 20
20.94523080727593
 30
0.0
 10
-1.52007770714848
 20
20.69516645787319
 30
0.0
 10
-1.767405141809765
 20
20.19504142757848
 30
0.0
 10
-2.014738107517455
 20
19.69491901546325
 30
0.0
 10
-2.138403683254499
 20
19.44485964365141
 30
0.0
  0
SPLINE
  5
92
330
1F
100
AcDbEntity
  8
0
  6
Continuous
 62
     7
370
    25
100
AcDbSpline
210
0.0
220
0.0
230
1.0
 70
     8
 71
     3
 72
     9
 73
     5
 74
     0
 42
0.000000001
 43
0.00000001
 40
0.0
 40
0.0
 40
0.0
 40
0.0
 40
0.5000036675936288
 40
0.9999999999999999
 40
0.9999999999999999
 40
0.9999999999999999
 40
0.9999999999999999
 10
0.079420250612014
 20
20.94523080727593
 30
0.0
 10
-0.0442443738151513
 20
20.69516645787319
 30
0.0
 10
-0.2915718084764291
 20
20.19504142757847
 30
0.0
 10
-0.5389047741841263
 20
19.69491901546325
 30
0.0
 10
-0.6625703499211627
 20
19.44485964365141
 30
0.0
  0
SPLINE
  5
93
330
1F
100
AcDbEntity
  8
0
  6
Continuous
 62
     7
370
    25
100
AcDbSpline
210
0.0
220
0.0
230
1.0
 70
     8
 71
     3
 72
     9
 73
     5
 74
     0
 42
0.000000001
 43
0.00000001
 40
0.0
 40
0.0
 40
0.0
 40
0.0
 40
0.5000036675936287
 40
0.9999999999999999
 40
0.9999999999999999
 40
0.9999999999999999
 40
0.9999999999999999
 10
1.55525358394535
 20
20.94523080727593
 30
0.0
 10
1.431588959518185
 20
20.69516645787319
 30
0.0
 10
1.1842615248569
 20
20.19504142757847
 30
0.0
 10
0.9369285591492096
 20
19.69491901546325
 30
0.0
 10
0.8132629834121663
 20
19.44485964365141
 30
0.0
  0
SPLINE
  5
94
330
1F
100
AcDbEntity
  8
0
  6
Continuous
 62
     7
370
    25
100
AcDbSpline
210
0.0
220
0.0
230
1.0
 70
     8
 71
     3
 72
     9
 73
     5
 74
     0
 42
0.000000001
 43
0.00000001
 40
0.0
 40
0.0
 40
0.0
 40
0.0
 40
0.5000036675936312
 40
1.0
 40
1.0
 40
1.0
 40
1.0
 10
3.031086917278686
 20
20.94523080727593
 30
0.0
 10
2.907422292851514
 20
20.69516645787319
 30
0.0
 10
2.660094858190236
 20
20.19504142757847
 30
0.0
 10
2.412761892482539
 20
19.69491901546324
 30
0.0
 10
2.289096316745502
 20
19.44485964365141
 30
0.0
  0
SPLINE
  5
95
330
1F
100
AcDbEntity
  8
0
  6
Continuous
 62
     7
370
    25
100
AcDbSpline
210
0.0
220
0.0
230
1.0
 70
     8
 71
     3
 72
     9
 73
     5
 74
     0
 42
0.000000001
 43
0.00000001
 40
0.0
 40
0.0
 40
0.0
 40
0.0
 40
0.5000036675936289
 40
1.0
 40
1.0
 40
1.0
 40
1.0
 10
4.506920250612015
 20
20.94523080727593
 30
0.0
 10
4.38325562618485
 20
20.69516645787319
 30
0.0
 10
4.135928191523572
 20
20.19504142757847
 30
0.0
 10
3.888595225815874
 20
19.69491901546325
 30
0.0
 10
3.764929650078838
 20
19.44485964365141
 30
0.0
  0
SPLINE
  5
96
330
1F
100
AcDbEntity
  8
0
  6
Continuous
 62
     7
370
    25
100
AcDbSpline
210
0.0
220
0.0
230
1.0
 70
     8
 71
     3
 72
     9
 73
     5
 74
     0
 42
0.000000001
 43
0.00000001
 40
0.0
 40
0.0
 40
0.0
 40
0.0
 40
0.5000036675936268
 40
1.0
 40
1.0
 40
1.0
 40
1.0
 10
-11.72724641605465
 20
20.94523080727593
 30
0.0
 10
-11.85091104048181
 20
20.6951664578732
 30
0.0
 10
-12.09823847514309
 20
20.19504142757847
 30
0.0
 10
-12.34557144085079
 20
19.69491901546325
 30
0.0
 10
-12.46923701658783
 20
19.44485964365141
 30
0.0
  0
SPLINE
  5
97
330
1F
100
AcDbEntity
  8
0
  6
Continuous
 62
     7
370
    25
100
AcDbSpline
210
0.0
220
0.0
230
1.0
 70
     8
 71
     3
 72
     9
 73
     5
 74
     0
 42
0.000000001
 43
0.00000001
 40
0.0
 40
0.0
 40
0.0
 40
0.0
 40
0.4999963324063739
 40
1.0
 40
1.0
 40
1.0
 40
1.0
 10
-13.20715368325449
 20
-19.44485964365141
 30
0.0
 10
-13.08348810751746
 20
-19.69491901546325
 30
0.0
 10
-12.83615514180976
 20
-20.19504142757848
 30
0.0
 10
-12.58882770714848
 20
-20.6951664578732
 30
0.0
 10
-12.46516308272132
 20
-20.94523080727593
 30
0.0
  0
SPLINE
  5
98
330
1F
100
AcDbEntity
  8
0
  6
Continuous
 62
     7
370
    25
100
AcDbSpline
210
0.0
220
0.0
230
1.0
 70
     8
 71
     3
 72
     9
 73
     5
 74
     0
 42
0.000000001
 43
0.00000001
 40
0.0
 40
0.0
 40
0.0
 40
0.0
 40
0.5000088073626598
 40
1.0
 40
1.0
 40
1.0
 40
1.0
 10
-10.97756435732633
 20
-20.93979966189201
 30
0.0
 10
-10.89274379591466
 20
-20.68966135541015
 30
0.0
 10
-10.72310566122049
 20
-20.1893935545263
 30
0.0
 10
-10.55345837636768
 20
-19.68912841353536
 30
0.0
 10
-10.46863622808642
 20
-19.43900024905642
 30
0.0
  0
SPLINE
  5
99
330
1F
100
AcDbEntity
  8
0
  6
Continuous
 62
     7
370
    25
100
AcDbSpline
210
0.0
220
0.0
230
1.0
 70
     8
 71
     3
 72
     9
 73
     5
 74
     0
 42
0.000000001
 43
0.00000001
 40
0.0
 40
0.0
 40
0.0
 40
0.0
 40
0.5000088073626573
 40
1.0
 40
1.0
 40
1.0
 40
1.0
 10
-9.501731023992994
 20
-20.93979966189201
 30
0.0
 10
-9.416910462581335
 20
-20.68966135541014
 30
0.0
 10
-9.247272327887163
 20
-20.1893935545263
 30
0.0
 10
-9.077625043034338
 20
-19.68912841353537
 30
0.0
 10
-8.992802894753085
 20
-19.43900024905642
 30
0.0
  0
SPLINE
  5
9A
330
1F
100
AcDbEntity
  8
0
  6
Continuous
 62
     7
370
    25
100
AcDbSpline
210
0.0
220
0.0
230
1.0
 70
     8
 71
     3
 72
     9
 73
     5
 74
     0
 42
0.000000001
 43
0.00000001
 40
0.0
 40
0.0
 40
0.0
 40
0.0
 40
0.500008807362658
 40
1.0
 40
1.0
 40
1.0
 40
1.0
 10
-8.025897690659658
 20
-20.93979966189201
 30
0.0
 10
-7.941077129247999
 20
-20.68966135541015
 30
0.0
 10
-7.771438994553827
 20
-20.18939355452631
 30
0.0
 10
-7.601791709701009
 20
-19.68912841353537
 30
0.0
 10
-7.516969561419756
 20
-19.43900024905642
 30
0.0
  0
SPLINE
  5
9B
330
1F
100
AcDbEntity
  8
0
  6
Continuous
 62
     7
370
    25
100
AcDbSpline
210
0.0
220
0.0
230
1.0
 70
     8
 71
     3
 72
     9
 73
     5
 74
     0
 42
0.000000001
 43
0.00000001
 40
0.0
 40
0.0
 40
0.0
 40
0.0
 40
0.5000088073626602
 40
1.0
 40
1.0
 40
1.0
 40
1.0
 10
-6.550064357326329
 20
-20.93979966189201
 30
0.0
 10
-6.465243795914663
 20
-20.68966135541015
 30
0.0
 10
-6.295605661220491
 20
-20.18939355452631
 30
0.0
 10
-6.125958376367674
 20
-19.68912841353536
 30
0.0
 10
-6.041136228086421
 20
-19.43900024905642
 30
0.0
  0
SPLINE
  5
9C
330
1F
100
AcDbEntity
  8
0
  6
Continuous
 62
     7
370
    25
100
AcDbSpline
210
0.0
220
0.0
230
1.0
 70
     8
 71
     3
 72
     9
 73
     5
 74
     0
 42
0.000000001
 43
0.00000001
 40
0.0
 40
0.0
 40
0.0
 40
0.0
 40
0.5000088073626598
 40
1.0
 40
1.0
 40
1.0
 40
1.0
 10
-5.074231023992994
 20
-20.93979966189201
 30
0.0
 10
-4.989410462581334
 20
-20.68966135541015
 30
0.0
 10
-4.819772327887161
 20
-20.1893935545263
 30
0.0
 10
-4.650125043034338
 20
-19.68912841353536
 30
0.0
 10
-4.565302894753091
 20
-19.43900024905642
 30
0.0
  0
SPLINE
  5
9D
330
1F
100
AcDbEntity
  8
0
  6
Continuous
 62
     7
370
    25
100
AcDbSpline
210
0.0
220
0.0
230
1.0
 70
     8
 71
     3
 72
     9
 73
     5
 74
     0
 42
0.000000001
 43
0.00000001
 40
0.0
 40
0.0
 40
0.0
 40
0.0
 40
0.5000088073626578
 40
1.0
 40
1.0
 40
1.0
 40
1.0
 10
-3.598397690659658
 20
-20.93979966189201
 30
0.0
 10
-3.513577129248005
 20
-20.68966135541015
 30
0.0
 10
-3.343938994553826
 20
-20.18939355452631
 30
0.0
 10
-3.174291709701002
 20
-19.68912841353536
 30
0.0
 10
-3.089469561419755
 20
-19.43900024905642
 30
0.0
  0
SPLINE
  5
9E
330
1F
100
AcDbEntity
  8
0
  6
Continuous
 62
     7
370
    25
100
AcDbSpline
210
0.0
220
0.0
230
1.0
 70
     8
 71
     3
 72
     9
 73
     5
 74
     0
 42
0.000000001
 43
0.00000001
 40
0.0
 40
0.0
 40
0.0
 40
0.0
 40
0.5000088073626578
 40
1.0
 40
1.0
 40
1.0
 40
1.0
 10
-2.122564357326329
 20
-20.93979966189201
 30
0.0
 10
-2.037743795914669
 20
-20.68966135541015
 30
0.0
 10
-1.868105661220497
 20
-20.18939355452631
 30
0.0
 10
-1.698458376367673
 20
-19.68912841353536
 30
0.0
 10
-1.613636228086426
 20
-19.43900024905642
 30
0.0
  0
SPLINE
  5
9F
330
1F
100
AcDbEntity
  8
0
  6
Continuous
 62
     7
370
    25
100
AcDbSpline
210
0.0
220
0.0
230
1.0
 70
     8
 71
     3
 72
     9
 73
     5
 74
     0
 42
0.000000001
 43
0.00000001
 40
0.0
 40
0.0
 40
0.0
 40
0.0
 40
0.5000088073626581
 40
1.0
 40
1.0
 40
1.0
 40
1.0
 10
-0.6467310239929926
 20
-20.93979966189201
 30
0.0
 10
-0.5619104625813331
 20
-20.68966135541015
 30
0.0
 10
-0.3922723278871609
 20
-20.18939355452631
 30
0.0
 10
-0.2226250430343371
 20
-19.68912841353537
 30
0.0
 10
-0.1378028947530904
 20
-19.43900024905642
 30
0.0
  0
SPLINE
  5
A0
330
1F
100
AcDbEntity
  8
0
  6
Continuous
 62
     7
370
    25
100
AcDbSpline
210
0.0
220
0.0
230
1.0
 70
     8
 71
     3
 72
     9
 73
     5
 74
     0
 42
0.000000001
 43
0.00000001
 40
0.0
 40
0.0
 40
0.0
 40
0.0
 40
0.5000088073626581
 40
1.0
 40
1.0
 40
1.0
 40
1.0
 10
0.8291023093403362
 20
-20.93979966189201
 30
0.0
 10
0.9139228707519959
 20
-20.68966135541015
 30
0.0
 10
1.083561005446175
 20
-20.18939355452631
 30
0.0
 10
1.253208290298992
 20
-19.68912841353537
 30
0.0
 10
1.338030438580246
 20
-19.43900024905642
 30
0.0
  0
SPLINE
  5
A1
330
1F
100
AcDbEntity
  8
0
  6
Continuous
 62
     7
370
    25
100
AcDbSpline
210
0.0
220
0.0
230
1.0
 70
     8
 71
     3
 72
     9
 73
     5
 74
     0
 42
0.000000001
 43
0.00000001
 40
0.0
 40
0.0
 40
0.0
 40
0.0
 40
0.5000088073626596
 40
1.0
 40
1.0
 40
1.0
 40
1.0
 10
2.304935642673672
 20
-20.93979966189201
 30
0.0
 10
2.389756204085332
 20
-20.68966135541015
 30
0.0
 10
2.559394338779504
 20
-20.18939355452631
 30
0.0
 10
2.729041623632328
 20
-19.68912841353536
 30
0.0
 10
2.813863771913574
 20
-19.43900024905642
 30
0.0
  0
SPLINE
  5
A2
330
1F
100
AcDbEntity
  8
0
  6
Continuous
 62
     7
370
    25
100
AcDbSpline
210
0.0
220
0.0
230
1.0
 70
     8
 71
     3
 72
     9
 73
     5
 74
     0
 42
0.000000001
 43
0.00000001
 40
0.0
 40
0.0
 40
0.0
 40
0.0
 40
0.5000088073626531
 40
1.0
 40
1.0
 40
1.0
 40
1.0
 10
3.780768976007001
 20
-20.93979966189201
 30
0.0
 10
3.865589537418661
 20
-20.68966135541015
 30
0.0
 10
4.03522767211284
 20
-20.18939355452631
 30
0.0
 10
4.204874956965657
 20
-19.68912841353537
 30
0.0
 10
4.28969710524691
 20
-19.43900024905642
 30
0.0
  0
SPLINE
  5
A3
330
1F
100
AcDbEntity
  8
0
  6
Continuous
 62
     7
370
    25
100
AcDbSpline
210
0.0
220
0.0
230
1.0
 70
     8
 71
     3
 72
     9
 73
     5
 74
     0
 42
0.000000001
 43
0.00000001
 40
0.0
 40
0.0
 40
0.0
 40
0.0
 40
0.4999911926373446
 40
1.0
 40
1.0
 40
1.0
 40
1.0
 10
-9.730719561419757
 20
19.43900024905641
 30
0.0
 10
-9.815541709701003
 20
19.68912841353536
 30
0.0
 10
-9.98518899455382
 20
20.18939355452631
 30
0.0
 10
-10.154827129248
 20
20.68966135541014
 30
0.0
 10
-10.23964769065966
 20
20.93979966189201
 30
0.0
  0
SPLINE
  5
A4
330
1F
100
AcDbEntity
  8
0
  6
Continuous
 62
     7
370
    25
100
AcDbSpline
210
0.0
220
0.0
230
1.0
 70
     8
 71
     3
 72
     9
 73
     5
 74
     0
 42
0.000000001
 43
0.00000001
 40
0.0
 40
0.0
 40
0.0
 40
0.0
 40
0.4999911926373433
 40
1.0
 40
1.0
 40
1.0
 40
1.0
 10
-8.254886228086427
 20
19.43900024905641
 30
0.0
 10
-8.339708376367675
 20
19.68912841353536
 30
0.0
 10
-8.509355661220491
 20
20.1893935545263
 30
0.0
 10
-8.678993795914671
 20
20.68966135541014
 30
0.0
 10
-8.76381435732633
 20
20.93979966189201
 30
0.0
  0
SPLINE
  5
A5
330
1F
100
AcDbEntity
  8
0
  6
Continuous
 62
     7
370
    25
100
AcDbSpline
210
0.0
220
0.0
230
1.0
 70
     8
 71
     3
 72
     9
 73
     5
 74
     0
 42
0.000000001
 43
0.00000001
 40
0.0
 40
0.0
 40
0.0
 40
0.0
 40
0.4999911926373429
 40
1.0
 40
1.0
 40
1.0
 40
1.0
 10
-6.779052894753092
 20
19.43900024905641
 30
0.0
 10
-6.863875043034338
 20
19.68912841353536
 30
0.0
 10
-7.033522327887162
 20
20.18939355452631
 30
0.0
 10
-7.203160462581335
 20
20.68966135541015
 30
0.0
 10
-7.287981023992994
 20
20.93979966189201
 30
0.0
  0
SPLINE
  5
A6
330
1F
100
AcDbEntity
  8
0
  6
Continuous
 62
     7
370
    25
100
AcDbSpline
210
0.0
220
0.0
230
1.0
 70
     8
 71
     3
 72
     9
 73
     5
 74
     0
 42
0.000000001
 43
0.00000001
 40
0.0
 40
0.0
 40
0.0
 40
0.0
 40
0.4999911926373449
 40
1.0
 40
1.0
 40
1.0
 40
1.0
 10
-5.303219561419755
 20
19.43900024905641
 30
0.0
 10
-5.388041709701002
 20
19.68912841353536
 30
0.0
 10
-5.557688994553827
 20
20.18939355452631
 30
0.0
 10
-5.727327129247999
 20
20.68966135541014
 30
0.0
 10
-5.812147690659658
 20
20.93979966189201
 30
0.0
  0
SPLINE
  5
A7
330
1F
100
AcDbEntity
  8
0
  6
Continuous
 62
     7
370
    25
100
AcDbSpline
210
0.0
220
0.0
230
1.0
 70
     8
 71
     3
 72
     9
 73
     5
 74
     0
 42
0.000000001
 43
0.00000001
 40
0.0
 40
0.0
 40
0.0
 40
0.0
 40
0.4999911926373431
 40
1.0
 40
1.0
 40
1.0
 40
1.0
 10
-3.827386228086427
 20
19.43900024905641
 30
0.0
 10
-3.912208376367674
 20
19.68912841353536
 30
0.0
 10
-4.081855661220491
 20
20.18939355452631
 30
0.0
 10
-4.251493795914669
 20
20.68966135541015
 30
0.0
 10
-4.336314357326329
 20
20.93979966189201
 30
0.0
  0
SPLINE
  5
A8
330
1F
100
AcDbEntity
  8
0
  6
Continuous
 62
     7
370
    25
100
AcDbSpline
210
0.0
220
0.0
230
1.0
 70
     8
 71
     3
 72
     9
 73
     5
 74
     0
 42
0.000000001
 43
0.00000001
 40
0.0
 40
0.0
 40
0.0
 40
0.0
 40
0.4999911926373449
 40
1.0
 40
1.0
 40
1.0
 40
1.0
 10
-2.351552894753091
 20
19.43900024905641
 30
0.0
 10
-2.436375043034337
 20
19.68912841353536
 30
0.0
 10
-2.606022327887161
 20
20.18939355452631
 30
0.0
 10
-2.775660462581333
 20
20.68966135541014
 30
0.0
 10
-2.860481023992993
 20
20.93979966189201
 30
0.0
  0
SPLINE
  5
A9
330
1F
100
AcDbEntity
  8
0
  6
Continuous
 62
     7
370
    25
100
AcDbSpline
210
0.0
220
0.0
230
1.0
 70
     8
 71
     3
 72
     9
 73
     5
 74
     0
 42
0.000000001
 43
0.00000001
 40
0.0
 40
0.0
 40
0.0
 40
0.0
 40
0.49999119263735
 40
1.0
 40
1.0
 40
1.0
 40
1.0
 10
-0.8757195614197549
 20
19.43900024905641
 30
0.0
 10
-0.9605417097010085
 20
19.68912841353536
 30
0.0
 10
-1.130188994553825
 20
20.18939355452631
 30
0.0
 10
-1.299827129248005
 20
20.68966135541015
 30
0.0
 10
-1.384647690659657
 20
20.93979966189201
 30
0.0
  0
SPLINE
  5
AA
330
1F
100
AcDbEntity
  8
0
  6
Continuous
 62
     7
370
    25
100
AcDbSpline
210
0.0
220
0.0
230
1.0
 70
     8
 71
     3
 72
     9
 73
     5
 74
     0
 42
0.000000001
 43
0.00000001
 40
0.0
 40
0.0
 40
0.0
 40
0.0
 40
0.4999911926373497
 40
1.0
 40
1.0
 40
1.0
 40
1.0
 10
0.6001137719135741
 20
19.43900024905641
 30
0.0
 10
0.5152916236323274
 20
19.68912841353536
 30
0.0
 10
0.3456443387795105
 20
20.18939355452631
 30
0.0
 10
0.1760062040853314
 20
20.68966135541015
 30
0.0
 10
0.0911856426736718
 20
20.93979966189201
 30
0.0
  0
SPLINE
  5
AB
330
1F
100
AcDbEntity
  8
0
  6
Continuous
 62
     7
370
    25
100
AcDbSpline
210
0.0
220
0.0
230
1.0
 70
     8
 71
     3
 72
     9
 73
     5
 74
     0
 42
0.000000001
 43
0.00000001
 40
0.0
 40
0.0
 40
0.0
 40
0.0
 40
0.4999911926373476
 40
1.0
 40
1.0
 40
1.0
 40
1.0
 10
2.07594710524691
 20
19.43900024905641
 30
0.0
 10
1.991124956965656
 20
19.68912841353536
 30
0.0
 10
1.821477672112839
 20
20.1893935545263
 30
0.0
 10
1.651839537418667
 20
20.68966135541015
 30
0.0
 10
1.567018976007001
 20
20.93979966189201
 30
0.0
  0
SPLINE
  5
AC
330
1F
100
AcDbEntity
  8
0
  6
Continuous
 62
     7
370
    25
100
AcDbSpline
210
0.0
220
0.0
230
1.0
 70
     8
 71
     3
 72
     9
 73
     5
 74
     0
 42
0.000000001
 43
0.00000001
 40
0.0
 40
0.0
 40
0.0
 40
0.0
 40
0.4999911926373542
 40
1.0
 40
1.0
 40
1.0
 40
1.0
 10
3.551780438580246
 20
19.43900024905641
 30
0.0
 10
3.466958290298992
 20
19.68912841353537
 30
0.0
 10
3.297311005446176
 20
20.18939355452631
 30
0.0
 10
3.127672870751996
 20
20.68966135541016
 30
0.0
 10
3.042852309340337
 20
20.93979966189201
 30
0.0
  0
SPLINE
  5
AD
330
1F
100
AcDbEntity
  8
0
  6
Continuous
 62
     7
370
    25
100
AcDbSpline
210
0.0
220
0.0
230
1.0
 70
     8
 71
     3
 72
     9
 73
     5
 74
     0
 42
0.000000001
 43
0.00000001
 40
0.0
 40
0.0
 40
0.0
 40
0.0
 40
0.3809529803799163
 40
1.0
 40
1.0
 40
1.0
 40
1.0
 10
4.929748856988166
 20
19.72759248319093
 30
0.0
 10
4.877548751978621
 20
19.88152335401194
 30
0.0
 10
4.740523691937122
 20
20.28559125411736
 30
0.0
 10
4.603506022545716
 20
20.68966130263773
 30
0.0
 10
4.518685642673673
 20
20.93979966189201
 30
0.0
  0
SPLINE
  5
AE
330
1F
100
AcDbEntity
  8
0
  6
Continuous
 62
     7
370
    25
100
AcDbSpline
210
0.0
220
0.0
230
1.0
 70
     8
 71
     3
 72
     9
 73
     5
 74
     0
 42
0.000000001
 43
0.00000001
 40
0.0
 40
0.0
 40
0.0
 40
0.0
 40
0.4999911926373471
 40
1.0
 40
1.0
 40
1.0
 40
1.0
 10
-11.20655289475309
 20
19.43900024905641
 30
0.0
 10
-11.29137504303434
 20
19.68912841353536
 30
0.0
 10
-11.46102232788716
 20
20.18939355452631
 30
0.0
 10
-11.63066046258134
 20
20.68966135541015
 30
0.0
 10
-11.71548102399299
 20
20.93979966189201
 30
0.0
  0
SPLINE
  5
AF
330
1F
100
AcDbEntity
  8
0
  6
Continuous
 62
     7
370
    25
100
AcDbSpline
210
0.0
220
0.0
230
1.0
 70
     8
 71
     3
 72
     9
 73
     5
 74
     0
 42
0.000000001
 43
0.00000001
 40
0.0
 40
0.0
 40
0.0
 40
0.0
 40
0.5000088073626626
 40
1.0
 40
1.0
 40
1.0
 40
1.0
 10
-12.45339769065966
 20
-20.93979966189201
 30
0.0
 10
-12.36857712924799
 20
-20.68966135541014
 30
0.0
 10
-12.19893899455382
 20
-20.1893935545263
 30
0.0
 10
-12.029291709701
 20
-19.68912841353536
 30
0.0
 10
-11.94446956141976
 20
-19.43900024905642
 30
0.0
  0
SPLINE
  5
CF
330
1F
100
AcDbEntity
  8
0
  6
Continuous
 62
     7
370
    25
100
AcDbSpline
210
0.0
220
0.0
230
1.0
 70
    24
 71
     3
 72
    23
 73
    19
 74
     0
 42
0.000000001
 43
0.00000001
 40
0.0
 40
0.0
 40
0.0
 40
0.0
 40
0.2500000000000036
 40
0.2500000000000036
 40
0.3125000000000037
 40
0.3125000000000037
 40
0.3750000000000038
 40
0.437500000000004
 40
0.437500000000004
 40
0.5000000000000041
 40
0.5000000000000041
 40
0.7500000000000028
 40
0.7500000000000028
 40
0.8125000000000022
 40
0.8125000000000022
 40
0.8750000000000016
 40
0.8750000000000016
 40
1.0
 40
1.0
 40
1.0
 40
1.0
 10
40.08613771518712
 20
-3.000000000000254
 30
0.0
 10
41.69312945710538
 20
-3.000000000000255
 30
0.0
 10
43.26983328283276
 20
-3.000000000000254
 30
0.0
 10
45.20312116469896
 20
-3.000000000000256
 30
0.0
 10
45.58897570969507
 20
-3.000000000000257
 30
0.0
 10
46.3498175682542
 20
-3.000000000000259
 30
0.0
 10
47.10008594346381
 20
-3.000000000000258
 30
0.0
 10
47.8293512577782
 20
-3.00000000000026
 30
0.0
 10
48.54804479703829
 20
-3.000000000000262
 30
0.0
 10
48.90224870136426
 20
-3.000000000000263
 30
0.0
 10
50.62646707248859
 20
-3.000000000000266
 30
0.0
 10
51.87560155128134
 20
-3.000000000000271
 30
0.0
 10
53.27330186131709
 20
-3.000000000000277
 30
0.0
 10
53.54468967237715
 20
-3.000000000000278
 30
0.0
 10
54.06265595998915
 20
-3.000000000000279
 30
0.0
 10
54.31031692699734
 20
-3.000000000000281
 30
0.0
 10
55.01999861690906
 20
-3.000000000000285
 30
0.0
 10
55.44885833527317
 20
-3.000000000000286
 30
0.0
 10
55.83347212111521
 20
-3.00000000000029
 30
0.0
  0
SPLINE
  5
D0
330
1F
100
AcDbEntity
  8
0
  6
Continuous
 62
     7
370
    25
100
AcDbSpline
210
0.0
220
0.0
230
1.0
 70
    24
 71
     3
 72
    32
 73
    28
 74
     0
 42
0.000000001
 43
0.00000001
 40
0.0
 40
0.0
 40
0.0
 40
0.0
 40
0.0624999999999999
 40
0.0624999999999999
 40
0.1249999999999997
 40
0.1249999999999997
 40
0.2499999999999994
 40
0.2499999999999994
 40
0.3124999999999991
 40
0.3124999999999991
 40
0.3749999999999987
 40
0.3749999999999987
 40
0.4999999999999992
 40
0.4999999999999992
 40
0.5312499999999992
 40
0.5312499999999992
 40
0.5624999999999993
 40
0.5624999999999993
 40
0.6249999999999993
 40
0.6249999999999993
 40
0.7499999999999994
 40
0.7499999999999994
 40
0.8124999999999997
 40
0.8124999999999997
 40
0.8749999999999998
 40
0.8749999999999998
 40
1.0
 40
1.0
 40
1.0
 40
1.0
 10
55.83347212111521
 20
3.000000000000345
 30
0.0
 10
55.63890196613326
 20
3.000000000000339
 30
0.0
 10
55.43121501192534
 20
3.000000000000333
 30
0.0
 10
54.99646380378561
 20
3.00000000000032
 30
0.0
 10
54.76869028087146
 20
3.000000000000315
 30
0.0
 10
54.05472576155713
 20
3.000000000000297
 30
0.0
 10
53.53802296850759
 20
3.000000000000287
 30
0.0
 10
52.70163347583789
 20
3.000000000000271
 30
0.0
 10
52.41258158920529
 20
3.000000000000266
 30
0.0
 10
51.81351090573609
 20
3.000000000000257
 30
0.0
 10
51.50278220359819
 20
3.000000000000252
 30
0.0
 10
50.54983988727381
 20
3.000000000000238
 30
0.0
 10
49.88400054864152
 20
3.00000000000023
 30
0.0
 10
49.01352835594366
 20
3.000000000000221
 30
0.0
 10
48.83751719910764
 20
3.000000000000219
 30
0.0
 10
48.48162889530324
 20
3.000000000000215
 30
0.0
 10
48.30447892603802
 20
3.000000000000214
 30
0.0
 10
47.76903365738846
 20
3.00000000000021
 30
0.0
 10
47.40782529784413
 20
3.000000000000206
 30
0.0
 10
46.31173923947027
 20
3.000000000000198
 30
0.0
 10
45.56445352452974
 20
3.000000000000193
 30
0.0
 10
44.41877644806231
 20
3.000000000000188
 30
0.0
 10
44.03274604540913
 20
3.000000000000186
 30
0.0
 10
43.25226016330329
 20
3.000000000000184
 30
0.0
 10
42.85630596955757
 20
3.000000000000183
 30
0.0
 10
41.66798665563669
 20
3.00000000000018
 30
0.0
 10
40.87664208507598
 20
3.00000000000018
 30
0.0
 10
40.08613771518714
 20
3.000000000000179
 30
0.0
  0
SPLINE
  5
E3
330
1F
100
AcDbEntity
  8
0
  6
Continuous
 62
     7
370
    25
100
AcDbSpline
210
0.0
220
0.0
230
1.0
 70
     8
 71
     3
 72
    20
 73
    16
 74
     0
 42
0.000000001
 43
0.00000001
 40
0.0
 40
0.0
 40
0.0
 40
0.0
 40
0.2500000000000013
 40
0.2500000000000013
 40
0.3750000000000011
 40
0.3750000000000011
 40
0.5000000000000009
 40
0.5000000000000009
 40
0.6250000000000007
 40
0.6250000000000007
 40
0.7500000000000004
 40
0.7500000000000004
 40
0.8750000000000002
 40
0.8750000000000002
 40
1.0
 40
1.0
 40
1.0
 40
1.0
 10
48.37462923329058
 20
23.08453519207874
 30
0.0
 10
49.27219928902922
 20
23.08453519207874
 30
0.0
 10
50.14942664291483
 20
22.98117226709434
 30
0.0
 10
51.43562596286679
 20
22.67551593240072
 30
0.0
 10
51.86180652856803
 20
22.5469946905682
 30
0.0
 10
52.68039004030376
 20
22.24529570066791
 30
0.0
 10
53.07522839813807
 20
22.07185818135789
 30
0.0
 10
53.83646374463399
 20
21.68053447134516
 30
0.0
 10
54.20286323493108
 20
21.46265219024228
 30
0.0
 10
54.90615367955296
 20
20.98077116962182
 30
0.0
 10
55.2361207932142
 20
20.72141239279734
 30
0.0
 10
55.85130959653029
 20
20.16973114788911
 30
0.0
 10
56.13707985294997
 20
19.87702384216727
 30
0.0
 10
56.66462836585175
 20
19.25761023002249
 30
0.0
 10
56.90716432233537
 20
18.92945686138884
 30
0.0
 10
57.12314834769508
 20
18.58881877775533
 30
0.0
  0
SPLINE
  5
E5
330
1F
100
AcDbEntity
  8
0
  6
Continuous
 62
     7
370
    25
100
AcDbSpline
210
0.0
220
0.0
230
1.0
 70
     8
 71
     3
 72
    20
 73
    16
 74
     0
 42
0.000000001
 43
0.00000001
 40
0.0
 40
0.0
 40
0.0
 40
0.0
 40
0.2500000000000013
 40
0.2500000000000013
 40
0.375000000000001
 40
0.375000000000001
 40
0.5000000000000008
 40
0.5000000000000008
 40
0.6250000000000007
 40
0.6250000000000007
 40
0.7500000000000004
 40
0.7500000000000004
 40
0.8750000000000002
 40
0.8750000000000002
 40
1.0
 40
1.0
 40
1.0
 40
1.0
 10
57.12314834769504
 20
-18.58881877775529
 30
0.0
 10
56.69113501164363
 20
-19.27016636654843
 30
0.0
 10
56.16550343006988
 20
-19.88723702089406
 30
0.0
 10
55.23971890978809
 20
-20.71854930138365
 30
0.0
 10
54.9054546063733
 20
-20.98111930148748
 30
0.0
 10
54.20772458430846
 20
-21.45945136893331
 30
0.0
 10
53.84299256013623
 20
-21.67682312423443
 30
0.0
 10
53.0822466761071
 20
-22.06859918844654
 30
0.0
 10
52.68623640347391
 20
-22.24300842462089
 30
0.0
 10
51.86170063883941
 20
-22.54716532534236
 30
0.0
 10
51.44001310248219
 20
-22.67421807112521
 30
0.0
 10
50.58600518569292
 20
-22.87767406645188
 30
0.0
 10
50.15246285121165
 20
-22.95452644123927
 30
0.0
 10
49.27217706679971
 20
-23.05800679792092
 30
0.0
 10
48.82346832218497
 20
-23.08453519207867
 30
0.0
 10
48.37462923329057
 20
-23.08453519207867
 30
0.0
  0
SPLINE
  5
E9
330
1F
100
AcDbEntity
  8
0
  6
Continuous
 62
     7
370
    25
100
AcDbSpline
210
0.0
220
0.0
230
1.0
 70
     8
 71
     3
 72
     8
 73
     4
 74
     0
 42
0.000000001
 43
0.00000001
 40
0.0
 40
0.0
 40
0.0
 40
0.0
 40
0.0026779032092867
 40
0.0026779032092867
 40
0.0026779032092867
 40
0.0026779032092867
 10
55.83347212111521
 20
-23.62128664261322
 30
0.0
 10
56.2635912410686
 20
-22.94390544256391
 30
0.0
 10
56.69350605227083
 20
-22.26642689214021
 30
0.0
 10
57.12314834769479
 20
-21.5888187777559
 30
0.0
  0
SPLINE
  5
EB
330
1F
100
AcDbEntity
  8
0
  6
Continuous
 62
     7
370
    25
100
AcDbSpline
210
0.0
220
0.0
230
1.0
 70
     8
 71
     3
 72
     8
 73
     4
 74
     0
 42
0.000000001
 43
0.00000001
 40
0.0
 40
0.0
 40
0.0
 40
0.0
 40
0.0026779032092872
 40
0.0026779032092872
 40
0.0026779032092872
 40
0.0026779032092872
 10
57.12314834769504
 20
-18.58881877775529
 30
0.0
 10
56.69350605227098
 20
-19.26642689213974
 30
0.0
 10
56.26359124106868
 20
-19.94390544256358
 30
0.0
 10
55.83347212111521
 20
-20.62128664261301
 30
0.0
  0
SPLINE
  5
EC
330
1F
100
AcDbEntity
  8
0
  6
Continuous
 62
     7
370
    25
100
AcDbSpline
210
0.0
220
0.0
230
1.0
 70
     8
 71
     3
 72
     8
 73
     4
 74
     0
 42
0.000000001
 43
0.00000001
 40
0.0
 40
0.0
 40
0.0
 40
0.0
 40
0.0026779032092872
 40
0.0026779032092872
 40
0.0026779032092872
 40
0.0026779032092872
 10
55.83347212111521
 20
20.62128664261304
 30
0.0
 10
56.26359124106869
 20
19.94390544256359
 30
0.0
 10
56.693506052271
 20
19.26642689213976
 30
0.0
 10
57.12314834769505
 20
18.58881877775531
 30
0.0
  0
SPLINE
  5
EE
330
1F
100
AcDbEntity
  8
0
  6
Continuous
 62
     7
370
    25
100
AcDbSpline
210
0.0
220
0.0
230
1.0
 70
     8
 71
     3
 72
     8
 73
     4
 74
     0
 42
0.000000001
 43
0.00000001
 40
0.0
 40
0.0
 40
0.0
 40
0.0
 40
0.0026779032092868
 40
0.0026779032092868
 40
0.0026779032092868
 40
0.0026779032092868
 10
57.12314834769481
 20
21.58881877775592
 30
0.0
 10
56.69350605227083
 20
22.26642689214023
 30
0.0
 10
56.2635912410686
 20
22.94390544256394
 30
0.0
 10
55.83347212111521
 20
23.62128664261325
 30
0.0
  0
SPLINE
  5
EF
330
1F
100
AcDbEntity
  8
0
  6
Continuous
 62
     7
370
    25
100
AcDbSpline
210
0.0
220
0.0
230
1.0
 70
    24
 71
     3
 72
     8
 73
     4
 74
     0
 42
0.000000001
 43
0.00000001
 40
0.0
 40
0.0
 40
0.0
 40
0.0
 40
0.0026779032092873
 40
0.0026779032092873
 40
0.0026779032092873
 40
0.0026779032092873
 10
55.83347212111521
 20
-3.00000000000029
 30
0.0
 10
56.2635912410687
 20
-3.000000000000292
 30
0.0
 10
56.69350605227103
 20
-3.000000000000295
 30
0.0
 10
57.1231483476951
 20
-3.000000000000298
 30
0.0
  0
SPLINE
  5
F0
330
1F
100
AcDbEntity
  8
0
  6
Continuous
 62
     7
370
    25
100
AcDbSpline
210
0.0
220
0.0
230
1.0
 70
    24
 71
     3
 72
     8
 73
     4
 74
     0
 42
0.000000001
 43
0.00000001
 40
0.0
 40
0.0
 40
0.0
 40
0.0
 40
0.0026779032092874
 40
0.0026779032092874
 40
0.0026779032092874
 40
0.0026779032092874
 10
57.12314834769511
 20
3.000000000000386
 30
0.0
 10
56.69350605227103
 20
3.000000000000372
 30
0.0
 10
56.2635912410687
 20
3.000000000000358
 30
0.0
 10
55.83347212111521
 20
3.000000000000345
 30
0.0
  0
SPLINE
  5
101
330
1F
100
AcDbEntity
  8
0
  6
Continuous
 62
     7
370
    25
100
AcDbSpline
210
0.0
220
0.0
230
1.0
 70
     8
 71
     3
 72
    20
 73
    16
 74
     0
 42
0.000000001
 43
0.00000001
 40
0.0
 40
0.0
 40
0.0
 40
0.0
 40
0.1250000000000002
 40
0.1250000000000002
 40
0.2500000000000004
 40
0.2500000000000004
 40
0.3750000000000007
 40
0.3750000000000007
 40
0.5000000000000009
 40
0.5000000000000009
 40
0.7500000000000006
 40
0.7500000000000006
 40
0.8750000000000003
 40
0.8750000000000003
 40
1.0
 40
1.0
 40
1.0
 40
1.0
 10
55.8334721211152
 20
-20.62128664261302
 30
0.0
 10
55.44589982392837
 20
-21.23166217719222
 30
0.0
 10
55.01371279445498
 20
-21.8163379782058
 30
0.0
 10
54.06049102708523
 20
-22.93451001874376
 30
0.0
 10
53.53723809682045
 20
-23.46920545445471
 30
0.0
 10
52.4266422139775
 20
-24.46202454091451
 30
0.0
 10
51.8368219008691
 20
-24.92355790297196
 30
0.0
 10
50.58875518102052
 20
-25.77749725484063
 30
0.0
 10
49.92943637411287
 20
-26.17046759425068
 30
0.0
 10
47.85093631468853
 20
-27.2376363490473
 30
0.0
 10
46.38704539623242
 20
-27.774942553809
 30
0.0
 10
44.07660754646997
 20
-28.32578061915829
 30
0.0
 10
43.28331117072358
 20
-28.46633337986337
 30
0.0
 10
41.6928720458439
 20
-28.65248101046978
 30
0.0
 10
40.89224569153558
 20
-28.69933774108335
 30
0.0
 10
40.08613771518714
 20
-28.69933774108335
 30
0.0
  0
SPLINE
  5
102
330
1F
100
AcDbEntity
  8
0
  6
Continuous
 62
     7
370
    25
100
AcDbSpline
210
0.0
220
0.0
230
1.0
 70
     8
 71
     3
 72
    20
 73
    16
 74
     0
 42
0.000000001
 43
0.00000001
 40
0.0
 40
0.0
 40
0.0
 40
0.0
 40
0.2500000000000002
 40
0.2500000000000002
 40
0.3750000000000002
 40
0.3750000000000002
 40
0.5000000000000002
 40
0.5000000000000002
 40
0.6250000000000002
 40
0.6250000000000002
 40
0.7500000000000001
 40
0.7500000000000001
 40
0.8750000000000001
 40
0.8750000000000001
 40
1.0
 40
1.0
 40
1.0
 40
1.0
 10
40.08613771518713
 20
-31.69933774108338
 30
0.0
 10
41.70006610241934
 20
-31.69933774108338
 30
0.0
 10
43.27753804489969
 20
-31.51401433647897
 30
0.0
 10
45.59061257172619
 20
-30.96592993096062
 30
0.0
 10
46.35716368949085
 20
-30.73545216930927
 30
0.0
 10
47.82987025061941
 20
-30.19425207474701
 30
0.0
 10
48.54027979135223
 20
-29.88310697415201
 30
0.0
 10
49.91003665362953
 20
-29.18101638902478
 30
0.0
 10
50.56938857430359
 20
-28.79007809204359
 30
0.0
 10
51.83510461313249
 20
-27.92539179939922
 30
0.0
 10
52.43200339200162
 20
-27.45790113076637
 30
0.0
 10
53.54877911160136
 20
-26.45820891822903
 30
0.0
 10
54.07203392132922
 20
-25.92201373934593
 30
0.0
 10
55.02153572901985
 20
-24.80609576824543
 30
0.0
 10
55.45011946118326
 20
-24.22501680195825
 30
0.0
 10
55.83347212111521
 20
-23.62128664261321
 30
0.0
  0
SPLINE
  5
103
330
1F
100
AcDbEntity
  8
0
  6
Continuous
 62
     7
370
    25
100
AcDbSpline
210
0.0
220
0.0
230
1.0
 70
     8
 71
     3
 72
    20
 73
    16
 74
     0
 42
0.000000001
 43
0.00000001
 40
0.0
 40
0.0
 40
0.0
 40
0.0
 40
0.2499999999999999
 40
0.2499999999999999
 40
0.3749999999999999
 40
0.3749999999999999
 40
0.5
 40
0.5
 40
0.6250000000000001
 40
0.6250000000000001
 40
0.75
 40
0.75
 40
0.875
 40
0.875
 40
1.0
 40
1.0
 40
1.0
 40
1.0
 10
40.08613771518713
 20
28.69933774108321
 30
0.0
 10
41.70006610241935
 20
28.69933774108321
 30
0.0
 10
43.27753804489969
 20
28.51401433647881
 30
0.0
 10
45.59061257172619
 20
27.96592993096045
 30
0.0
 10
46.35716368949083
 20
27.73545216930909
 30
0.0
 10
47.82987025061939
 20
27.19425207474683
 30
0.0
 10
48.54027979135222
 20
26.88310697415184
 30
0.0
 10
49.91003665362952
 20
26.1810163890246
 30
0.0
 10
50.56938857430357
 20
25.79007809204342
 30
0.0
 10
51.83510461313251
 20
24.92539179939904
 30
0.0
 10
52.43200339200161
 20
24.4579011307662
 30
0.0
 10
53.54877911160136
 20
23.45820891822886
 30
0.0
 10
54.07203392132921
 20
22.92201373934577
 30
0.0
 10
55.02153572901985
 20
21.80609576824525
 30
0.0
 10
55.45011946118326
 20
21.22501680195807
 30
0.0
 10
55.83347212111521
 20
20.62128664261303
 30
0.0
  0
SPLINE
  5
104
330
1F
100
AcDbEntity
  8
0
  6
Continuous
 62
     7
370
    25
100
AcDbSpline
210
0.0
220
0.0
230
1.0
 70
     8
 71
     3
 72
    20
 73
    16
 74
     0
 42
0.000000001
 43
0.00000001
 40
0.0
 40
0.0
 40
0.0
 40
0.0
 40
0.1249999999999998
 40
0.1249999999999998
 40
0.2499999999999995
 40
0.2499999999999995
 40
0.3749999999999992
 40
0.3749999999999992
 40
0.499999999999999
 40
0.499999999999999
 40
0.7499999999999996
 40
0.7499999999999996
 40
0.8749999999999998
 40
0.8749999999999998
 40
1.0
 40
1.0
 40
1.0
 40
1.0
 10
55.83347212111521
 20
23.62128664261325
 30
0.0
 10
55.44589982392837
 20
24.23166217719244
 30
0.0
 10
55.01371279445498
 20
24.81633797820602
 30
0.0
 10
54.06049102708524
 20
25.93451001874396
 30
0.0
 10
53.53723809682045
 20
26.46920545445491
 30
0.0
 10
52.42664221397751
 20
27.4620245409147
 30
0.0
 10
51.83682190086911
 20
27.92355790297213
 30
0.0
 10
50.58875518102052
 20
28.77749725484077
 30
0.0
 10
49.92943637411287
 20
29.17046759425082
 30
0.0
 10
47.85093631468853
 20
30.23763634904742
 30
0.0
 10
46.38704539623242
 20
30.77494255380912
 30
0.0
 10
44.07660754647001
 20
31.32578061915842
 30
0.0
 10
43.28331117072361
 20
31.46633337986349
 30
0.0
 10
41.69287204584389
 20
31.6524810104699
 30
0.0
 10
40.89224569153559
 20
31.69933774108346
 30
0.0
 10
40.08613771518714
 20
31.69933774108346
 30
0.0
  0
SPLINE
  5
105
330
1F
100
AcDbEntity
  8
0
  6
Continuous
 62
     7
370
    25
100
AcDbSpline
210
0.0
220
0.0
230
1.0
 70
     8
 71
     3
 72
    32
 73
    28
 74
     0
 42
0.000000001
 43
0.00000001
 40
0.0
 40
0.0
 40
0.0
 40
0.0
 40
0.0061419375437862
 40
0.0481668797751649
 40
0.0908719213753904
 40
0.1338895122908743
 40
0.1768356689894728
 40
0.2193301950076513
 40
0.2610688838880534
 40
0.3031561423242004
 40
0.3458972572646267
 40
0.3889227999585296
 40
0.4318483641672789
 40
0.4742948417000444
 40
0.5160012834871479
 40
0.5581490074005008
 40
0.6009241601559072
 40
0.6439555360189778
 40
0.6868584185212459
 40
0.7292548963791976
 40
0.7709390076044931
 40
0.8131453295376377
 40
0.8559524747267723
 40
0.8989875634285593
 40
0.9418656816474928
 40
0.9842102227792734
 40
1.0
 40
1.0
 40
1.0
 40
1.0
 10
-13.20206822248961
 20
-19.42931609329098
 30
0.0
 10
-13.20062070755688
 20
-19.43594215719428
 30
0.0
 10
-13.18926886992573
 20
-19.48790569820029
 30
0.0
 10
-13.16769804323804
 20
-19.26476802791437
 30
0.0
 10
-13.13604962048504
 20
-18.7335140168445
 30
0.0
 10
-13.10377473312174
 20
-17.8313005569791
 30
0.0
 10
-13.07168033281688
 20
-16.62064183598646
 30
0.0
 10
-13.04042679433587
 20
-15.12748613452198
 30
0.0
 10
-13.01115718669365
 20
-13.38472556109112
 30
0.0
 10
-12.9808942753292
 20
-11.4084404314867
 30
0.0
 10
-12.94919997674097
 20
-9.211605823393796
 30
0.0
 10
-12.91689823593353
 20
-6.835683030444414
 30
0.0
 10
-12.88485101972767
 20
-4.343144450994745
 30
0.0
 10
-12.8536985068072
 20
-1.800140578316712
 30
0.0
 10
-12.82452265773502
 20
0.7579247645820079
 30
0.0
 10
-12.79409728038182
 20
3.309829455595322
 30
0.0
 10
-12.76234268208512
 20
5.830490191151468
 30
0.0
 10
-12.7300245310663
 20
8.261911850143132
 30
0.0
 10
-12.69802555286468
 20
10.53865001970017
 30
0.0
 10
-12.66698394437659
 20
12.60657732983509
 30
0.0
 10
-12.63787307360253
 20
14.4461435810378
 30
0.0
 10
-12.60729415599674
 20
16.04375750443567
 30
0.0
 10
-12.57548238238484
 20
17.37429785480166
 30
0.0
 10
-12.54315017884221
 20
18.40704845636935
 30
0.0
 10
-12.51121502442779
 20
19.08582705797498
 30
0.0
 10
-12.48656170885174
 20
19.41853869857939
 30
0.0
 10
-12.47298668531627
 20
19.40885388345754
 30
0.0
 10
-12.46929959301923
 20
19.4062234049806
 30
0.0
  0
SPLINE
  5
106
330
1F
100
AcDbEntity
  8
0
  6
Continuous
 62
     7
370
    25
100
AcDbSpline
210
0.0
220
0.0
230
1.0
 70
     8
 71
     3
 72
    32
 73
    28
 74
     0
 42
0.000000001
 43
0.00000001
 40
0.0
 40
0.0
 40
0.0
 40
0.0
 40
0.0061419375437862
 40
0.0481668797751648
 40
0.0908719213753903
 40
0.1338895122908743
 40
0.1768356689894727
 40
0.2193301950076512
 40
0.2610688838880533
 40
0.3031561423242004
 40
0.3458972572646266
 40
0.3889227999585295
 40
0.4318483641672788
 40
0.4742948417000443
 40
0.5160012834871477
 40
0.5581490074005007
 40
0.6009241601559071
 40
0.6439555360189777
 40
0.6868584185212457
 40
0.7292548963791975
 40
0.770939007604493
 40
0.8131453295376376
 40
0.855952474726772
 40
0.8989875634285591
 40
0.9418656816474926
 40
0.9842102227792732
 40
1.0
 40
1.0
 40
1.0
 40
1.0
 10
-11.72623488915628
 20
-19.42931609329099
 30
0.0
 10
-11.72478737422354
 20
-19.43594215719429
 30
0.0
 10
-11.7134355365924
 20
-19.48790569820028
 30
0.0
 10
-11.69186470990471
 20
-19.26476802791437
 30
0.0
 10
-11.6602162871517
 20
-18.7335140168445
 30
0.0
 10
-11.62794139978841
 20
-17.8313005569791
 30
0.0
 10
-11.59584699948354
 20
-16.62064183598646
 30
0.0
 10
-11.56459346100254
 20
-15.12748613452198
 30
0.0
 10
-11.53532385336031
 20
-13.38472556109112
 30
0.0
 10
-11.50506094199587
 20
-11.4084404314867
 30
0.0
 10
-11.47336664340763
 20
-9.211605823393796
 30
0.0
 10
-11.4410649026002
 20
-6.835683030444416
 30
0.0
 10
-11.40901768639434
 20
-4.343144450994743
 30
0.0
 10
-11.37786517347388
 20
-1.80014057831672
 30
0.0
 10
-11.34868932440168
 20
0.7579247645820198
 30
0.0
 10
-11.31826394704849
 20
3.309829455595316
 30
0.0
 10
-11.28650934875179
 20
5.83049019115147
 30
0.0
 10
-11.25419119773296
 20
8.261911850143132
 30
0.0
 10
-11.22219221953134
 20
10.53865001970017
 30
0.0
 10
-11.19115061104326
 20
12.60657732983509
 30
0.0
 10
-11.1620397402692
 20
14.44614358103781
 30
0.0
 10
-11.1314608226634
 20
16.04375750443567
 30
0.0
 10
-11.09964904905152
 20
17.37429785480167
 30
0.0
 10
-11.06731684550888
 20
18.40704845636935
 30
0.0
 10
-11.03538169109446
 20
19.08582705797498
 30
0.0
 10
-11.01072837551841
 20
19.41853869857938
 30
0.0
 10
-10.99715335198293
 20
19.40885388345754
 30
0.0
 10
-10.99346625968589
 20
19.4062234049806
 30
0.0
  0
SPLINE
  5
107
330
1F
100
AcDbEntity
  8
0
  6
Continuous
 62
     7
370
    25
100
AcDbSpline
210
0.0
220
0.0
230
1.0
 70
     8
 71
     3
 72
    32
 73
    28
 74
     0
 42
0.000000001
 43
0.00000001
 40
0.0
 40
0.0
 40
0.0
 40
0.0
 40
0.0061419375437861
 40
0.0481668797751648
 40
0.0908719213753903
 40
0.1338895122908742
 40
0.1768356689894726
 40
0.2193301950076512
 40
0.2610688838880533
 40
0.3031561423242003
 40
0.3458972572646266
 40
0.3889227999585295
 40
0.4318483641672788
 40
0.4742948417000443
 40
0.5160012834871477
 40
0.5581490074005007
 40
0.6009241601559071
 40
0.6439555360189777
 40
0.6868584185212457
 40
0.7292548963791975
 40
0.770939007604493
 40
0.8131453295376376
 40
0.855952474726772
 40
0.8989875634285591
 40
0.9418656816474926
 40
0.9842102227792732
 40
1.0
 40
1.0
 40
1.0
 40
1.0
 10
-10.25040155582294
 20
-19.42931609329098
 30
0.0
 10
-10.24895404089021
 20
-19.43594215719429
 30
0.0
 10
-10.23760220325907
 20
-19.4879056982003
 30
0.0
 10
-10.21603137657137
 20
-19.26476802791437
 30
0.0
 10
-10.18438295381836
 20
-18.7335140168445
 30
0.0
 10
-10.15210806645507
 20
-17.8313005569791
 30
0.0
 10
-10.12001366615022
 20
-16.62064183598646
 30
0.0
 10
-10.0887601276692
 20
-15.12748613452198
 30
0.0
 10
-10.05949052002698
 20
-13.38472556109112
 30
0.0
 10
-10.02922760866254
 20
-11.4084404314867
 30
0.0
 10
-9.997533310074303
 20
-9.211605823393796
 30
0.0
 10
-9.96523156926686
 20
-6.835683030444416
 30
0.0
 10
-9.933184353061002
 20
-4.343144450994744
 30
0.0
 10
-9.90203184014054
 20
-1.800140578316717
 30
0.0
 10
-9.872855991068352
 20
0.7579247645820173
 30
0.0
 10
-9.842430613715148
 20
3.309829455595316
 30
0.0
 10
-9.810676015418455
 20
5.83049019115147
 30
0.0
 10
-9.778357864399629
 20
8.261911850143132
 30
0.0
 10
-9.746358886198013
 20
10.53865001970017
 30
0.0
 10
-9.715317277709925
 20
12.60657732983509
 30
0.0
 10
-9.68620640693587
 20
14.44614358103781
 30
0.0
 10
-9.655627489330069
 20
16.04375750443567
 30
0.0
 10
-9.62381571571818
 20
17.37429785480167
 30
0.0
 10
-9.59148351217555
 20
18.40704845636935
 30
0.0
 10
-9.55954835776112
 20
19.08582705797498
 30
0.0
 10
-9.53489504218507
 20
19.41853869857938
 30
0.0
 10
-9.521320018649595
 20
19.40885388345754
 30
0.0
 10
-9.517632926352562
 20
19.4062234049806
 30
0.0
  0
SPLINE
  5
108
330
1F
100
AcDbEntity
  8
0
  6
Continuous
 62
     7
370
    25
100
AcDbSpline
210
0.0
220
0.0
230
1.0
 70
     8
 71
     3
 72
    32
 73
    28
 74
     0
 42
0.000000001
 43
0.00000001
 40
0.0
 40
0.0
 40
0.0
 40
0.0
 40
0.0061419375437861
 40
0.0481668797751647
 40
0.0908719213753902
 40
0.1338895122908741
 40
0.1768356689894725
 40
0.219330195007651
 40
0.2610688838880531
 40
0.3031561423242001
 40
0.3458972572646263
 40
0.3889227999585292
 40
0.4318483641672785
 40
0.474294841700044
 40
0.5160012834871474
 40
0.5581490074005003
 40
0.6009241601559068
 40
0.6439555360189773
 40
0.6868584185212453
 40
0.729254896379197
 40
0.7709390076044925
 40
0.8131453295376371
 40
0.8559524747267715
 40
0.8989875634285585
 40
0.9418656816474921
 40
0.9842102227792726
 40
1.0
 40
1.0
 40
1.0
 40
1.0
 10
-8.774568222489606
 20
-19.42931609329098
 30
0.0
 10
-8.773120707556876
 20
-19.43594215719428
 30
0.0
 10
-8.761768869925739
 20
-19.4879056982003
 30
0.0
 10
-8.740198043238037
 20
-19.26476802791435
 30
0.0
 10
-8.708549620485034
 20
-18.73351401684451
 30
0.0
 10
-8.676274733121742
 20
-17.8313005569791
 30
0.0
 10
-8.644180332816887
 20
-16.62064183598647
 30
0.0
 10
-8.612926794335868
 20
-15.12748613452198
 30
0.0
 10
-8.583657186693648
 20
-13.38472556109112
 30
0.0
 10
-8.55339427532921
 20
-11.4084404314867
 30
0.0
 10
-8.521699976740967
 20
-9.211605823393798
 30
0.0
 10
-8.489398235933532
 20
-6.835683030444414
 30
0.0
 10
-8.457351019727666
 20
-4.343144450994743
 30
0.0
 10
-8.42619850680721
 20
-1.80014057831672
 30
0.0
 10
-8.397022657735024
 20
0.7579247645820195
 30
0.0
 10
-8.366597280381818
 20
3.309829455595317
 30
0.0
 10
-8.33484268208512
 20
5.830490191151464
 30
0.0
 10
-8.3025245310663
 20
8.261911850143138
 30
0.0
 10
-8.270525552864678
 20
10.53865001970017
 30
0.0
 10
-8.23948394437659
 20
12.60657732983509
 30
0.0
 10
-8.210373073602534
 20
14.44614358103781
 30
0.0
 10
-8.179794155996733
 20
16.04375750443567
 30
0.0
 10
-8.147982382384852
 20
17.37429785480166
 30
0.0
 10
-8.115650178842214
 20
18.40704845636935
 30
0.0
 10
-8.083715024427791
 20
19.08582705797499
 30
0.0
 10
-8.05906170885174
 20
19.41853869857939
 30
0.0
 10
-8.045486685316266
 20
19.40885388345754
 30
0.0
 10
-8.041799593019226
 20
19.4062234049806
 30
0.0
  0
SPLINE
  5
109
330
1F
100
AcDbEntity
  8
0
  6
Continuous
 62
     7
370
    25
100
AcDbSpline
210
0.0
220
0.0
230
1.0
 70
     8
 71
     3
 72
    32
 73
    28
 74
     0
 42
0.000000001
 43
0.00000001
 40
0.0
 40
0.0
 40
0.0
 40
0.0
 40
0.0061419375437861
 40
0.0481668797751648
 40
0.0908719213753903
 40
0.1338895122908742
 40
0.1768356689894726
 40
0.2193301950076512
 40
0.2610688838880533
 40
0.3031561423242003
 40
0.3458972572646266
 40
0.3889227999585295
 40
0.4318483641672788
 40
0.4742948417000443
 40
0.5160012834871477
 40
0.5581490074005007
 40
0.6009241601559071
 40
0.6439555360189777
 40
0.6868584185212457
 40
0.7292548963791975
 40
0.770939007604493
 40
0.8131453295376376
 40
0.855952474726772
 40
0.8989875634285591
 40
0.9418656816474926
 40
0.9842102227792732
 40
1.0
 40
1.0
 40
1.0
 40
1.0
 10
-7.298734889156277
 20
-19.42931609329098
 30
0.0
 10
-7.297287374223547
 20
-19.43594215719429
 30
0.0
 10
-7.285935536592396
 20
-19.4879056982003
 30
0.0
 10
-7.264364709904713
 20
-19.26476802791437
 30
0.0
 10
-7.232716287151699
 20
-18.7335140168445
 30
0.0
 10
-7.200441399788406
 20
-17.8313005569791
 30
0.0
 10
-7.168346999483551
 20
-16.62064183598646
 30
0.0
 10
-7.137093461002538
 20
-15.12748613452198
 30
0.0
 10
-7.107823853360312
 20
-13.38472556109112
 30
0.0
 10
-7.077560941995873
 20
-11.4084404314867
 30
0.0
 10
-7.04586664340763
 20
-9.211605823393796
 30
0.0
 10
-7.013564902600196
 20
-6.835683030444416
 30
0.0
 10
-6.981517686394337
 20
-4.343144450994744
 30
0.0
 10
-6.950365173473874
 20
-1.800140578316717
 30
0.0
 10
-6.921189324401687
 20
0.7579247645820173
 30
0.0
 10
-6.890763947048482
 20
3.309829455595316
 30
0.0
 10
-6.85900934875179
 20
5.83049019115147
 30
0.0
 10
-6.826691197732965
 20
8.261911850143132
 30
0.0
 10
-6.794692219531349
 20
10.53865001970017
 30
0.0
 10
-6.763650611043253
 20
12.60657732983509
 30
0.0
 10
-6.734539740269205
 20
14.44614358103781
 30
0.0
 10
-6.703960822663397
 20
16.04375750443567
 30
0.0
 10
-6.672149049051515
 20
17.37429785480167
 30
0.0
 10
-6.639816845508878
 20
18.40704845636935
 30
0.0
 10
-6.607881691094455
 20
19.08582705797498
 30
0.0
 10
-6.583228375518405
 20
19.41853869857938
 30
0.0
 10
-6.569653351982938
 20
19.40885388345754
 30
0.0
 10
-6.56596625968589
 20
19.4062234049806
 30
0.0
  0
SPLINE
  5
10A
330
1F
100
AcDbEntity
  8
0
  6
Continuous
 62
     7
370
    25
100
AcDbSpline
210
0.0
220
0.0
230
1.0
 70
     8
 71
     3
 72
    32
 73
    28
 74
     0
 42
0.000000001
 43
0.00000001
 40
0.0
 40
0.0
 40
0.0
 40
0.0
 40
0.0061419375437861
 40
0.0481668797751648
 40
0.0908719213753904
 40
0.1338895122908744
 40
0.1768356689894729
 40
0.2193301950076515
 40
0.2610688838880537
 40
0.3031561423242007
 40
0.3458972572646271
 40
0.3889227999585301
 40
0.4318483641672795
 40
0.474294841700045
 40
0.5160012834871485
 40
0.5581490074005014
 40
0.600924160155908
 40
0.6439555360189786
 40
0.6868584185212468
 40
0.7292548963791986
 40
0.7709390076044942
 40
0.8131453295376389
 40
0.8559524747267733
 40
0.8989875634285605
 40
0.9418656816474941
 40
0.9842102227792747
 40
1.0
 40
1.0
 40
1.0
 40
1.0
 10
-5.822901555822941
 20
-19.42931609329098
 30
0.0
 10
-5.821454040890211
 20
-19.43594215719428
 30
0.0
 10
-5.81010220325906
 20
-19.48790569820028
 30
0.0
 10
-5.788531376571378
 20
-19.26476802791437
 30
0.0
 10
-5.756882953818362
 20
-18.7335140168445
 30
0.0
 10
-5.724608066455077
 20
-17.8313005569791
 30
0.0
 10
-5.692513666150215
 20
-16.62064183598645
 30
0.0
 10
-5.66126012766921
 20
-15.12748613452198
 30
0.0
 10
-5.631990520026976
 20
-13.38472556109111
 30
0.0
 10
-5.601727608662538
 20
-11.4084404314867
 30
0.0
 10
-5.570033310074302
 20
-9.211605823393793
 30
0.0
 10
-5.537731569266866
 20
-6.835683030444419
 30
0.0
 10
-5.505684353061
 20
-4.343144450994743
 30
0.0
 10
-5.474531840140545
 20
-1.800140578316717
 30
0.0
 10
-5.445355991068351
 20
0.7579247645820149
 30
0.0
 10
-5.414930613715153
 20
3.309829455595321
 30
0.0
 10
-5.383176015418455
 20
5.830490191151465
 30
0.0
 10
-5.350857864399629
 20
8.261911850143143
 30
0.0
 10
-5.318858886198013
 20
10.53865001970016
 30
0.0
 10
-5.287817277709925
 20
12.6065773298351
 30
0.0
 10
-5.258706406935869
 20
14.4461435810378
 30
0.0
 10
-5.228127489330069
 20
16.04375750443567
 30
0.0
 10
-5.196315715718179
 20
17.37429785480166
 30
0.0
 10
-5.163983512175549
 20
18.40704845636935
 30
0.0
 10
-5.13204835776112
 20
19.08582705797498
 30
0.0
 10
-5.107395042185075
 20
19.41853869857938
 30
0.0
 10
-5.093820018649602
 20
19.40885388345754
 30
0.0
 10
-5.090132926352561
 20
19.4062234049806
 30
0.0
  0
SPLINE
  5
10B
330
1F
100
AcDbEntity
  8
0
  6
Continuous
 62
     7
370
    25
100
AcDbSpline
210
0.0
220
0.0
230
1.0
 70
     8
 71
     3
 72
    32
 73
    28
 74
     0
 42
0.000000001
 43
0.00000001
 40
0.0
 40
0.0
 40
0.0
 40
0.0
 40
0.0061419375437846
 40
0.0481668797751634
 40
0.090871921375389
 40
0.1338895122908731
 40
0.1768356689894717
 40
0.2193301950076503
 40
0.2610688838880525
 40
0.3031561423241997
 40
0.3458972572646261
 40
0.3889227999585292
 40
0.4318483641672786
 40
0.4742948417000443
 40
0.5160012834871478
 40
0.5581490074005009
 40
0.6009241601559074
 40
0.6439555360189781
 40
0.6868584185212464
 40
0.7292548963791983
 40
0.7709390076044939
 40
0.8131453295376386
 40
0.8559524747267732
 40
0.8989875634285603
 40
0.9418656816474941
 40
0.9842102227792747
 40
1.0
 40
1.0
 40
1.0
 40
1.0
 10
-4.347068222489613
 20
-19.42931609329099
 30
0.0
 10
-4.345620707556876
 20
-19.43594215719429
 30
0.0
 10
-4.334268869925731
 20
-19.48790569820028
 30
0.0
 10
-4.312698043238042
 20
-19.26476802791436
 30
0.0
 10
-4.281049620485033
 20
-18.73351401684451
 30
0.0
 10
-4.24877473312174
 20
-17.8313005569791
 30
0.0
 10
-4.216680332816885
 20
-16.62064183598646
 30
0.0
 10
-4.185426794335874
 20
-15.12748613452198
 30
0.0
 10
-4.15615718669364
 20
-13.38472556109111
 30
0.0
 10
-4.125894275329209
 20
-11.4084404314867
 30
0.0
 10
-4.094199976740966
 20
-9.211605823393793
 30
0.0
 10
-4.061898235933531
 20
-6.835683030444419
 30
0.0
 10
-4.029851019727672
 20
-4.343144450994742
 30
0.0
 10
-3.998698506807209
 20
-1.800140578316719
 30
0.0
 10
-3.969522657735022
 20
0.7579247645820173
 30
0.0
 10
-3.939097280381818
 20
3.309829455595316
 30
0.0
 10
-3.907342682085119
 20
5.830490191151468
 30
0.0
 10
-3.8750245310663
 20
8.261911850143136
 30
0.0
 10
-3.843025552864685
 20
10.53865001970016
 30
0.0
 10
-3.811983944376589
 20
12.60657732983509
 30
0.0
 10
-3.782873073602533
 20
14.44614358103781
 30
0.0
 10
-3.75229415599674
 20
16.04375750443567
 30
0.0
 10
-3.72048238238485
 20
17.37429785480166
 30
0.0
 10
-3.68815017884222
 20
18.40704845636935
 30
0.0
 10
-3.65621502442779
 20
19.08582705797498
 30
0.0
 10
-3.63156170885174
 20
19.41853869857938
 30
0.0
 10
-3.617986685316266
 20
19.40885388345754
 30
0.0
 10
-3.614299593019225
 20
19.4062234049806
 30
0.0
  0
SPLINE
  5
10C
330
1F
100
AcDbEntity
  8
0
  6
Continuous
 62
     7
370
    25
100
AcDbSpline
210
0.0
220
0.0
230
1.0
 70
     8
 71
     3
 72
    32
 73
    28
 74
     0
 42
0.000000001
 43
0.00000001
 40
0.0
 40
0.0
 40
0.0
 40
0.0
 40
0.0061419375437844
 40
0.0481668797751631
 40
0.0908719213753887
 40
0.1338895122908727
 40
0.1768356689894713
 40
0.2193301950076499
 40
0.2610688838880521
 40
0.3031561423241992
 40
0.3458972572646256
 40
0.3889227999585286
 40
0.431848364167278
 40
0.4742948417000437
 40
0.5160012834871471
 40
0.5581490074005001
 40
0.6009241601559067
 40
0.6439555360189774
 40
0.6868584185212456
 40
0.7292548963791974
 40
0.770939007604493
 40
0.8131453295376377
 40
0.8559524747267722
 40
0.8989875634285593
 40
0.9418656816474931
 40
0.9842102227792737
 40
1.0
 40
1.0
 40
1.0
 40
1.0
 10
-2.871234889156277
 20
-19.42931609329099
 30
0.0
 10
-2.86978737422354
 20
-19.43594215719429
 30
0.0
 10
-2.858435536592402
 20
-19.4879056982003
 30
0.0
 10
-2.836864709904713
 20
-19.26476802791437
 30
0.0
 10
-2.805216287151698
 20
-18.73351401684449
 30
0.0
 10
-2.772941399788412
 20
-17.8313005569791
 30
0.0
 10
-2.74084699948355
 20
-16.62064183598646
 30
0.0
 10
-2.709593461002538
 20
-15.12748613452198
 30
0.0
 10
-2.680323853360311
 20
-13.38472556109112
 30
0.0
 10
-2.650060941995873
 20
-11.40844043148671
 30
0.0
 10
-2.61836664340763
 20
-9.211605823393793
 30
0.0
 10
-2.586064902600195
 20
-6.835683030444421
 30
0.0
 10
-2.554017686394336
 20
-4.343144450994738
 30
0.0
 10
-2.522865173473873
 20
-1.800140578316722
 30
0.0
 10
-2.493689324401686
 20
0.757924764582016
 30
0.0
 10
-2.463263947048481
 20
3.309829455595319
 30
0.0
 10
-2.43150934875179
 20
5.830490191151468
 30
0.0
 10
-2.399191197732964
 20
8.261911850143136
 30
0.0
 10
-2.367192219531348
 20
10.53865001970015
 30
0.0
 10
-2.33615061104326
 20
12.60657732983509
 30
0.0
 10
-2.307039740269204
 20
14.44614358103781
 30
0.0
 10
-2.276460822663404
 20
16.04375750443567
 30
0.0
 10
-2.244649049051514
 20
17.37429785480166
 30
0.0
 10
-2.212316845508884
 20
18.40704845636935
 30
0.0
 10
-2.180381691094455
 20
19.08582705797498
 30
0.0
 10
-2.155728375518404
 20
19.41853869857938
 30
0.0
 10
-2.142153351982937
 20
19.40885388345754
 30
0.0
 10
-2.138466259685897
 20
19.4062234049806
 30
0.0
  0
SPLINE
  5
10D
330
1F
100
AcDbEntity
  8
0
  6
Continuous
 62
     7
370
    25
100
AcDbSpline
210
0.0
220
0.0
230
1.0
 70
     8
 71
     3
 72
    32
 73
    28
 74
     0
 42
0.000000001
 43
0.00000001
 40
0.0
 40
0.0
 40
0.0
 40
0.0
 40
0.0061419375437844
 40
0.0481668797751631
 40
0.0908719213753887
 40
0.1338895122908727
 40
0.1768356689894713
 40
0.2193301950076499
 40
0.2610688838880521
 40
0.3031561423241992
 40
0.3458972572646256
 40
0.3889227999585286
 40
0.431848364167278
 40
0.4742948417000437
 40
0.5160012834871471
 40
0.5581490074005001
 40
0.6009241601559067
 40
0.6439555360189774
 40
0.6868584185212456
 40
0.7292548963791974
 40
0.770939007604493
 40
0.8131453295376377
 40
0.8559524747267722
 40
0.8989875634285593
 40
0.9418656816474931
 40
0.9842102227792737
 40
1.0
 40
1.0
 40
1.0
 40
1.0
 10
-1.395401555822941
 20
-19.42931609329099
 30
0.0
 10
-1.393954040890211
 20
-19.43594215719429
 30
0.0
 10
-1.382602203259066
 20
-19.4879056982003
 30
0.0
 10
-1.361031376571377
 20
-19.26476802791437
 30
0.0
 10
-1.329382953818361
 20
-18.73351401684449
 30
0.0
 10
-1.297108066455076
 20
-17.8313005569791
 30
0.0
 10
-1.265013666150214
 20
-16.62064183598646
 30
0.0
 10
-1.233760127669209
 20
-15.12748613452198
 30
0.0
 10
-1.204490520026975
 20
-13.38472556109112
 30
0.0
 10
-1.174227608662544
 20
-11.40844043148671
 30
0.0
 10
-1.142533310074301
 20
-9.211605823393793
 30
0.0
 10
-1.110231569266866
 20
-6.835683030444421
 30
0.0
 10
-1.078184353061
 20
-4.343144450994738
 30
0.0
 10
-1.047031840140544
 20
-1.800140578316722
 30
0.0
 10
-1.017855991068357
 20
0.757924764582016
 30
0.0
 10
-0.9874306137151525
 20
3.309829455595319
 30
0.0
 10
-0.9556760154184538
 20
5.830490191151468
 30
0.0
 10
-0.9233578643996349
 20
8.261911850143136
 30
0.0
 10
-0.8913588861980126
 20
10.53865001970015
 30
0.0
 10
-0.8603172777099238
 20
12.60657732983509
 30
0.0
 10
-0.831206406935868
 20
14.44614358103781
 30
0.0
 10
-0.8006274893300678
 20
16.04375750443567
 30
0.0
 10
-0.7688157157181852
 20
17.37429785480166
 30
0.0
 10
-0.7364835121755481
 20
18.40704845636935
 30
0.0
 10
-0.7045483577611187
 20
19.08582705797498
 30
0.0
 10
-0.6798950421850747
 20
19.41853869857938
 30
0.0
 10
-0.6663200186496008
 20
19.40885388345754
 30
0.0
 10
-0.6626329263525604
 20
19.4062234049806
 30
0.0
  0
SPLINE
  5
10E
330
1F
100
AcDbEntity
  8
0
  6
Continuous
 62
     7
370
    25
100
AcDbSpline
210
0.0
220
0.0
230
1.0
 70
     8
 71
     3
 72
    32
 73
    28
 74
     0
 42
0.000000001
 43
0.00000001
 40
0.0
 40
0.0
 40
0.0
 40
0.0
 40
0.0061419375437844
 40
0.0481668797751631
 40
0.0908719213753887
 40
0.1338895122908727
 40
0.1768356689894713
 40
0.2193301950076499
 40
0.2610688838880521
 40
0.3031561423241992
 40
0.3458972572646256
 40
0.3889227999585286
 40
0.431848364167278
 40
0.4742948417000437
 40
0.5160012834871471
 40
0.5581490074005001
 40
0.6009241601559067
 40
0.6439555360189774
 40
0.6868584185212456
 40
0.7292548963791974
 40
0.770939007604493
 40
0.8131453295376377
 40
0.8559524747267722
 40
0.8989875634285593
 40
0.9418656816474931
 40
0.9842102227792737
 40
1.0
 40
1.0
 40
1.0
 40
1.0
 10
0.0804317775103883
 20
-19.42931609329099
 30
0.0
 10
0.0818792924431253
 20
-19.43594215719429
 30
0.0
 10
0.09323113007427
 20
-19.4879056982003
 30
0.0
 10
0.1148019567619521
 20
-19.26476802791437
 30
0.0
 10
0.1464503795149674
 20
-18.73351401684449
 30
0.0
 10
0.1787252668782602
 20
-17.8313005569791
 30
0.0
 10
0.2108196671831153
 20
-16.62064183598646
 30
0.0
 10
0.242073205664127
 20
-15.12748613452198
 30
0.0
 10
0.2713428133063536
 20
-13.38472556109112
 30
0.0
 10
0.3016057246707921
 20
-11.40844043148671
 30
0.0
 10
0.3333000232590352
 20
-9.211605823393793
 30
0.0
 10
0.3656017640664699
 20
-6.835683030444421
 30
0.0
 10
0.397648980272329
 20
-4.343144450994738
 30
0.0
 10
0.4288014931927916
 20
-1.800140578316722
 30
0.0
 10
0.4579773422649785
 20
0.757924764582016
 30
0.0
 10
0.4884027196181834
 20
3.309829455595319
 30
0.0
 10
0.5201573179148753
 20
5.830490191151468
 30
0.0
 10
0.552475468933701
 20
8.261911850143136
 30
0.0
 10
0.5844744471353164
 20
10.53865001970015
 30
0.0
 10
0.6155160556234052
 20
12.60657732983509
 30
0.0
 10
0.6446269263974611
 20
14.44614358103781
 30
0.0
 10
0.6752058440032613
 20
16.04375750443567
 30
0.0
 10
0.7070176176151508
 20
17.37429785480166
 30
0.0
 10
0.7393498211577809
 20
18.40704845636935
 30
0.0
 10
0.7712849755722104
 20
19.08582705797498
 30
0.0
 10
0.7959382911482543
 20
19.41853869857938
 30
0.0
 10
0.8095133146837283
 20
19.40885388345754
 30
0.0
 10
0.8132004069807686
 20
19.4062234049806
 30
0.0
  0
SPLINE
  5
10F
330
1F
100
AcDbEntity
  8
0
  6
Continuous
 62
     7
370
    25
100
AcDbSpline
210
0.0
220
0.0
230
1.0
 70
     8
 71
     3
 72
    32
 73
    28
 74
     0
 42
0.000000001
 43
0.00000001
 40
0.0
 40
0.0
 40
0.0
 40
0.0
 40
0.0061419375437844
 40
0.0481668797751631
 40
0.0908719213753887
 40
0.1338895122908727
 40
0.1768356689894713
 40
0.2193301950076499
 40
0.2610688838880521
 40
0.3031561423241992
 40
0.3458972572646256
 40
0.3889227999585286
 40
0.431848364167278
 40
0.4742948417000437
 40
0.5160012834871471
 40
0.5581490074005001
 40
0.6009241601559067
 40
0.6439555360189774
 40
0.6868584185212456
 40
0.7292548963791974
 40
0.770939007604493
 40
0.8131453295376377
 40
0.8559524747267722
 40
0.8989875634285593
 40
0.9418656816474931
 40
0.9842102227792737
 40
1.0
 40
1.0
 40
1.0
 40
1.0
 10
1.556265110843724
 20
-19.42931609329099
 30
0.0
 10
1.557712625776454
 20
-19.43594215719429
 30
0.0
 10
1.569064463407606
 20
-19.4879056982003
 30
0.0
 10
1.590635290095288
 20
-19.26476802791437
 30
0.0
 10
1.622283712848303
 20
-18.73351401684449
 30
0.0
 10
1.654558600211589
 20
-17.8313005569791
 30
0.0
 10
1.686653000516451
 20
-16.62064183598646
 30
0.0
 10
1.717906538997456
 20
-15.12748613452198
 30
0.0
 10
1.74717614663969
 20
-13.38472556109112
 30
0.0
 10
1.777439058004128
 20
-11.40844043148671
 30
0.0
 10
1.809133356592364
 20
-9.211605823393793
 30
0.0
 10
1.841435097399799
 20
-6.835683030444421
 30
0.0
 10
1.873482313605665
 20
-4.343144450994738
 30
0.0
 10
1.904634826526121
 20
-1.800140578316722
 30
0.0
 10
1.933810675598314
 20
0.757924764582016
 30
0.0
 10
1.964236052951512
 20
3.309829455595319
 30
0.0
 10
1.995990651248211
 20
5.830490191151468
 30
0.0
 10
2.028308802267037
 20
8.261911850143136
 30
0.0
 10
2.060307780468652
 20
10.53865001970015
 30
0.0
 10
2.091349388956741
 20
12.60657732983509
 30
0.0
 10
2.120460259730797
 20
14.44614358103781
 30
0.0
 10
2.151039177336597
 20
16.04375750443567
 30
0.0
 10
2.182850950948487
 20
17.37429785480166
 30
0.0
 10
2.215183154491117
 20
18.40704845636935
 30
0.0
 10
2.247118308905546
 20
19.08582705797498
 30
0.0
 10
2.27177162448159
 20
19.41853869857938
 30
0.0
 10
2.285346648017064
 20
19.40885388345754
 30
0.0
 10
2.289033740314105
 20
19.4062234049806
 30
0.0
  0
SPLINE
  5
110
330
1F
100
AcDbEntity
  8
0
  6
Continuous
 62
     7
370
    25
100
AcDbSpline
210
0.0
220
0.0
230
1.0
 70
     8
 71
     3
 72
    32
 73
    28
 74
     0
 42
0.000000001
 43
0.00000001
 40
0.0
 40
0.0
 40
0.0
 40
0.0
 40
0.0061419375437874
 40
0.0481668797751661
 40
0.0908719213753917
 40
0.1338895122908756
 40
0.1768356689894742
 40
0.2193301950076527
 40
0.2610688838880548
 40
0.3031561423242019
 40
0.3458972572646282
 40
0.3889227999585312
 40
0.4318483641672806
 40
0.4742948417000461
 40
0.5160012834871497
 40
0.5581490074005027
 40
0.6009241601559091
 40
0.6439555360189797
 40
0.6868584185212478
 40
0.7292548963791997
 40
0.7709390076044952
 40
0.8131453295376398
 40
0.8559524747267743
 40
0.8989875634285615
 40
0.9418656816474951
 40
0.9842102227792756
 40
1.0
 40
1.0
 40
1.0
 40
1.0
 10
3.032098444177053
 20
-19.42931609329098
 30
0.0
 10
3.03354595910979
 20
-19.43594215719428
 30
0.0
 10
3.044897796740928
 20
-19.48790569820028
 30
0.0
 10
3.066468623428624
 20
-19.26476802791436
 30
0.0
 10
3.098117046181633
 20
-18.7335140168445
 30
0.0
 10
3.130391933544925
 20
-17.8313005569791
 30
0.0
 10
3.16248633384978
 20
-16.62064183598646
 30
0.0
 10
3.193739872330792
 20
-15.12748613452198
 30
0.0
 10
3.223009479973018
 20
-13.38472556109112
 30
0.0
 10
3.253272391337457
 20
-11.4084404314867
 30
0.0
 10
3.2849666899257
 20
-9.211605823393795
 30
0.0
 10
3.317268430733135
 20
-6.835683030444416
 30
0.0
 10
3.349315646938994
 20
-4.343144450994745
 30
0.0
 10
3.380468159859457
 20
-1.800140578316712
 30
0.0
 10
3.409644008931644
 20
0.7579247645820107
 30
0.0
 10
3.440069386284848
 20
3.309829455595317
 30
0.0
 10
3.47182398458154
 20
5.830490191151468
 30
0.0
 10
3.504142135600366
 20
8.261911850143136
 30
0.0
 10
3.536141113801988
 20
10.53865001970017
 30
0.0
 10
3.567182722290077
 20
12.60657732983509
 30
0.0
 10
3.596293593064126
 20
14.4461435810378
 30
0.0
 10
3.626872510669933
 20
16.04375750443567
 30
0.0
 10
3.658684284281816
 20
17.37429785480166
 30
0.0
 10
3.691016487824446
 20
18.40704845636935
 30
0.0
 10
3.722951642238876
 20
19.08582705797498
 30
0.0
 10
3.747604957814926
 20
19.41853869857938
 30
0.0
 10
3.761179981350393
 20
19.40885388345754
 30
0.0
 10
3.76486707364744
 20
19.4062234049806
 30
0.0
  0
SPLINE
  5
111
330
1F
100
AcDbEntity
  8
0
  6
Continuous
 62
     7
370
    25
100
AcDbSpline
210
0.0
220
0.0
230
1.0
 70
     8
 71
     3
 72
    22
 73
    18
 74
     0
 42
0.000000001
 43
0.00000001
 40
0.0
 40
0.0
 40
0.0
 40
0.0
 40
0.0106640790346315
 40
0.083630842728697
 40
0.1577784444513292
 40
0.232468717045551
 40
0.3070349603527257
 40
0.3808170495983967
 40
0.4532867993881398
 40
0.5263617610129154
 40
0.6005719958945795
 40
0.6752760749453016
 40
0.7498065640726747
 40
0.8235052280405265
 40
0.8959189880796214
 40
0.9690989342671987
 40
1.0
 40
1.0
 40
1.0
 40
1.0
 10
4.50793177751039
 20
-19.42931609329098
 30
0.0
 10
4.509379292443126
 20
-19.43594215719545
 30
0.0
 10
4.520731130074326
 20
-19.48790569821065
 30
0.0
 10
4.542301956759615
 20
-19.26476802753419
 30
0.0
 10
4.573950379523482
 20
-18.7335140182274
 30
0.0
 10
4.606225266846363
 20
-17.83130055180015
 30
0.0
 10
4.638319667301327
 20
-16.62064185518304
 30
0.0
 10
4.669573205231384
 20
-15.12748606424809
 30
0.0
 10
4.698842814895541
 20
-13.38472581916499
 30
0.0
 10
4.729105718641567
 20
-11.40843945238179
 30
0.0
 10
4.760800046209004
 20
-9.211609550314193
 30
0.0
 10
4.793101677911936
 20
-6.83566903953229
 30
0.0
 10
4.82514929937871
 20
-4.343196271707694
 30
0.0
 10
4.856300325647489
 20
-1.799950976877438
 30
0.0
 10
4.885481635796066
 20
0.7572275242478108
 30
0.0
 10
4.909889016971765
 20
2.80845353958266
 30
0.0
 10
4.924649440025373
 20
3.993594236327572
 30
0.0
 10
4.92903172642524
 20
4.345455828533729
 30
0.0
  0
SPLINE
  5
112
330
1F
100
AcDbEntity
  8
0
  6
Continuous
 62
     7
370
    25
100
AcDbSpline
210
0.0
220
0.0
230
1.0
 70
     8
 71
     3
 72
    31
 73
    27
 74
     0
 42
0.000000001
 43
0.00000001
 40
0.0
 40
0.0
 40
0.0
 40
0.0
 40
0.0385164643997189
 40
0.0816308344190806
 40
0.125060736269521
 40
0.1684185222729914
 40
0.211320367638935
 40
0.2534591610872376
 40
0.295949851591744
 40
0.3391006392024815
 40
0.3825385687064879
 40
0.4258755657214268
 40
0.4687289040232841
 40
0.5108351425286652
 40
0.5533868756806507
 40
0.5965720259276371
 40
0.6400158442602214
 40
0.6833299431322226
 40
0.7261328045487198
 40
0.7682164993106847
 40
0.8108273898135476
 40
0.8540448377923853
 40
0.8974924043910832
 40
0.9407815026683172
 40
0.9835319316500416
 40
1.0
 40
1.0
 40
1.0
 40
1.0
 10
-12.45333208948285
 20
-20.9247533513092
 30
0.0
 10
-12.44429667622941
 20
-20.8762836923274
 30
0.0
 10
-12.42514724663626
 20
-20.77355830544788
 30
0.0
 10
-12.39442248979952
 20
-20.16682084657136
 30
0.0
 10
-12.36215770047548
 20
-19.20953467868892
 30
0.0
 10
-12.3300605907045
 20
-17.9016263613316
 30
0.0
 10
-12.29880776008949
 20
-16.29434199859483
 30
0.0
 10
-12.2695379837373
 20
-14.41690999993545
 30
0.0
 10
-12.23927512700272
 20
-12.2882850787517
 30
0.0
 10
-12.20758080882595
 20
-9.922008554195333
 30
0.0
 10
-12.17527906564116
 20
-7.362857530748567
 30
0.0
 10
-12.14323184308761
 20
-4.678090433113695
 30
0.0
 10
-12.11207932481772
 20
-1.938967818959118
 30
0.0
 10
-12.08290349606045
 20
0.8163758499770101
 30
0.0
 10
-12.05247812066357
 20
3.565085369734797
 30
0.0
 10
-12.02072351670735
 20
6.280142071642926
 30
0.0
 10
-11.9884053596136
 20
8.89907743018653
 30
0.0
 10
-11.95640637567733
 20
11.35140005688646
 30
0.0
 10
-11.92536476390634
 20
13.57880736817296
 30
0.0
 10
-11.89625390898737
 20
15.5602429937619
 30
0.0
 10
-11.86567501228435
 20
17.28105899041594
 30
0.0
 10
-11.83386315379624
 20
18.71424007036879
 30
0.0
 10
-11.80153124226391
 20
19.8265320784238
 30
0.0
 10
-11.76959497691196
 20
20.55804939319925
 30
0.0
 10
-11.74481752135902
 20
20.91712604472308
 30
0.0
 10
-11.7311219115423
 20
20.90614769239316
 30
0.0
 10
-11.72731330023472
 20
20.90309472305612
 30
0.0
  0
SPLINE
  5
113
330
1F
100
AcDbEntity
  8
0
  6
Continuous
 62
     7
370
    25
100
AcDbSpline
210
0.0
220
0.0
230
1.0
 70
     8
 71
     3
 72
    31
 73
    27
 74
     0
 42
0.000000001
 43
0.00000001
 40
0.0
 40
0.0
 40
0.0
 40
0.0
 40
0.0385164643997189
 40
0.0816308344190806
 40
0.125060736269521
 40
0.1684185222729914
 40
0.211320367638935
 40
0.2534591610872376
 40
0.295949851591744
 40
0.3391006392024815
 40
0.3825385687064879
 40
0.4258755657214268
 40
0.4687289040232841
 40
0.5108351425286652
 40
0.5533868756806507
 40
0.5965720259276371
 40
0.6400158442602214
 40
0.6833299431322226
 40
0.7261328045487198
 40
0.7682164993106847
 40
0.8108273898135476
 40
0.8540448377923853
 40
0.8974924043910832
 40
0.9407815026683172
 40
0.9835319316500416
 40
1.0
 40
1.0
 40
1.0
 40
1.0
 10
-10.97749875614952
 20
-20.9247533513092
 30
0.0
 10
-10.96846334289608
 20
-20.8762836923274
 30
0.0
 10
-10.94931391330293
 20
-20.77355830544788
 30
0.0
 10
-10.91858915646619
 20
-20.16682084657136
 30
0.0
 10
-10.88632436714215
 20
-19.20953467868892
 30
0.0
 10
-10.85422725737117
 20
-17.9016263613316
 30
0.0
 10
-10.82297442675616
 20
-16.29434199859483
 30
0.0
 10
-10.79370465040397
 20
-14.41690999993545
 30
0.0
 10
-10.76344179366939
 20
-12.2882850787517
 30
0.0
 10
-10.73174747549262
 20
-9.922008554195333
 30
0.0
 10
-10.69944573230783
 20
-7.362857530748567
 30
0.0
 10
-10.66739850975427
 20
-4.678090433113695
 30
0.0
 10
-10.63624599148439
 20
-1.938967818959118
 30
0.0
 10
-10.60707016272712
 20
0.8163758499770101
 30
0.0
 10
-10.57664478733024
 20
3.565085369734797
 30
0.0
 10
-10.54489018337403
 20
6.280142071642926
 30
0.0
 10
-10.51257202628027
 20
8.89907743018653
 30
0.0
 10
-10.480573042344
 20
11.35140005688646
 30
0.0
 10
-10.44953143057301
 20
13.57880736817296
 30
0.0
 10
-10.42042057565404
 20
15.5602429937619
 30
0.0
 10
-10.38984167895102
 20
17.28105899041594
 30
0.0
 10
-10.3580298204629
 20
18.71424007036879
 30
0.0
 10
-10.32569790893058
 20
19.8265320784238
 30
0.0
 10
-10.29376164357863
 20
20.55804939319925
 30
0.0
 10
-10.26898418802569
 20
20.91712604472308
 30
0.0
 10
-10.25528857820897
 20
20.90614769239316
 30
0.0
 10
-10.25147996690138
 20
20.90309472305612
 30
0.0
  0
SPLINE
  5
114
330
1F
100
AcDbEntity
  8
0
  6
Continuous
 62
     7
370
    25
100
AcDbSpline
210
0.0
220
0.0
230
1.0
 70
     8
 71
     3
 72
    31
 73
    27
 74
     0
 42
0.000000001
 43
0.00000001
 40
0.0
 40
0.0
 40
0.0
 40
0.0
 40
0.0385164643997189
 40
0.0816308344190806
 40
0.1250607362695211
 40
0.1684185222729914
 40
0.2113203676389351
 40
0.2534591610872378
 40
0.2959498515917441
 40
0.3391006392024816
 40
0.3825385687064882
 40
0.425875565721427
 40
0.4687289040232843
 40
0.5108351425286655
 40
0.5533868756806509
 40
0.5965720259276375
 40
0.6400158442602217
 40
0.683329943132223
 40
0.7261328045487201
 40
0.768216499310685
 40
0.810827389813548
 40
0.8540448377923856
 40
0.8974924043910837
 40
0.9407815026683175
 40
0.983531931650042
 40
1.0
 40
1.0
 40
1.0
 40
1.0
 10
-9.501665422816192
 20
-20.9247533513092
 30
0.0
 10
-9.492630009562749
 20
-20.8762836923274
 30
0.0
 10
-9.473480579969593
 20
-20.77355830544787
 30
0.0
 10
-9.442755823132858
 20
-20.16682084657136
 30
0.0
 10
-9.41049103380881
 20
-19.20953467868891
 30
0.0
 10
-9.37839392403783
 20
-17.90162636133161
 30
0.0
 10
-9.347141093422827
 20
-16.29434199859483
 30
0.0
 10
-9.317871317070638
 20
-14.41690999993546
 30
0.0
 10
-9.287608460336049
 20
-12.2882850787517
 30
0.0
 10
-9.255914142159275
 20
-9.922008554195331
 30
0.0
 10
-9.223612398974485
 20
-7.36285753074857
 30
0.0
 10
-9.191565176420946
 20
-4.678090433113692
 30
0.0
 10
-9.160412658151055
 20
-1.93896781895912
 30
0.0
 10
-9.131236829393776
 20
0.81637584997701
 30
0.0
 10
-9.10081145399691
 20
3.565085369734802
 30
0.0
 10
-9.06905685004069
 20
6.280142071642921
 30
0.0
 10
-9.036738692946939
 20
8.89907743018653
 30
0.0
 10
-9.004739709010668
 20
11.35140005688646
 30
0.0
 10
-8.973698097239676
 20
13.57880736817296
 30
0.0
 10
-8.944587242320702
 20
15.5602429937619
 30
0.0
 10
-8.914008345617688
 20
17.28105899041594
 30
0.0
 10
-8.882196487129574
 20
18.71424007036879
 30
0.0
 10
-8.849864575597236
 20
19.8265320784238
 30
0.0
 10
-8.817928310245291
 20
20.55804939319924
 30
0.0
 10
-8.793150854692358
 20
20.91712604472308
 30
0.0
 10
-8.779455244875638
 20
20.90614769239316
 30
0.0
 10
-8.775646633568043
 20
20.90309472305612
 30
0.0
  0
SPLINE
  5
115
330
1F
100
AcDbEntity
  8
0
  6
Continuous
 62
     7
370
    25
100
AcDbSpline
210
0.0
220
0.0
230
1.0
 70
     8
 71
     3
 72
    31
 73
    27
 74
     0
 42
0.000000001
 43
0.00000001
 40
0.0
 40
0.0
 40
0.0
 40
0.0
 40
0.0385164643997189
 40
0.0816308344190807
 40
0.1250607362695211
 40
0.1684185222729915
 40
0.2113203676389351
 40
0.2534591610872378
 40
0.2959498515917441
 40
0.3391006392024817
 40
0.3825385687064882
 40
0.4258755657214271
 40
0.4687289040232844
 40
0.5108351425286656
 40
0.553386875680651
 40
0.5965720259276376
 40
0.6400158442602218
 40
0.6833299431322231
 40
0.7261328045487202
 40
0.7682164993106853
 40
0.8108273898135482
 40
0.8540448377923858
 40
0.8974924043910838
 40
0.9407815026683177
 40
0.9835319316500423
 40
1.0
 40
1.0
 40
1.0
 40
1.0
 10
-8.025832089482856
 20
-20.9247533513092
 30
0.0
 10
-8.016796676229413
 20
-20.87628369232741
 30
0.0
 10
-7.997647246636264
 20
-20.77355830544788
 30
0.0
 10
-7.966922489799522
 20
-20.16682084657135
 30
0.0
 10
-7.934657700475481
 20
-19.20953467868891
 30
0.0
 10
-7.902560590704502
 20
-17.9016263613316
 30
0.0
 10
-7.871307760089493
 20
-16.29434199859483
 30
0.0
 10
-7.84203798373731
 20
-14.41690999993545
 30
0.0
 10
-7.811775127002721
 20
-12.2882850787517
 30
0.0
 10
-7.780080808825946
 20
-9.922008554195333
 30
0.0
 10
-7.747779065641155
 20
-7.362857530748567
 30
0.0
 10
-7.71573184308761
 20
-4.678090433113693
 30
0.0
 10
-7.684579324817725
 20
-1.93896781895912
 30
0.0
 10
-7.655403496060448
 20
0.8163758499770103
 30
0.0
 10
-7.624978120663581
 20
3.565085369734802
 30
0.0
 10
-7.593223516707353
 20
6.280142071642921
 30
0.0
 10
-7.560905359613603
 20
8.899077430186532
 30
0.0
 10
-7.528906375677338
 20
11.35140005688646
 30
0.0
 10
-7.497864763906348
 20
13.57880736817296
 30
0.0
 10
-7.468753908987373
 20
15.56024299376189
 30
0.0
 10
-7.43817501228436
 20
17.28105899041593
 30
0.0
 10
-7.406363153796239
 20
18.71424007036879
 30
0.0
 10
-7.374031242263906
 20
19.8265320784238
 30
0.0
 10
-7.342094976911961
 20
20.55804939319925
 30
0.0
 10
-7.317317521359022
 20
20.91712604472308
 30
0.0
 10
-7.303621911542304
 20
20.90614769239315
 30
0.0
 10
-7.299813300234714
 20
20.90309472305612
 30
0.0
  0
SPLINE
  5
116
330
1F
100
AcDbEntity
  8
0
  6
Continuous
 62
     7
370
    25
100
AcDbSpline
210
0.0
220
0.0
230
1.0
 70
     8
 71
     3
 72
    31
 73
    27
 74
     0
 42
0.000000001
 43
0.00000001
 40
0.0
 40
0.0
 40
0.0
 40
0.0
 40
0.0385164643997188
 40
0.0816308344190806
 40
0.125060736269521
 40
0.1684185222729913
 40
0.2113203676389349
 40
0.2534591610872376
 40
0.2959498515917439
 40
0.3391006392024813
 40
0.3825385687064878
 40
0.4258755657214267
 40
0.4687289040232839
 40
0.510835142528665
 40
0.5533868756806505
 40
0.5965720259276369
 40
0.6400158442602212
 40
0.6833299431322224
 40
0.7261328045487194
 40
0.7682164993106845
 40
0.8108273898135473
 40
0.8540448377923849
 40
0.8974924043910829
 40
0.9407815026683168
 40
0.9835319316500413
 40
1.0
 40
1.0
 40
1.0
 40
1.0
 10
-6.549998756149519
 20
-20.92475335130921
 30
0.0
 10
-6.540963342896084
 20
-20.87628369232741
 30
0.0
 10
-6.521813913302927
 20
-20.77355830544788
 30
0.0
 10
-6.491089156466193
 20
-20.16682084657135
 30
0.0
 10
-6.458824367142152
 20
-19.20953467868892
 30
0.0
 10
-6.426727257371173
 20
-17.90162636133161
 30
0.0
 10
-6.395474426756163
 20
-16.29434199859483
 30
0.0
 10
-6.366204650403974
 20
-14.41690999993545
 30
0.0
 10
-6.335941793669392
 20
-12.2882850787517
 30
0.0
 10
-6.30424747549261
 20
-9.922008554195333
 30
0.0
 10
-6.271945732307819
 20
-7.362857530748567
 30
0.0
 10
-6.239898509754275
 20
-4.678090433113693
 30
0.0
 10
-6.208745991484396
 20
-1.938967818959121
 30
0.0
 10
-6.179570162727119
 20
0.8163758499770135
 30
0.0
 10
-6.149144787330238
 20
3.565085369734795
 30
0.0
 10
-6.117390183374025
 20
6.280142071642928
 30
0.0
 10
-6.085072026280266
 20
8.899077430186528
 30
0.0
 10
-6.053073042344002
 20
11.35140005688646
 30
0.0
 10
-6.022031430573012
 20
13.57880736817296
 30
0.0
 10
-5.992920575654037
 20
15.56024299376189
 30
0.0
 10
-5.962341678951024
 20
17.28105899041594
 30
0.0
 10
-5.93052982046291
 20
18.71424007036879
 30
0.0
 10
-5.898197908930578
 20
19.82653207842381
 30
0.0
 10
-5.866261643578626
 20
20.55804939319924
 30
0.0
 10
-5.841484188025693
 20
20.91712604472308
 30
0.0
 10
-5.827788578208974
 20
20.90614769239316
 30
0.0
 10
-5.823979966901378
 20
20.90309472305612
 30
0.0
  0
SPLINE
  5
117
330
1F
100
AcDbEntity
  8
0
  6
Continuous
 62
     7
370
    25
100
AcDbSpline
210
0.0
220
0.0
230
1.0
 70
     8
 71
     3
 72
    31
 73
    27
 74
     0
 42
0.000000001
 43
0.00000001
 40
0.0
 40
0.0
 40
0.0
 40
0.0
 40
0.0385164643997189
 40
0.0816308344190807
 40
0.1250607362695212
 40
0.1684185222729916
 40
0.2113203676389352
 40
0.253459161087238
 40
0.2959498515917444
 40
0.3391006392024819
 40
0.3825385687064885
 40
0.4258755657214274
 40
0.4687289040232848
 40
0.5108351425286659
 40
0.5533868756806515
 40
0.596572025927638
 40
0.6400158442602223
 40
0.6833299431322236
 40
0.7261328045487208
 40
0.7682164993106858
 40
0.8108273898135487
 40
0.8540448377923864
 40
0.8974924043910845
 40
0.9407815026683184
 40
0.9835319316500429
 40
1.0
 40
1.0
 40
1.0
 40
1.0
 10
-5.07416542281619
 20
-20.9247533513092
 30
0.0
 10
-5.065130009562748
 20
-20.87628369232741
 30
0.0
 10
-5.045980579969592
 20
-20.77355830544788
 30
0.0
 10
-5.015255823132857
 20
-20.16682084657134
 30
0.0
 10
-4.982991033808816
 20
-19.20953467868892
 30
0.0
 10
-4.950893924037837
 20
-17.90162636133161
 30
0.0
 10
-4.919641093422827
 20
-16.29434199859483
 30
0.0
 10
-4.890371317070638
 20
-14.41690999993545
 30
0.0
 10
-4.860108460336056
 20
-12.2882850787517
 30
0.0
 10
-4.82841414215928
 20
-9.92200855419533
 30
0.0
 10
-4.796112398974491
 20
-7.362857530748571
 30
0.0
 10
-4.764065176420945
 20
-4.678090433113693
 30
0.0
 10
-4.732912658151053
 20
-1.938967818959123
 30
0.0
 10
-4.703736829393783
 20
0.8163758499770154
 30
0.0
 10
-4.673311453996909
 20
3.565085369734796
 30
0.0
 10
-4.641556850040689
 20
6.280142071642921
 30
0.0
 10
-4.609238692946938
 20
8.899077430186539
 30
0.0
 10
-4.577239709010667
 20
11.35140005688646
 30
0.0
 10
-4.546198097239676
 20
13.57880736817296
 30
0.0
 10
-4.517087242320701
 20
15.56024299376189
 30
0.0
 10
-4.486508345617687
 20
17.28105899041594
 30
0.0
 10
-4.454696487129574
 20
18.7142400703688
 30
0.0
 10
-4.422364575597235
 20
19.82653207842379
 30
0.0
 10
-4.390428310245296
 20
20.55804939319925
 30
0.0
 10
-4.365650854692357
 20
20.91712604472308
 30
0.0
 10
-4.351955244875638
 20
20.90614769239315
 30
0.0
 10
-4.348146633568049
 20
20.90309472305612
 30
0.0
  0
SPLINE
  5
118
330
1F
100
AcDbEntity
  8
0
  6
Continuous
 62
     7
370
    25
100
AcDbSpline
210
0.0
220
0.0
230
1.0
 70
     8
 71
     3
 72
    31
 73
    27
 74
     0
 42
0.000000001
 43
0.00000001
 40
0.0
 40
0.0
 40
0.0
 40
0.0
 40
0.0385164643997189
 40
0.0816308344190807
 40
0.1250607362695212
 40
0.1684185222729916
 40
0.2113203676389352
 40
0.253459161087238
 40
0.2959498515917444
 40
0.3391006392024819
 40
0.3825385687064885
 40
0.4258755657214274
 40
0.4687289040232848
 40
0.5108351425286659
 40
0.5533868756806515
 40
0.596572025927638
 40
0.6400158442602223
 40
0.6833299431322236
 40
0.7261328045487208
 40
0.7682164993106858
 40
0.8108273898135487
 40
0.8540448377923864
 40
0.8974924043910845
 40
0.9407815026683184
 40
0.9835319316500429
 40
1.0
 40
1.0
 40
1.0
 40
1.0
 10
-3.598332089482855
 20
-20.9247533513092
 30
0.0
 10
-3.589296676229412
 20
-20.87628369232741
 30
0.0
 10
-3.570147246636263
 20
-20.77355830544788
 30
0.0
 10
-3.539422489799521
 20
-20.16682084657134
 30
0.0
 10
-3.50715770047548
 20
-19.20953467868892
 30
0.0
 10
-3.475060590704501
 20
-17.90162636133161
 30
0.0
 10
-3.443807760089499
 20
-16.29434199859483
 30
0.0
 10
-3.414537983737309
 20
-14.41690999993545
 30
0.0
 10
-3.38427512700272
 20
-12.2882850787517
 30
0.0
 10
-3.352580808825945
 20
-9.92200855419533
 30
0.0
 10
-3.320279065641154
 20
-7.362857530748571
 30
0.0
 10
-3.288231843087616
 20
-4.678090433113693
 30
0.0
 10
-3.257079324817724
 20
-1.938967818959123
 30
0.0
 10
-3.227903496060447
 20
0.8163758499770154
 30
0.0
 10
-3.19747812066358
 20
3.565085369734796
 30
0.0
 10
-3.16572351670736
 20
6.280142071642921
 30
0.0
 10
-3.133405359613608
 20
8.899077430186539
 30
0.0
 10
-3.101406375677338
 20
11.35140005688646
 30
0.0
 10
-3.070364763906347
 20
13.57880736817296
 30
0.0
 10
-3.041253908987372
 20
15.56024299376189
 30
0.0
 10
-3.010675012284358
 20
17.28105899041594
 30
0.0
 10
-2.978863153796238
 20
18.7142400703688
 30
0.0
 10
-2.946531242263906
 20
19.82653207842379
 30
0.0
 10
-2.91459497691196
 20
20.55804939319925
 30
0.0
 10
-2.889817521359021
 20
20.91712604472308
 30
0.0
 10
-2.876121911542309
 20
20.90614769239315
 30
0.0
 10
-2.872313300234714
 20
20.90309472305612
 30
0.0
  0
SPLINE
  5
119
330
1F
100
AcDbEntity
  8
0
  6
Continuous
 62
     7
370
    25
100
AcDbSpline
210
0.0
220
0.0
230
1.0
 70
     8
 71
     3
 72
    31
 73
    27
 74
     0
 42
0.000000001
 43
0.00000001
 40
0.0
 40
0.0
 40
0.0
 40
0.0
 40
0.0385164643997187
 40
0.0816308344190805
 40
0.1250607362695209
 40
0.1684185222729913
 40
0.2113203676389348
 40
0.2534591610872376
 40
0.2959498515917439
 40
0.3391006392024815
 40
0.3825385687064879
 40
0.4258755657214268
 40
0.4687289040232841
 40
0.5108351425286652
 40
0.5533868756806507
 40
0.5965720259276371
 40
0.6400158442602215
 40
0.6833299431322227
 40
0.7261328045487198
 40
0.7682164993106848
 40
0.8108273898135477
 40
0.8540448377923854
 40
0.8974924043910834
 40
0.9407815026683172
 40
0.9835319316500418
 40
1.0
 40
1.0
 40
1.0
 40
1.0
 10
-2.122498756149518
 20
-20.9247533513092
 30
0.0
 10
-2.113463342896083
 20
-20.8762836923274
 30
0.0
 10
-2.094313913302927
 20
-20.77355830544787
 30
0.0
 10
-2.063589156466192
 20
-20.16682084657136
 30
0.0
 10
-2.031324367142151
 20
-19.20953467868892
 30
0.0
 10
-1.999227257371165
 20
-17.9016263613316
 30
0.0
 10
-1.967974426756163
 20
-16.29434199859483
 30
0.0
 10
-1.938704650403973
 20
-14.41690999993545
 30
0.0
 10
-1.908441793669391
 20
-12.2882850787517
 30
0.0
 10
-1.876747475492609
 20
-9.922008554195333
 30
0.0
 10
-1.844445732307819
 20
-7.362857530748565
 30
0.0
 10
-1.81239850975428
 20
-4.678090433113696
 30
0.0
 10
-1.781245991484388
 20
-1.938967818959118
 30
0.0
 10
-1.752070162727118
 20
0.8163758499770104
 30
0.0
 10
-1.721644787330244
 20
3.565085369734796
 30
0.0
 10
-1.689890183374024
 20
6.280142071642929
 30
0.0
 10
-1.657572026280273
 20
8.899077430186527
 30
0.0
 10
-1.625573042344002
 20
11.35140005688646
 30
0.0
 10
-1.594531430573011
 20
13.57880736817296
 30
0.0
 10
-1.565420575654036
 20
15.56024299376189
 30
0.0
 10
-1.534841678951022
 20
17.28105899041593
 30
0.0
 10
-1.503029820462902
 20
18.7142400703688
 30
0.0
 10
-1.47069790893057
 20
19.82653207842379
 30
0.0
 10
-1.438761643578632
 20
20.55804939319925
 30
0.0
 10
-1.413984188025685
 20
20.91712604472308
 30
0.0
 10
-1.400288578208973
 20
20.90614769239315
 30
0.0
 10
-1.396479966901377
 20
20.90309472305612
 30
0.0
  0
SPLINE
  5
11A
330
1F
100
AcDbEntity
  8
0
  6
Continuous
 62
     7
370
    25
100
AcDbSpline
210
0.0
220
0.0
230
1.0
 70
     8
 71
     3
 72
    31
 73
    27
 74
     0
 42
0.000000001
 43
0.00000001
 40
0.0
 40
0.0
 40
0.0
 40
0.0
 40
0.0385164643997187
 40
0.0816308344190805
 40
0.1250607362695209
 40
0.1684185222729913
 40
0.2113203676389348
 40
0.2534591610872376
 40
0.2959498515917439
 40
0.3391006392024815
 40
0.3825385687064879
 40
0.4258755657214268
 40
0.4687289040232841
 40
0.5108351425286652
 40
0.5533868756806507
 40
0.5965720259276371
 40
0.6400158442602215
 40
0.6833299431322227
 40
0.7261328045487198
 40
0.7682164993106848
 40
0.8108273898135477
 40
0.8540448377923854
 40
0.8974924043910834
 40
0.9407815026683172
 40
0.9835319316500418
 40
1.0
 40
1.0
 40
1.0
 40
1.0
 10
-0.6466654228161894
 20
-20.9247533513092
 30
0.0
 10
-0.6376300095627465
 20
-20.8762836923274
 30
0.0
 10
-0.6184805799695978
 20
-20.77355830544787
 30
0.0
 10
-0.5877558231328559
 20
-20.16682084657136
 30
0.0
 10
-0.555491033808815
 20
-19.20953467868892
 30
0.0
 10
-0.5233939240378362
 20
-17.9016263613316
 30
0.0
 10
-0.4921410934228335
 20
-16.29434199859483
 30
0.0
 10
-0.4628713170706372
 20
-14.41690999993545
 30
0.0
 10
-0.432608460336055
 20
-12.2882850787517
 30
0.0
 10
-0.4009141421592796
 20
-9.922008554195333
 30
0.0
 10
-0.3686123989744897
 20
-7.362857530748565
 30
0.0
 10
-0.3365651764209443
 20
-4.678090433113696
 30
0.0
 10
-0.3054126581510594
 20
-1.938967818959118
 30
0.0
 10
-0.276236829393782
 20
0.8163758499770104
 30
0.0
 10
-0.2458114539969081
 20
3.565085369734796
 30
0.0
 10
-0.2140568500406878
 20
6.280142071642929
 30
0.0
 10
-0.1817386929469367
 20
8.899077430186527
 30
0.0
 10
-0.1497397090106725
 20
11.35140005688646
 30
0.0
 10
-0.118698097239682
 20
13.57880736817296
 30
0.0
 10
-0.0895872423207003
 20
15.56024299376189
 30
0.0
 10
-0.0590083456176935
 20
17.28105899041593
 30
0.0
 10
-0.027196487129573
 20
18.7142400703688
 30
0.0
 10
0.0051354244027593
 20
19.82653207842379
 30
0.0
 10
0.0370716897547044
 20
20.55804939319925
 30
0.0
 10
0.0618491453076436
 20
20.91712604472308
 30
0.0
 10
0.0755447551243627
 20
20.90614769239315
 30
0.0
 10
0.0793533664319515
 20
20.90309472305612
 30
0.0
  0
SPLINE
  5
11B
330
1F
100
AcDbEntity
  8
0
  6
Continuous
 62
     7
370
    25
100
AcDbSpline
210
0.0
220
0.0
230
1.0
 70
     8
 71
     3
 72
    31
 73
    27
 74
     0
 42
0.000000001
 43
0.00000001
 40
0.0
 40
0.0
 40
0.0
 40
0.0
 40
0.0385164643997187
 40
0.0816308344190805
 40
0.1250607362695209
 40
0.1684185222729913
 40
0.2113203676389348
 40
0.2534591610872376
 40
0.2959498515917439
 40
0.3391006392024815
 40
0.3825385687064879
 40
0.4258755657214268
 40
0.4687289040232841
 40
0.5108351425286652
 40
0.5533868756806507
 40
0.5965720259276371
 40
0.6400158442602215
 40
0.6833299431322227
 40
0.7261328045487198
 40
0.7682164993106848
 40
0.8108273898135477
 40
0.8540448377923854
 40
0.8974924043910834
 40
0.9407815026683172
 40
0.9835319316500418
 40
1.0
 40
1.0
 40
1.0
 40
1.0
 10
0.8291679105171466
 20
-20.9247533513092
 30
0.0
 10
0.8382033237705824
 20
-20.8762836923274
 30
0.0
 10
0.8573527533637382
 20
-20.77355830544787
 30
0.0
 10
0.8880775102004732
 20
-20.16682084657136
 30
0.0
 10
0.9203422995245139
 20
-19.20953467868892
 30
0.0
 10
0.9524394092954996
 20
-17.9016263613316
 30
0.0
 10
0.9836922399105025
 20
-16.29434199859483
 30
0.0
 10
1.012962016262692
 20
-14.41690999993545
 30
0.0
 10
1.043224872997274
 20
-12.2882850787517
 30
0.0
 10
1.074919191174056
 20
-9.922008554195333
 30
0.0
 10
1.107220934358846
 20
-7.362857530748565
 30
0.0
 10
1.139268156912385
 20
-4.678090433113696
 30
0.0
 10
1.170420675182277
 20
-1.938967818959118
 30
0.0
 10
1.199596503939547
 20
0.8163758499770104
 30
0.0
 10
1.230021879336421
 20
3.565085369734796
 30
0.0
 10
1.261776483292641
 20
6.280142071642929
 30
0.0
 10
1.294094640386392
 20
8.899077430186527
 30
0.0
 10
1.326093624322664
 20
11.35140005688646
 30
0.0
 10
1.357135236093654
 20
13.57880736817296
 30
0.0
 10
1.386246091012629
 20
15.56024299376189
 30
0.0
 10
1.416824987715642
 20
17.28105899041593
 30
0.0
 10
1.448636846203763
 20
18.7142400703688
 30
0.0
 10
1.480968757736095
 20
19.82653207842379
 30
0.0
 10
1.51290502308804
 20
20.55804939319925
 30
0.0
 10
1.537682478640973
 20
20.91712604472308
 30
0.0
 10
1.551378088457692
 20
20.90614769239315
 30
0.0
 10
1.555186699765287
 20
20.90309472305612
 30
0.0
  0
SPLINE
  5
11C
330
1F
100
AcDbEntity
  8
0
  6
Continuous
 62
     7
370
    25
100
AcDbSpline
210
0.0
220
0.0
230
1.0
 70
     8
 71
     3
 72
    31
 73
    27
 74
     0
 42
0.000000001
 43
0.00000001
 40
0.0
 40
0.0
 40
0.0
 40
0.0
 40
0.0385164643997187
 40
0.0816308344190805
 40
0.1250607362695209
 40
0.1684185222729913
 40
0.2113203676389348
 40
0.2534591610872376
 40
0.2959498515917439
 40
0.3391006392024815
 40
0.3825385687064879
 40
0.4258755657214268
 40
0.4687289040232841
 40
0.5108351425286652
 40
0.5533868756806507
 40
0.5965720259276371
 40
0.6400158442602215
 40
0.6833299431322227
 40
0.7261328045487198
 40
0.7682164993106848
 40
0.8108273898135477
 40
0.8540448377923854
 40
0.8974924043910834
 40
0.9407815026683172
 40
0.9835319316500418
 40
1.0
 40
1.0
 40
1.0
 40
1.0
 10
2.305001243850482
 20
-20.9247533513092
 30
0.0
 10
2.314036657103919
 20
-20.8762836923274
 30
0.0
 10
2.333186086697074
 20
-20.77355830544787
 30
0.0
 10
2.363910843533809
 20
-20.16682084657136
 30
0.0
 10
2.39617563285785
 20
-19.20953467868892
 30
0.0
 10
2.428272742628828
 20
-17.9016263613316
 30
0.0
 10
2.459525573243838
 20
-16.29434199859483
 30
0.0
 10
2.488795349596028
 20
-14.41690999993545
 30
0.0
 10
2.51905820633061
 20
-12.2882850787517
 30
0.0
 10
2.550752524507385
 20
-9.922008554195333
 30
0.0
 10
2.583054267692175
 20
-7.362857530748565
 30
0.0
 10
2.615101490245721
 20
-4.678090433113696
 30
0.0
 10
2.646254008515605
 20
-1.938967818959118
 30
0.0
 10
2.675429837272883
 20
0.8163758499770104
 30
0.0
 10
2.705855212669757
 20
3.565085369734796
 30
0.0
 10
2.737609816625977
 20
6.280142071642929
 30
0.0
 10
2.769927973719728
 20
8.899077430186527
 30
0.0
 10
2.801926957655999
 20
11.35140005688646
 30
0.0
 10
2.832968569426983
 20
13.57880736817296
 30
0.0
 10
2.862079424345965
 20
15.56024299376189
 30
0.0
 10
2.892658321048978
 20
17.28105899041593
 30
0.0
 10
2.924470179537099
 20
18.7142400703688
 30
0.0
 10
2.956802091069424
 20
19.82653207842379
 30
0.0
 10
2.988738356421369
 20
20.55804939319925
 30
0.0
 10
3.013515811974309
 20
20.91712604472308
 30
0.0
 10
3.027211421791028
 20
20.90614769239315
 30
0.0
 10
3.031020033098617
 20
20.90309472305612
 30
0.0
  0
SPLINE
  5
11D
330
1F
100
AcDbEntity
  8
0
  6
Continuous
 62
     7
370
    25
100
AcDbSpline
210
0.0
220
0.0
230
1.0
 70
     8
 71
     3
 72
    31
 73
    27
 74
     0
 42
0.000000001
 43
0.00000001
 40
0.0
 40
0.0
 40
0.0
 40
0.0
 40
0.0385164643997187
 40
0.0816308344190804
 40
0.1250607362695207
 40
0.168418522272991
 40
0.2113203676389346
 40
0.2534591610872373
 40
0.2959498515917435
 40
0.339100639202481
 40
0.3825385687064874
 40
0.4258755657214263
 40
0.4687289040232835
 40
0.5108351425286646
 40
0.55338687568065
 40
0.5965720259276365
 40
0.6400158442602206
 40
0.6833299431322218
 40
0.7261328045487189
 40
0.7682164993106838
 40
0.8108273898135466
 40
0.8540448377923843
 40
0.8974924043910821
 40
0.9407815026683161
 40
0.9835319316500406
 40
1.0
 40
1.0
 40
1.0
 40
1.0
 10
3.780834577183811
 20
-20.9247533513092
 30
0.0
 10
3.789869990437254
 20
-20.8762836923274
 30
0.0
 10
3.809019420030403
 20
-20.77355830544788
 30
0.0
 10
3.839744176867145
 20
-20.16682084657135
 30
0.0
 10
3.872008966191186
 20
-19.20953467868892
 30
0.0
 10
3.904106075962165
 20
-17.9016263613316
 30
0.0
 10
3.935358906577167
 20
-16.29434199859484
 30
0.0
 10
3.964628682929357
 20
-14.41690999993545
 30
0.0
 10
3.994891539663946
 20
-12.2882850787517
 30
0.0
 10
4.026585857840721
 20
-9.922008554195335
 30
0.0
 10
4.058887601025511
 20
-7.362857530748565
 30
0.0
 10
4.090934823579056
 20
-4.678090433113695
 30
0.0
 10
4.122087341848942
 20
-1.938967818959118
 30
0.0
 10
4.151263170606219
 20
0.8163758499770126
 30
0.0
 10
4.181688546003086
 20
3.565085369734796
 30
0.0
 10
4.213443149959306
 20
6.280142071642921
 30
0.0
 10
4.245761307053058
 20
8.899077430186535
 30
0.0
 10
4.277760290989328
 20
11.35140005688646
 30
0.0
 10
4.308801902760319
 20
13.57880736817296
 30
0.0
 10
4.337912757679294
 20
15.56024299376189
 30
0.0
 10
4.368491654382307
 20
17.28105899041594
 30
0.0
 10
4.400303512870428
 20
18.71424007036878
 30
0.0
 10
4.43263542440276
 20
19.82653207842381
 30
0.0
 10
4.464571689754698
 20
20.55804939319925
 30
0.0
 10
4.489349145307645
 20
20.91712604472308
 30
0.0
 10
4.503044755124364
 20
20.90614769239316
 30
0.0
 10
4.506853366431953
 20
20.90309472305612
 30
0.0
  0
SPLINE
  5
11E
330
1F
100
AcDbEntity
  8
0
  6
Continuous
 62
     7
370
    25
100
AcDbSpline
210
0.0
220
0.0
230
1.0
 70
     8
 71
     3
 72
    31
 73
    27
 74
     0
 42
0.000000001
 43
0.00000001
 40
0.0
 40
0.0
 40
0.0
 40
0.0
 40
0.0375447279606854
 40
0.0803942941058161
 40
0.1235574673112829
 40
0.1666489645486026
 40
0.2092873026742889
 40
0.251167245720226
 40
0.2933969379684913
 40
0.3362826995350309
 40
0.3794538514297243
 40
0.4225246864870573
 40
0.465114813519235
 40
0.506962400339642
 40
0.5492527626954156
 40
0.592172677269417
 40
0.635349682074182
 40
0.6783977586644644
 40
0.7209377168104196
 40
0.7627628974968107
 40
0.8051120561827353
 40
0.8480640714608645
 40
0.891244801669521
 40
0.9342680301679385
 40
0.9767558758208474
 40
0.9999999999999999
 40
0.9999999999999999
 40
0.9999999999999999
 40
0.9999999999999999
 10
-11.94442682432423
 20
-19.42280415299343
 30
0.0
 10
-11.93556430139375
 20
-19.37847978741002
 30
0.0
 10
-11.91658703577768
 20
-19.28356829713373
 30
0.0
 10
-11.88604098276975
 20
-18.72269355538319
 30
0.0
 10
-11.85377705134318
 20
-17.83420459177662
 30
0.0
 10
-11.82167971899539
 20
-16.61987290211498
 30
0.0
 10
-11.79042695478193
 20
-15.12768712520641
 30
0.0
 10
-11.7611571436543
 20
-13.38467164573122
 30
0.0
 10
-11.73089428709988
 20
-11.40845517657074
 30
0.0
 10
-11.69919997354255
 20
-9.211601816833731
 30
0.0
 10
-11.66689823679146
 20
-6.835684104791502
 30
0.0
 10
-11.63485101949935
 20
-4.343144166363691
 30
0.0
 10
-11.60369850687197
 20
-1.800140654385465
 30
0.0
 10
-11.57452265769896
 20
0.757924791155642
 30
0.0
 10
-11.54409728046266
 20
3.309829425047996
 30
0.0
 10
-11.51234268179314
 20
5.830490288009125
 30
0.0
 10
-11.48002453215719
 20
8.26191149206713
 30
0.0
 10
-11.44802554882921
 20
10.53865134329633
 30
0.0
 10
-11.41698395913493
 20
12.60657248950872
 30
0.0
 10
-11.38787301924572
 20
14.44616140849462
 30
0.0
 10
-11.35729436305331
 20
16.0436895959105
 30
0.0
 10
-11.32548159590927
 20
17.37455579586351
 30
0.0
 10
-11.29315312538737
 20
18.40608207546044
 30
0.0
 10
-11.26120413230912
 20
19.08939935535782
 30
0.0
 10
-11.234793945246
 20
19.43219844394558
 30
0.0
 10
-11.21951447535463
 20
19.41540716216054
 30
0.0
 10
-11.21411135269675
 20
19.40946943292565
 30
0.0
  0
SPLINE
  5
11F
330
1F
100
AcDbEntity
  8
0
  6
Continuous
 62
     7
370
    25
100
AcDbSpline
210
0.0
220
0.0
230
1.0
 70
     8
 71
     3
 72
    31
 73
    27
 74
     0
 42
0.000000001
 43
0.00000001
 40
0.0
 40
0.0
 40
0.0
 40
0.0
 40
0.0375447279606857
 40
0.0803942941058164
 40
0.1235574673112832
 40
0.1666489645486029
 40
0.2092873026742892
 40
0.2511672457202263
 40
0.2933969379684916
 40
0.3362826995350312
 40
0.3794538514297246
 40
0.4225246864870576
 40
0.4651148135192353
 40
0.5069624003396423
 40
0.5492527626954159
 40
0.5921726772694174
 40
0.6353496820741823
 40
0.6783977586644647
 40
0.72093771681042
 40
0.762762897496811
 40
0.8051120561827356
 40
0.8480640714608647
 40
0.8912448016695212
 40
0.9342680301679387
 40
0.9767558758208477
 40
0.9999999999999999
 40
0.9999999999999999
 40
0.9999999999999999
 40
0.9999999999999999
 10
-10.4685934909909
 20
-19.42280415299344
 30
0.0
 10
-10.45973096806041
 20
-19.37847978741002
 30
0.0
 10
-10.44075370244435
 20
-19.28356829713373
 30
0.0
 10
-10.41020764943641
 20
-18.7226935553832
 30
0.0
 10
-10.37794371800985
 20
-17.83420459177662
 30
0.0
 10
-10.34584638566206
 20
-16.61987290211499
 30
0.0
 10
-10.3145936214486
 20
-15.12768712520641
 30
0.0
 10
-10.28532381032097
 20
-13.38467164573122
 30
0.0
 10
-10.25506095376654
 20
-11.40845517657075
 30
0.0
 10
-10.22336664020922
 20
-9.211601816833733
 30
0.0
 10
-10.19106490345812
 20
-6.835684104791501
 30
0.0
 10
-10.15901768616602
 20
-4.343144166363689
 30
0.0
 10
-10.12786517353863
 20
-1.800140654385467
 30
0.0
 10
-10.09868932436563
 20
0.757924791155642
 30
0.0
 10
-10.06826394712932
 20
3.309829425047996
 30
0.0
 10
-10.03650934845981
 20
5.830490288009125
 30
0.0
 10
-10.00419119882386
 20
8.26191149206713
 30
0.0
 10
-9.97219221549587
 20
10.53865134329633
 30
0.0
 10
-9.941150625801601
 20
12.60657248950872
 30
0.0
 10
-9.912039685912386
 20
14.44616140849462
 30
0.0
 10
-9.881461029719985
 20
16.0436895959105
 30
0.0
 10
-9.849648262575936
 20
17.37455579586351
 30
0.0
 10
-9.81731979205403
 20
18.40608207546044
 30
0.0
 10
-9.78537079897579
 20
19.08939935535781
 30
0.0
 10
-9.75896061191267
 20
19.43219844394558
 30
0.0
 10
-9.743681142021295
 20
19.41540716216054
 30
0.0
 10
-9.73827801936341
 20
19.40946943292565
 30
0.0
  0
SPLINE
  5
120
330
1F
100
AcDbEntity
  8
0
  6
Continuous
 62
     7
370
    25
100
AcDbSpline
210
0.0
220
0.0
230
1.0
 70
     8
 71
     3
 72
    31
 73
    27
 74
     0
 42
0.000000001
 43
0.00000001
 40
0.0
 40
0.0
 40
0.0
 40
0.0
 40
0.0375447279606854
 40
0.0803942941058161
 40
0.123557467311283
 40
0.1666489645486027
 40
0.2092873026742891
 40
0.2511672457202262
 40
0.2933969379684915
 40
0.3362826995350313
 40
0.3794538514297247
 40
0.4225246864870578
 40
0.4651148135192355
 40
0.5069624003396426
 40
0.5492527626954162
 40
0.5921726772694177
 40
0.6353496820741826
 40
0.6783977586644652
 40
0.7209377168104204
 40
0.7627628974968116
 40
0.8051120561827362
 40
0.8480640714608654
 40
0.8912448016695219
 40
0.9342680301679395
 40
0.9767558758208484
 40
1.0
 40
1.0
 40
1.0
 40
1.0
 10
-8.992760157657562
 20
-19.42280415299343
 30
0.0
 10
-8.98389763472708
 20
-19.37847978741001
 30
0.0
 10
-8.964920369111006
 20
-19.28356829713372
 30
0.0
 10
-8.934374316103083
 20
-18.7226935553832
 30
0.0
 10
-8.902110384676517
 20
-17.83420459177662
 30
0.0
 10
-8.870013052328721
 20
-16.61987290211498
 30
0.0
 10
-8.838760288115255
 20
-15.12768712520641
 30
0.0
 10
-8.809490476987634
 20
-13.38467164573122
 30
0.0
 10
-8.779227620433206
 20
-11.40845517657074
 30
0.0
 10
-8.747533306875873
 20
-9.21160181683373
 30
0.0
 10
-8.715231570124798
 20
-6.835684104791504
 30
0.0
 10
-8.683184352832683
 20
-4.34314416636369
 30
0.0
 10
-8.652031840205305
 20
-1.800140654385465
 30
0.0
 10
-8.622855991032296
 20
0.7579247911556438
 30
0.0
 10
-8.592430613795985
 20
3.309829425047993
 30
0.0
 10
-8.560676015126473
 20
5.830490288009123
 30
0.0
 10
-8.528357865490527
 20
8.261911492067135
 30
0.0
 10
-8.496358882162532
 20
10.53865134329633
 30
0.0
 10
-8.465317292468258
 20
12.60657248950872
 30
0.0
 10
-8.43620635257905
 20
14.44616140849462
 30
0.0
 10
-8.405627696386656
 20
16.0436895959105
 30
0.0
 10
-8.373814929242606
 20
17.3745557958635
 30
0.0
 10
-8.341486458720695
 20
18.40608207546044
 30
0.0
 10
-8.309537465642453
 20
19.08939935535782
 30
0.0
 10
-8.283127278579341
 20
19.43219844394558
 30
0.0
 10
-8.267847808687959
 20
19.41540716216054
 30
0.0
 10
-8.262444686030081
 20
19.40946943292565
 30
0.0
  0
SPLINE
  5
121
330
1F
100
AcDbEntity
  8
0
  6
Continuous
 62
     7
370
    25
100
AcDbSpline
210
0.0
220
0.0
230
1.0
 70
     8
 71
     3
 72
    31
 73
    27
 74
     0
 42
0.000000001
 43
0.00000001
 40
0.0
 40
0.0
 40
0.0
 40
0.0
 40
0.0375447279606854
 40
0.0803942941058161
 40
0.123557467311283
 40
0.1666489645486027
 40
0.2092873026742891
 40
0.2511672457202262
 40
0.2933969379684915
 40
0.3362826995350313
 40
0.3794538514297247
 40
0.4225246864870578
 40
0.4651148135192355
 40
0.5069624003396426
 40
0.5492527626954162
 40
0.5921726772694177
 40
0.6353496820741826
 40
0.6783977586644652
 40
0.7209377168104204
 40
0.7627628974968116
 40
0.8051120561827362
 40
0.8480640714608654
 40
0.8912448016695219
 40
0.9342680301679395
 40
0.9767558758208484
 40
1.0
 40
1.0
 40
1.0
 40
1.0
 10
-7.516926824324227
 20
-19.42280415299343
 30
0.0
 10
-7.508064301393745
 20
-19.37847978741001
 30
0.0
 10
-7.489087035777678
 20
-19.28356829713372
 30
0.0
 10
-7.458540982769748
 20
-18.7226935553832
 30
0.0
 10
-7.426277051343182
 20
-17.83420459177662
 30
0.0
 10
-7.394179718995392
 20
-16.61987290211498
 30
0.0
 10
-7.362926954781926
 20
-15.12768712520641
 30
0.0
 10
-7.333657143654297
 20
-13.38467164573122
 30
0.0
 10
-7.303394287099876
 20
-11.40845517657074
 30
0.0
 10
-7.271699973542544
 20
-9.21160181683373
 30
0.0
 10
-7.239398236791462
 20
-6.835684104791504
 30
0.0
 10
-7.207351019499347
 20
-4.34314416636369
 30
0.0
 10
-7.17619850687197
 20
-1.800140654385465
 30
0.0
 10
-7.147022657698961
 20
0.7579247911556438
 30
0.0
 10
-7.116597280462655
 20
3.309829425047993
 30
0.0
 10
-7.084842681793137
 20
5.830490288009123
 30
0.0
 10
-7.052524532157197
 20
8.261911492067135
 30
0.0
 10
-7.020525548829204
 20
10.53865134329633
 30
0.0
 10
-6.989483959134929
 20
12.60657248950872
 30
0.0
 10
-6.960373019245722
 20
14.44616140849462
 30
0.0
 10
-6.929794363053319
 20
16.0436895959105
 30
0.0
 10
-6.897981595909271
 20
17.3745557958635
 30
0.0
 10
-6.865653125387366
 20
18.40608207546044
 30
0.0
 10
-6.833704132309118
 20
19.08939935535782
 30
0.0
 10
-6.807293945246006
 20
19.43219844394558
 30
0.0
 10
-6.792014475354629
 20
19.41540716216054
 30
0.0
 10
-6.786611352696744
 20
19.40946943292565
 30
0.0
  0
SPLINE
  5
122
330
1F
100
AcDbEntity
  8
0
  6
Continuous
 62
     7
370
    25
100
AcDbSpline
210
0.0
220
0.0
230
1.0
 70
     8
 71
     3
 72
    31
 73
    27
 74
     0
 42
0.000000001
 43
0.00000001
 40
0.0
 40
0.0
 40
0.0
 40
0.0
 40
0.0375447279606846
 40
0.0803942941058153
 40
0.1235574673112822
 40
0.166648964548602
 40
0.2092873026742883
 40
0.2511672457202255
 40
0.2933969379684908
 40
0.3362826995350305
 40
0.3794538514297239
 40
0.422524686487057
 40
0.4651148135192348
 40
0.5069624003396418
 40
0.5492527626954155
 40
0.592172677269417
 40
0.635349682074182
 40
0.6783977586644645
 40
0.7209377168104197
 40
0.7627628974968109
 40
0.8051120561827355
 40
0.8480640714608647
 40
0.8912448016695212
 40
0.9342680301679388
 40
0.9767558758208478
 40
1.0
 40
1.0
 40
1.0
 40
1.0
 10
-6.041093490990898
 20
-19.42280415299343
 30
0.0
 10
-6.032230968060409
 20
-19.37847978741001
 30
0.0
 10
-6.013253702444349
 20
-19.28356829713372
 30
0.0
 10
-5.982707649436411
 20
-18.7226935553832
 30
0.0
 10
-5.950443718009845
 20
-17.83420459177663
 30
0.0
 10
-5.918346385662056
 20
-16.61987290211498
 30
0.0
 10
-5.88709362144859
 20
-15.12768712520641
 30
0.0
 10
-5.857823810320961
 20
-13.38467164573122
 30
0.0
 10
-5.82756095376654
 20
-11.40845517657075
 30
0.0
 10
-5.795866640209208
 20
-9.211601816833726
 30
0.0
 10
-5.763564903458127
 20
-6.835684104791505
 30
0.0
 10
-5.731517686166018
 20
-4.343144166363686
 30
0.0
 10
-5.700365173538641
 20
-1.80014065438547
 30
0.0
 10
-5.671189324365625
 20
0.7579247911556459
 30
0.0
 10
-5.64076394712932
 20
3.309829425047997
 30
0.0
 10
-5.609009348459801
 20
5.830490288009117
 30
0.0
 10
-5.576691198823862
 20
8.261911492067135
 30
0.0
 10
-5.544692215495868
 20
10.53865134329632
 30
0.0
 10
-5.513650625801593
 20
12.60657248950872
 30
0.0
 10
-5.484539685912386
 20
14.44616140849462
 30
0.0
 10
-5.453961029719983
 20
16.0436895959105
 30
0.0
 10
-5.422148262575935
 20
17.3745557958635
 30
0.0
 10
-5.389819792054031
 20
18.40608207546044
 30
0.0
 10
-5.357870798975789
 20
19.08939935535782
 30
0.0
 10
-5.331460611912677
 20
19.43219844394558
 30
0.0
 10
-5.316181142021294
 20
19.41540716216054
 30
0.0
 10
-5.310778019363409
 20
19.40946943292565
 30
0.0
  0
SPLINE
  5
123
330
1F
100
AcDbEntity
  8
0
  6
Continuous
 62
     7
370
    25
100
AcDbSpline
210
0.0
220
0.0
230
1.0
 70
     8
 71
     3
 72
    31
 73
    27
 74
     0
 42
0.000000001
 43
0.00000001
 40
0.0
 40
0.0
 40
0.0
 40
0.0
 40
0.0375447279606846
 40
0.0803942941058153
 40
0.1235574673112822
 40
0.166648964548602
 40
0.2092873026742883
 40
0.2511672457202255
 40
0.2933969379684908
 40
0.3362826995350305
 40
0.3794538514297239
 40
0.422524686487057
 40
0.4651148135192348
 40
0.5069624003396418
 40
0.5492527626954155
 40
0.592172677269417
 40
0.635349682074182
 40
0.6783977586644645
 40
0.7209377168104197
 40
0.7627628974968109
 40
0.8051120561827355
 40
0.8480640714608647
 40
0.8912448016695212
 40
0.9342680301679388
 40
0.9767558758208478
 40
1.0
 40
1.0
 40
1.0
 40
1.0
 10
-4.565260157657562
 20
-19.42280415299343
 30
0.0
 10
-4.55639763472708
 20
-19.37847978741001
 30
0.0
 10
-4.537420369111013
 20
-19.28356829713372
 30
0.0
 10
-4.506874316103082
 20
-18.7226935553832
 30
0.0
 10
-4.474610384676517
 20
-17.83420459177663
 30
0.0
 10
-4.442513052328727
 20
-16.61987290211498
 30
0.0
 10
-4.411260288115254
 20
-15.12768712520641
 30
0.0
 10
-4.381990476987633
 20
-13.38467164573122
 30
0.0
 10
-4.351727620433212
 20
-11.40845517657075
 30
0.0
 10
-4.32003330687588
 20
-9.211601816833726
 30
0.0
 10
-4.287731570124791
 20
-6.835684104791505
 30
0.0
 10
-4.255684352832683
 20
-4.343144166363686
 30
0.0
 10
-4.224531840205305
 20
-1.80014065438547
 30
0.0
 10
-4.195355991032296
 20
0.7579247911556459
 30
0.0
 10
-4.16493061379599
 20
3.309829425047997
 30
0.0
 10
-4.133176015126471
 20
5.830490288009117
 30
0.0
 10
-4.100857865490526
 20
8.261911492067135
 30
0.0
 10
-4.068858882162539
 20
10.53865134329632
 30
0.0
 10
-4.037817292468264
 20
12.60657248950872
 30
0.0
 10
-4.008706352579051
 20
14.44616140849462
 30
0.0
 10
-3.978127696386655
 20
16.0436895959105
 30
0.0
 10
-3.946314929242606
 20
17.3745557958635
 30
0.0
 10
-3.913986458720701
 20
18.40608207546044
 30
0.0
 10
-3.882037465642453
 20
19.08939935535782
 30
0.0
 10
-3.855627278579341
 20
19.43219844394558
 30
0.0
 10
-3.840347808687958
 20
19.41540716216054
 30
0.0
 10
-3.834944686030073
 20
19.40946943292565
 30
0.0
  0
SPLINE
  5
124
330
1F
100
AcDbEntity
  8
0
  6
Continuous
 62
     7
370
    25
100
AcDbSpline
210
0.0
220
0.0
230
1.0
 70
     8
 71
     3
 72
    31
 73
    27
 74
     0
 42
0.000000001
 43
0.00000001
 40
0.0
 40
0.0
 40
0.0
 40
0.0
 40
0.0375447279606846
 40
0.0803942941058153
 40
0.1235574673112822
 40
0.166648964548602
 40
0.2092873026742883
 40
0.2511672457202255
 40
0.2933969379684908
 40
0.3362826995350305
 40
0.3794538514297239
 40
0.422524686487057
 40
0.4651148135192348
 40
0.5069624003396418
 40
0.5492527626954155
 40
0.592172677269417
 40
0.635349682074182
 40
0.6783977586644645
 40
0.7209377168104197
 40
0.7627628974968109
 40
0.8051120561827355
 40
0.8480640714608647
 40
0.8912448016695212
 40
0.9342680301679388
 40
0.9767558758208478
 40
1.0
 40
1.0
 40
1.0
 40
1.0
 10
-3.089426824324226
 20
-19.42280415299343
 30
0.0
 10
-3.080564301393744
 20
-19.37847978741001
 30
0.0
 10
-3.061587035777684
 20
-19.28356829713372
 30
0.0
 10
-3.031040982769746
 20
-18.7226935553832
 30
0.0
 10
-2.998777051343181
 20
-17.83420459177663
 30
0.0
 10
-2.966679718995391
 20
-16.61987290211498
 30
0.0
 10
-2.935426954781925
 20
-15.12768712520641
 30
0.0
 10
-2.906157143654296
 20
-13.38467164573122
 30
0.0
 10
-2.875894287099876
 20
-11.40845517657075
 30
0.0
 10
-2.844199973542544
 20
-9.211601816833726
 30
0.0
 10
-2.811898236791462
 20
-6.835684104791505
 30
0.0
 10
-2.779851019499354
 20
-4.343144166363686
 30
0.0
 10
-2.748698506871969
 20
-1.80014065438547
 30
0.0
 10
-2.71952265769896
 20
0.7579247911556459
 30
0.0
 10
-2.689097280462654
 20
3.309829425047997
 30
0.0
 10
-2.657342681793136
 20
5.830490288009117
 30
0.0
 10
-2.625024532157197
 20
8.261911492067135
 30
0.0
 10
-2.593025548829203
 20
10.53865134329632
 30
0.0
 10
-2.561983959134928
 20
12.60657248950872
 30
0.0
 10
-2.532873019245721
 20
14.44616140849462
 30
0.0
 10
-2.502294363053319
 20
16.0436895959105
 30
0.0
 10
-2.47048159590927
 20
17.3745557958635
 30
0.0
 10
-2.438153125387366
 20
18.40608207546044
 30
0.0
 10
-2.406204132309124
 20
19.08939935535782
 30
0.0
 10
-2.379793945246004
 20
19.43219844394558
 30
0.0
 10
-2.364514475354629
 20
19.41540716216054
 30
0.0
 10
-2.359111352696744
 20
19.40946943292565
 30
0.0
  0
SPLINE
  5
125
330
1F
100
AcDbEntity
  8
0
  6
Continuous
 62
     7
370
    25
100
AcDbSpline
210
0.0
220
0.0
230
1.0
 70
     8
 71
     3
 72
    31
 73
    27
 74
     0
 42
0.000000001
 43
0.00000001
 40
0.0
 40
0.0
 40
0.0
 40
0.0
 40
0.0375447279606844
 40
0.0803942941058151
 40
0.123557467311282
 40
0.1666489645486017
 40
0.2092873026742881
 40
0.2511672457202252
 40
0.2933969379684905
 40
0.3362826995350302
 40
0.3794538514297236
 40
0.4225246864870567
 40
0.4651148135192344
 40
0.5069624003396415
 40
0.549252762695415
 40
0.5921726772694165
 40
0.6353496820741814
 40
0.678397758664464
 40
0.7209377168104192
 40
0.7627628974968104
 40
0.805112056182735
 40
0.848064071460864
 40
0.8912448016695206
 40
0.9342680301679381
 40
0.9767558758208471
 40
1.0
 40
1.0
 40
1.0
 40
1.0
 10
-1.613593490990897
 20
-19.42280415299343
 30
0.0
 10
-1.604730968060408
 20
-19.37847978741001
 30
0.0
 10
-1.585753702444348
 20
-19.28356829713373
 30
0.0
 10
-1.55520764943641
 20
-18.7226935553832
 30
0.0
 10
-1.522943718009845
 20
-17.83420459177662
 30
0.0
 10
-1.490846385662062
 20
-16.61987290211499
 30
0.0
 10
-1.459593621448589
 20
-15.12768712520641
 30
0.0
 10
-1.430323810320967
 20
-13.38467164573122
 30
0.0
 10
-1.40006095376654
 20
-11.40845517657074
 30
0.0
 10
-1.368366640209215
 20
-9.211601816833733
 30
0.0
 10
-1.336064903458126
 20
-6.8356841047915
 30
0.0
 10
-1.304017686166017
 20
-4.34314416636369
 30
0.0
 10
-1.27286517353864
 20
-1.800140654385465
 30
0.0
 10
-1.243689324365631
 20
0.7579247911556396
 30
0.0
 10
-1.213263947129326
 20
3.309829425047997
 30
0.0
 10
-1.181509348459807
 20
5.830490288009124
 30
0.0
 10
-1.149191198823861
 20
8.261911492067135
 30
0.0
 10
-1.117192215495867
 20
10.53865134329633
 30
0.0
 10
-1.086150625801592
 20
12.60657248950872
 30
0.0
 10
-1.057039685912385
 20
14.44616140849462
 30
0.0
 10
-1.026461029719983
 20
16.0436895959105
 30
0.0
 10
-0.994648262575941
 20
17.3745557958635
 30
0.0
 10
-0.9623197920540366
 20
18.40608207546045
 30
0.0
 10
-0.9303707989757881
 20
19.08939935535782
 30
0.0
 10
-0.9039606119126755
 20
19.43219844394558
 30
0.0
 10
-0.8886811420212928
 20
19.41540716216054
 30
0.0
 10
-0.883278019363408
 20
19.40946943292565
 30
0.0
  0
SPLINE
  5
126
330
1F
100
AcDbEntity
  8
0
  6
Continuous
 62
     7
370
    25
100
AcDbSpline
210
0.0
220
0.0
230
1.0
 70
     8
 71
     3
 72
    31
 73
    27
 74
     0
 42
0.000000001
 43
0.00000001
 40
0.0
 40
0.0
 40
0.0
 40
0.0
 40
0.0375447279606844
 40
0.0803942941058151
 40
0.123557467311282
 40
0.1666489645486017
 40
0.2092873026742881
 40
0.2511672457202252
 40
0.2933969379684905
 40
0.3362826995350302
 40
0.3794538514297236
 40
0.4225246864870567
 40
0.4651148135192344
 40
0.5069624003396415
 40
0.549252762695415
 40
0.5921726772694165
 40
0.6353496820741814
 40
0.678397758664464
 40
0.7209377168104192
 40
0.7627628974968104
 40
0.805112056182735
 40
0.848064071460864
 40
0.8912448016695206
 40
0.9342680301679381
 40
0.9767558758208471
 40
1.0
 40
1.0
 40
1.0
 40
1.0
 10
-0.1377601576575613
 20
-19.42280415299343
 30
0.0
 10
-0.1288976347270793
 20
-19.37847978741001
 30
0.0
 10
-0.1099203691110121
 20
-19.28356829713373
 30
0.0
 10
-0.0793743161030813
 20
-18.7226935553832
 30
0.0
 10
-0.0471103846765158
 20
-17.83420459177662
 30
0.0
 10
-0.0150130523287259
 20
-16.61987290211499
 30
0.0
 10
0.0162397118847399
 20
-15.12768712520641
 30
0.0
 10
0.0455095230123687
 20
-13.38467164573122
 30
0.0
 10
0.0757723795667894
 20
-11.40845517657074
 30
0.0
 10
0.1074666931241211
 20
-9.211601816833733
 30
0.0
 10
0.1397684298752103
 20
-6.8356841047915
 30
0.0
 10
0.1718156471673116
 20
-4.34314416636369
 30
0.0
 10
0.2029681597946961
 20
-1.800140654385465
 30
0.0
 10
0.2321440089677052
 20
0.7579247911556396
 30
0.0
 10
0.2625693862040104
 20
3.309829425047997
 30
0.0
 10
0.2943239848735291
 20
5.830490288009124
 30
0.0
 10
0.3266421345094681
 20
8.261911492067135
 30
0.0
 10
0.3586411178374618
 20
10.53865134329633
 30
0.0
 10
0.3896827075317369
 20
12.60657248950872
 30
0.0
 10
0.4187936474209508
 20
14.44616140849462
 30
0.0
 10
0.4493723036133462
 20
16.0436895959105
 30
0.0
 10
0.481185070757395
 20
17.3745557958635
 30
0.0
 10
0.5135135412792993
 20
18.40608207546045
 30
0.0
 10
0.5454625343575479
 20
19.08939935535782
 30
0.0
 10
0.5718727214206604
 20
19.43219844394558
 30
0.0
 10
0.5871521913120431
 20
19.41540716216054
 30
0.0
 10
0.5925553139699211
 20
19.40946943292565
 30
0.0
  0
SPLINE
  5
127
330
1F
100
AcDbEntity
  8
0
  6
Continuous
 62
     7
370
    25
100
AcDbSpline
210
0.0
220
0.0
230
1.0
 70
     8
 71
     3
 72
    31
 73
    27
 74
     0
 42
0.000000001
 43
0.00000001
 40
0.0
 40
0.0
 40
0.0
 40
0.0
 40
0.0375447279606844
 40
0.0803942941058151
 40
0.123557467311282
 40
0.1666489645486017
 40
0.2092873026742881
 40
0.2511672457202252
 40
0.2933969379684905
 40
0.3362826995350302
 40
0.3794538514297236
 40
0.4225246864870567
 40
0.4651148135192344
 40
0.5069624003396415
 40
0.549252762695415
 40
0.5921726772694165
 40
0.6353496820741814
 40
0.678397758664464
 40
0.7209377168104192
 40
0.7627628974968104
 40
0.805112056182735
 40
0.848064071460864
 40
0.8912448016695206
 40
0.9342680301679381
 40
0.9767558758208471
 40
1.0
 40
1.0
 40
1.0
 40
1.0
 10
1.338073175675768
 20
-19.42280415299343
 30
0.0
 10
1.346935698606257
 20
-19.37847978741001
 30
0.0
 10
1.365912964222317
 20
-19.28356829713373
 30
0.0
 10
1.396459017230255
 20
-18.7226935553832
 30
0.0
 10
1.42872294865682
 20
-17.83420459177662
 30
0.0
 10
1.46082028100461
 20
-16.61987290211499
 30
0.0
 10
1.492073045218076
 20
-15.12768712520641
 30
0.0
 10
1.521342856345698
 20
-13.38467164573122
 30
0.0
 10
1.551605712900125
 20
-11.40845517657074
 30
0.0
 10
1.58330002645745
 20
-9.211601816833733
 30
0.0
 10
1.615601763208539
 20
-6.8356841047915
 30
0.0
 10
1.647648980500648
 20
-4.34314416636369
 30
0.0
 10
1.678801493128025
 20
-1.800140654385465
 30
0.0
 10
1.707977342301041
 20
0.7579247911556396
 30
0.0
 10
1.738402719537339
 20
3.309829425047997
 30
0.0
 10
1.770157318206858
 20
5.830490288009124
 30
0.0
 10
1.802475467842804
 20
8.261911492067135
 30
0.0
 10
1.834474451170798
 20
10.53865134329633
 30
0.0
 10
1.865516040865066
 20
12.60657248950872
 30
0.0
 10
1.89462698075428
 20
14.44616140849462
 30
0.0
 10
1.925205636946682
 20
16.0436895959105
 30
0.0
 10
1.957018404090724
 20
17.3745557958635
 30
0.0
 10
1.989346874612628
 20
18.40608207546045
 30
0.0
 10
2.021295867690877
 20
19.08939935535782
 30
0.0
 10
2.04770605475399
 20
19.43219844394558
 30
0.0
 10
2.062985524645372
 20
19.41540716216054
 30
0.0
 10
2.068388647303257
 20
19.40946943292565
 30
0.0
  0
SPLINE
  5
128
330
1F
100
AcDbEntity
  8
0
  6
Continuous
 62
     7
370
    25
100
AcDbSpline
210
0.0
220
0.0
230
1.0
 70
     8
 71
     3
 72
    31
 73
    27
 74
     0
 42
0.000000001
 43
0.00000001
 40
0.0
 40
0.0
 40
0.0
 40
0.0
 40
0.0375447279606844
 40
0.0803942941058151
 40
0.123557467311282
 40
0.1666489645486017
 40
0.2092873026742881
 40
0.2511672457202252
 40
0.2933969379684905
 40
0.3362826995350302
 40
0.3794538514297236
 40
0.4225246864870567
 40
0.4651148135192344
 40
0.5069624003396415
 40
0.549252762695415
 40
0.5921726772694165
 40
0.6353496820741814
 40
0.678397758664464
 40
0.7209377168104192
 40
0.7627628974968104
 40
0.805112056182735
 40
0.848064071460864
 40
0.8912448016695206
 40
0.9342680301679381
 40
0.9767558758208471
 40
1.0
 40
1.0
 40
1.0
 40
1.0
 10
2.813906509009104
 20
-19.42280415299343
 30
0.0
 10
2.822769031939586
 20
-19.37847978741001
 30
0.0
 10
2.841746297555653
 20
-19.28356829713373
 30
0.0
 10
2.872292350563584
 20
-18.7226935553832
 30
0.0
 10
2.904556281990149
 20
-17.83420459177662
 30
0.0
 10
2.936653614337939
 20
-16.61987290211499
 30
0.0
 10
2.967906378551405
 20
-15.12768712520641
 30
0.0
 10
2.997176189679033
 20
-13.38467164573122
 30
0.0
 10
3.027439046233455
 20
-11.40845517657074
 30
0.0
 10
3.059133359790786
 20
-9.211601816833733
 30
0.0
 10
3.091435096541875
 20
-6.8356841047915
 30
0.0
 10
3.123482313833983
 20
-4.34314416636369
 30
0.0
 10
3.154634826461361
 20
-1.800140654385465
 30
0.0
 10
3.18381067563437
 20
0.7579247911556396
 30
0.0
 10
3.214236052870675
 20
3.309829425047997
 30
0.0
 10
3.245990651540194
 20
5.830490288009124
 30
0.0
 10
3.278308801176133
 20
8.261911492067135
 30
0.0
 10
3.310307784504127
 20
10.53865134329633
 30
0.0
 10
3.341349374198402
 20
12.60657248950872
 30
0.0
 10
3.370460314087616
 20
14.44616140849462
 30
0.0
 10
3.401038970280011
 20
16.0436895959105
 30
0.0
 10
3.43285173742406
 20
17.3745557958635
 30
0.0
 10
3.465180207945964
 20
18.40608207546045
 30
0.0
 10
3.497129201024213
 20
19.08939935535782
 30
0.0
 10
3.523539388087325
 20
19.43219844394558
 30
0.0
 10
3.538818857978708
 20
19.41540716216054
 30
0.0
 10
3.544221980636593
 20
19.40946943292565
 30
0.0
  0
SPLINE
  5
129
330
1F
100
AcDbEntity
  8
0
  6
Continuous
 62
     7
370
    25
100
AcDbSpline
210
0.0
220
0.0
230
1.0
 70
     8
 71
     3
 72
    28
 73
    24
 74
     0
 42
0.000000001
 43
0.00000001
 40
0.0
 40
0.0
 40
0.0
 40
0.0
 40
0.04289546063259
 40
0.0918517849300107
 40
0.1411664103802548
 40
0.1903991448743791
 40
0.23911413773368
 40
0.2869626519139665
 40
0.3352107602304911
 40
0.3842084383839248
 40
0.4335321796160165
 40
0.4827413072343864
 40
0.5314012181374185
 40
0.5792127648052516
 40
0.6275301897036122
 40
0.6765668882219982
 40
0.7258973164987749
 40
0.7750804421994202
 40
0.8236830343362546
 40
0.8714689816325697
 40
0.9198535822917447
 40
0.9689269563852376
 40
1.0
 40
1.0
 40
1.0
 40
1.0
 10
4.289739842342433
 20
-19.42280415299346
 30
0.0
 10
4.298602365272915
 20
-19.37847978741008
 30
0.0
 10
4.317579630888982
 20
-19.28356829713388
 30
0.0
 10
4.348125683896919
 20
-18.72269355538258
 30
0.0
 10
4.380389615323485
 20
-17.83420459177894
 30
0.0
 10
4.412486947671275
 20
-16.6198729021064
 30
0.0
 10
4.44373971188472
 20
-15.12768712523783
 30
0.0
 10
4.473009523012432
 20
-13.38467164561582
 30
0.0
 10
4.503272379566541
 20
-11.40845517700856
 30
0.0
 10
4.534966693125073
 20
-9.211601815167215
 30
0.0
 10
4.567268429871631
 20
-6.835684111047631
 30
0.0
 10
4.599315647180552
 20
-4.343144143191713
 30
0.0
 10
4.630468159746257
 20
-1.800140739167018
 30
0.0
 10
4.65964400914582
 20
0.7579251029313231
 30
0.0
 10
4.690069385526796
 20
3.309828239625149
 30
0.0
 10
4.721823987448574
 20
5.830494795454372
 30
0.0
 10
4.754142124852367
 20
8.261894587956162
 30
0.0
 10
4.786141153570886
 20
10.53871389229167
 30
0.0
 10
4.817182576846727
 20
12.60634373404741
 30
0.0
 10
4.846294128750802
 20
14.4470039445622
 30
0.0
 10
4.8768704701262
 20
16.04048019793461
 30
0.0
 10
4.904733294857085
 20
17.2192649342073
 30
0.0
 10
4.922243110342173
 20
17.7863616542151
 30
0.0
 10
4.92903172642524
 20
18.00622701586776
 30
0.0
  0
LINE
  5
136
330
1F
100
AcDbEntity
  8
0
  6
Continuous
 62
     7
370
    25
100
AcDbLine
 10
20.4290317264
 20
-35.0
 30
0.0
 11
29.9290317264
 21
-35.0
 31
0.0
  0
LINE
  5
137
330
1F
100
AcDbEntity
  8
0
  6
Continuous
 62
     7
370
    25
100
AcDbLine
 10
29.9290317264
 20
35.0
 30
0.0
 11
20.4290317264
 21
35.0
 31
0.0
  0
LINE
  5
138
330
1F
100
AcDbEntity
  8
0
  6
Continuous
 62
     7
370
    25
100
AcDbLine
 10
18.9290317264
 20
-32.5
 30
0.0
 11
20.4290317264
 21
-32.5
 31
0.0
  0
LINE
  5
139
330
1F
100
AcDbEntity
  8
0
  6
Continuous
 62
     7
370
    25
100
AcDbLine
 10
20.4290317264
 20
32.5
 30
0.0
 11
18.9290317264
 21
32.5
 31
0.0
  0
LINE
  5
13A
330
1F
100
AcDbEntity
  8
0
  6
Continuous
 62
     7
370
    25
100
AcDbLine
 10
57.1231483477
 20
-23.3897595794
 30
0.0
 11
58.4290317264
 21
-21.0312190484
 31
0.0
  0
LINE
  5
13B
330
1F
100
AcDbEntity
  8
0
  6
Continuous
 62
     7
370
    25
100
AcDbLine
 10
58.4290317264
 20
21.0312190484
 30
0.0
 11
57.1231483477
 21
23.3897595794
 31
0.0
  0
LINE
  5
13C
330
1F
100
AcDbEntity
  8
0
  6
Continuous
 62
     7
370
    25
100
AcDbLine
 10
13.9290317264
 20
-22.5
 30
0.0
 11
16.9290317264
 21
-22.5
 31
0.0
  0
LINE
  5
13D
330
1F
100
AcDbEntity
  8
0
  6
Continuous
 62
     7
370
    25
100
AcDbLine
 10
16.9290317264
 20
22.5
 30
0.0
 11
13.9290317264
 21
22.5
 31
0.0
  0
LINE
  5
13E
330
1F
100
AcDbEntity
  8
0
  6
Continuous
 62
     7
370
    25
100
AcDbLine
 10
60.1787355493
 20
-20.0
 30
0.0
 11
107.4290317264
 21
-20.0
 31
0.0
  0
LINE
  5
13F
330
1F
100
AcDbEntity
  8
0
  6
Continuous
 62
     7
370
    25
100
AcDbLine
 10
107.4290317264
 20
20.0
 30
0.0
 11
60.1787355493
 21
20.0
 31
0.0
  0
LINE
  5
140
330
1F
100
AcDbEntity
  8
0
  6
Continuous
 62
     7
370
    25
100
AcDbLine
 10
4.2859669644
 20
-19.45
 30
0.0
 11
4.5079317775
 21
-19.45
 31
0.0
  0
LINE
  5
141
330
1F
100
AcDbEntity
  8
0
  6
Continuous
 62
     7
370
    25
100
AcDbLine
 10
2.810133631
 20
-19.45
 30
0.0
 11
3.0320984442
 21
-19.45
 31
0.0
  0
LINE
  5
142
330
1F
100
AcDbEntity
  8
0
  6
Continuous
 62
     7
370
    25
100
AcDbLine
 10
1.3343002977
 20
-19.45
 30
0.0
 11
1.5562651108
 21
-19.45
 31
0.0
  0
LINE
  5
143
330
1F
100
AcDbEntity
  8
0
  6
Continuous
 62
     7
370
    25
100
AcDbLine
 10
-0.1415330356
 20
-19.45
 30
0.0
 11
0.0804317775
 21
-19.45
 31
0.0
  0
LINE
  5
144
330
1F
100
AcDbEntity
  8
0
  6
Continuous
 62
     7
370
    25
100
AcDbLine
 10
-1.617366369
 20
-19.45
 30
0.0
 11
-1.3954015558
 21
-19.45
 31
0.0
  0
LINE
  5
145
330
1F
100
AcDbEntity
  8
0
  6
Continuous
 62
     7
370
    25
100
AcDbLine
 10
-3.0931997023
 20
-19.45
 30
0.0
 11
-2.8712348892
 21
-19.45
 31
0.0
  0
LINE
  5
146
330
1F
100
AcDbEntity
  8
0
  6
Continuous
 62
     7
370
    25
100
AcDbLine
 10
-4.5690330356
 20
-19.45
 30
0.0
 11
-4.3470682225
 21
-19.45
 31
0.0
  0
LINE
  5
147
330
1F
100
AcDbEntity
  8
0
  6
Continuous
 62
     7
370
    25
100
AcDbLine
 10
-6.044866369
 20
-19.45
 30
0.0
 11
-5.8229015558
 21
-19.45
 31
0.0
  0
LINE
  5
148
330
1F
100
AcDbEntity
  8
0
  6
Continuous
 62
     7
370
    25
100
AcDbLine
 10
-7.5206997023
 20
-19.45
 30
0.0
 11
-7.2987348892
 21
-19.45
 31
0.0
  0
LINE
  5
149
330
1F
100
AcDbEntity
  8
0
  6
Continuous
 62
     7
370
    25
100
AcDbLine
 10
-8.9965330356
 20
-19.45
 30
0.0
 11
-8.7745682225
 21
-19.45
 31
0.0
  0
LINE
  5
14A
330
1F
100
AcDbEntity
  8
0
  6
Continuous
 62
     7
370
    25
100
AcDbLine
 10
-10.472366369
 20
-19.45
 30
0.0
 11
-10.2504015558
 21
-19.45
 31
0.0
  0
LINE
  5
14B
330
1F
100
AcDbEntity
  8
0
  6
Continuous
 62
     7
370
    25
100
AcDbLine
 10
-11.9481997023
 20
-19.45
 30
0.0
 11
-11.7262348892
 21
-19.45
 31
0.0
  0
LINE
  5
14C
330
1F
100
AcDbEntity
  8
0
  6
Continuous
 62
     7
370
    25
100
AcDbLine
 10
-13.5709682736
 20
-19.45
 30
0.0
 11
-13.2020682225
 21
-19.45
 31
0.0
  0
LINE
  5
14D
330
1F
100
AcDbEntity
  8
0
  6
Continuous
 62
     7
370
    25
100
AcDbLine
 10
-12.4666948915
 20
19.45
 30
0.0
 11
-13.5709682736
 21
19.45
 31
0.0
  0
LINE
  5
14E
330
1F
100
AcDbEntity
  8
0
  6
Continuous
 62
     7
370
    25
100
AcDbLine
 10
-10.9908615582
 20
19.45
 30
0.0
 11
-11.2141113527
 21
19.45
 31
0.0
  0
LINE
  5
14F
330
1F
100
AcDbEntity
  8
0
  6
Continuous
 62
     7
370
    25
100
AcDbLine
 10
-9.5150282248
 20
19.45
 30
0.0
 11
-9.7382780194
 21
19.45
 31
0.0
  0
LINE
  5
150
330
1F
100
AcDbEntity
  8
0
  6
Continuous
 62
     7
370
    25
100
AcDbLine
 10
-8.0391948915
 20
19.45
 30
0.0
 11
-8.262444686
 21
19.45
 31
0.0
  0
LINE
  5
151
330
1F
100
AcDbEntity
  8
0
  6
Continuous
 62
     7
370
    25
100
AcDbLine
 10
-6.5633615582
 20
19.45
 30
0.0
 11
-6.7866113527
 21
19.45
 31
0.0
  0
LINE
  5
152
330
1F
100
AcDbEntity
  8
0
  6
Continuous
 62
     7
370
    25
100
AcDbLine
 10
-5.0875282248
 20
19.45
 30
0.0
 11
-5.3107780194
 21
19.45
 31
0.0
  0
LINE
  5
153
330
1F
100
AcDbEntity
  8
0
  6
Continuous
 62
     7
370
    25
100
AcDbLine
 10
-3.6116948915
 20
19.45
 30
0.0
 11
-3.834944686
 21
19.45
 31
0.0
  0
LINE
  5
154
330
1F
100
AcDbEntity
  8
0
  6
Continuous
 62
     7
370
    25
100
AcDbLine
 10
-2.1358615582
 20
19.45
 30
0.0
 11
-2.3591113527
 21
19.45
 31
0.0
  0
LINE
  5
155
330
1F
100
AcDbEntity
  8
0
  6
Continuous
 62
     7
370
    25
100
AcDbLine
 10
-0.6600282248
 20
19.45
 30
0.0
 11
-0.8832780194
 21
19.45
 31
0.0
  0
LINE
  5
156
330
1F
100
AcDbEntity
  8
0
  6
Continuous
 62
     7
370
    25
100
AcDbLine
 10
0.8158051085
 20
19.45
 30
0.0
 11
0.592555314
 21
19.45
 31
0.0
  0
LINE
  5
157
330
1F
100
AcDbEntity
  8
0
  6
Continuous
 62
     7
370
    25
100
AcDbLine
 10
2.2916384418
 20
19.45
 30
0.0
 11
2.0683886473
 21
19.45
 31
0.0
  0
LINE
  5
158
330
1F
100
AcDbEntity
  8
0
  6
Continuous
 62
     7
370
    25
100
AcDbLine
 10
3.7674717752
 20
19.45
 30
0.0
 11
3.5442219806
 21
19.45
 31
0.0
  0
LINE
  5
159
330
1F
100
AcDbEntity
  8
0
  6
Continuous
 62
     7
370
    25
100
AcDbLine
 10
40.0861377152
 20
-3.0
 30
0.0
 11
40.0861377152
 21
3.0
 31
0.0
  0
LINE
  5
15A
330
1F
100
AcDbEntity
  8
0
  6
Continuous
 62
     7
370
    25
100
AcDbLine
 10
55.8334721211
 20
-3.0
 30
0.0
 11
55.8334721211
 21
3.0
 31
0.0
  0
LINE
  5
15B
330
1F
100
AcDbEntity
  8
0
  6
Continuous
 62
     7
370
    25
100
AcDbLine
 10
20.4290317264
 20
-35.0
 30
0.0
 11
20.4290317264
 21
35.0
 31
0.0
  0
LINE
  5
15C
330
1F
100
AcDbEntity
  8
0
  6
Continuous
 62
     7
370
    25
100
AcDbLine
 10
29.9290317264
 20
-3.0
 30
0.0
 11
29.9290317264
 21
-28.6993377411
 31
0.0
  0
LINE
  5
15D
330
1F
100
AcDbEntity
  8
0
  6
Continuous
 62
     7
370
    25
100
AcDbLine
 10
40.0861377152
 20
-28.6993377411
 30
0.0
 11
29.9290317264
 21
-28.6993377411
 31
0.0
  0
LINE
  5
15E
330
1F
100
AcDbEntity
  8
0
  6
Continuous
 62
     7
370
    25
100
AcDbLine
 10
40.0861377152
 20
-31.6993377411
 30
0.0
 11
40.0861377152
 21
-28.6993377411
 31
0.0
  0
LINE
  5
15F
330
1F
100
AcDbEntity
  8
0
  6
Continuous
 62
     7
370
    25
100
AcDbLine
 10
29.9290317264
 20
-31.6993377411
 30
0.0
 11
40.0861377152
 21
-31.6993377411
 31
0.0
  0
LINE
  5
160
330
1F
100
AcDbEntity
  8
0
  6
Continuous
 62
     7
370
    25
100
AcDbLine
 10
29.9290317264
 20
-31.6993377411
 30
0.0
 11
29.9290317264
 21
-35.0
 31
0.0
  0
LINE
  5
161
330
1F
100
AcDbEntity
  8
0
  6
Continuous
 62
     7
370
    25
100
AcDbLine
 10
29.9290317264
 20
35.0
 30
0.0
 11
29.9290317264
 21
31.6993377411
 31
0.0
  0
LINE
  5
162
330
1F
100
AcDbEntity
  8
0
  6
Continuous
 62
     7
370
    25
100
AcDbLine
 10
40.0861377152
 20
31.6993377411
 30
0.0
 11
29.9290317264
 21
31.6993377411
 31
0.0
  0
LINE
  5
163
330
1F
100
AcDbEntity
  8
0
  6
Continuous
 62
     7
370
    25
100
AcDbLine
 10
40.0861377152
 20
28.6993377411
 30
0.0
 11
40.0861377152
 21
31.6993377411
 31
0.0
  0
LINE
  5
164
330
1F
100
AcDbEntity
  8
0
  6
Continuous
 62
     7
370
    25
100
AcDbLine
 10
29.9290317264
 20
28.6993377411
 30
0.0
 11
40.0861377152
 21
28.6993377411
 31
0.0
  0
LINE
  5
165
330
1F
100
AcDbEntity
  8
0
  6
Continuous
 62
     7
370
    25
100
AcDbLine
 10
29.9290317264
 20
28.6993377411
 30
0.0
 11
29.9290317264
 21
3.0
 31
0.0
  0
LINE
  5
166
330
1F
100
AcDbEntity
  8
0
  6
Continuous
 62
     7
370
    25
100
AcDbLine
 10
29.9290317264
 20
-3.0
 30
0.0
 11
40.0861377152
 21
-3.0
 31
0.0
  0
LINE
  5
167
330
1F
100
AcDbEntity
  8
0
  6
Continuous
 62
     7
370
    25
100
AcDbLine
 10
40.0861377152
 20
3.0
 30
0.0
 11
29.9290317264
 21
3.0
 31
0.0
  0
LINE
  5
168
330
1F
100
AcDbEntity
  8
0
  6
Continuous
 62
     7
370
    25
100
AcDbLine
 10
16.9290317264
 20
-30.5
 30
0.0
 11
16.9290317264
 21
30.5
 31
0.0
  0
LINE
  5
169
330
1F
100
AcDbEntity
  8
0
  6
Continuous
 62
     7
370
    25
100
AcDbLine
 10
57.1231483477
 20
18.5888187778
 30
0.0
 11
57.1231483477
 21
3.0
 31
0.0
  0
LINE
  5
16A
330
1F
100
AcDbEntity
  8
0
  6
Continuous
 62
     7
370
    25
100
AcDbLine
 10
48.3746292333
 20
3.0
 30
0.0
 11
48.3746292333
 21
23.0845351921
 31
0.0
  0
LINE
  5
16B
330
1F
100
AcDbEntity
  8
0
  6
Continuous
 62
     7
370
    25
100
AcDbLine
 10
57.1231483477
 20
-3.0
 30
0.0
 11
57.1231483477
 21
-18.5888187778
 31
0.0
  0
LINE
  5
16C
330
1F
100
AcDbEntity
  8
0
  6
Continuous
 62
     7
370
    25
100
AcDbLine
 10
48.3746292333
 20
-23.0845351921
 30
0.0
 11
48.3746292333
 21
-3.0
 31
0.0
  0
LINE
  5
16D
330
1F
100
AcDbEntity
  8
0
  6
Continuous
 62
     7
370
    25
100
AcDbLine
 10
29.9290317264
 20
-23.0845351921
 30
0.0
 11
48.3746292333
 21
-23.0845351921
 31
0.0
  0
LINE
  5
16E
330
1F
100
AcDbEntity
  8
0
  6
Continuous
 62
     7
370
    25
100
AcDbLine
 10
29.9290317264
 20
23.0845351921
 30
0.0
 11
48.3746292333
 21
23.0845351921
 31
0.0
  0
LINE
  5
16F
330
1F
100
AcDbEntity
  8
0
  6
Continuous
 62
     7
370
    25
100
AcDbLine
 10
55.8334721211
 20
-23.6212866426
 30
0.0
 11
55.8334721211
 21
-20.6212866426
 31
0.0
  0
LINE
  5
170
330
1F
100
AcDbEntity
  8
0
  6
Continuous
 62
     7
370
    25
100
AcDbLine
 10
55.8334721211
 20
20.6212866426
 30
0.0
 11
55.8334721211
 21
23.6212866426
 31
0.0
  0
LINE
  5
171
330
1F
100
AcDbEntity
  8
0
  6
Continuous
 62
     7
370
    25
100
AcDbLine
 10
13.9290317264
 20
-21.8390512613
 30
0.0
 11
4.9290317264
 21
-21.8390512613
 31
0.0
  0
LINE
  5
172
330
1F
100
AcDbEntity
  8
0
  6
Continuous
 62
     7
370
    25
100
AcDbLine
 10
13.9290317264
 20
-22.5
 30
0.0
 11
13.9290317264
 21
-19.7505766034
 31
0.0
  0
LINE
  5
173
330
1F
100
AcDbEntity
  8
0
  6
Continuous
 62
     7
370
    25
100
AcDbLine
 10
13.9290317264
 20
-19.7505766034
 30
0.0
 11
4.9290317264
 21
-19.7505766034
 31
0.0
  0
LINE
  5
174
330
1F
100
AcDbEntity
  8
0
  6
Continuous
 62
     7
370
    25
100
AcDbLine
 10
13.9290317264
 20
-15.6077427762
 30
0.0
 11
4.9290317264
 21
-15.6077427762
 31
0.0
  0
LINE
  5
175
330
1F
100
AcDbEntity
  8
0
  6
Continuous
 62
     7
370
    25
100
AcDbLine
 10
13.9290317264
 20
-15.6077427762
 30
0.0
 11
13.9290317264
 21
-0.5412890049
 31
0.0
  0
LINE
  5
176
330
1F
100
AcDbEntity
  8
0
  6
Continuous
 62
     7
370
    25
100
AcDbLine
 10
13.9290317264
 20
-0.5412890049
 30
0.0
 11
4.9290317264
 21
-0.5412890049
 31
0.0
  0
LINE
  5
177
330
1F
100
AcDbEntity
  8
0
  6
Continuous
 62
     7
370
    25
100
AcDbLine
 10
13.9290317264
 20
6.2313084852
 30
0.0
 11
4.9290317264
 21
6.2313084852
 31
0.0
  0
LINE
  5
178
330
1F
100
AcDbEntity
  8
0
  6
Continuous
 62
     7
370
    25
100
AcDbLine
 10
13.9290317264
 20
6.2313084852
 30
0.0
 11
13.9290317264
 21
19.2092875986
 31
0.0
  0
LINE
  5
179
330
1F
100
AcDbEntity
  8
0
  6
Continuous
 62
     7
370
    25
100
AcDbLine
 10
13.9290317264
 20
19.2092875986
 30
0.0
 11
4.9290317264
 21
19.2092875986
 31
0.0
  0
LINE
  5
17A
330
1F
100
AcDbEntity
  8
0
  6
Continuous
 62
     7
370
    25
100
AcDbLine
 10
13.9290317264
 20
21.8390512613
 30
0.0
 11
4.9290317264
 21
21.8390512613
 31
0.0
  0
LINE
  5
17B
330
1F
100
AcDbEntity
  8
0
  6
Continuous
 62
     7
370
    25
100
AcDbLine
 10
13.9290317264
 20
21.8390512613
 30
0.0
 11
13.9290317264
 21
22.5
 31
0.0
  0
LINE
  5
17C
330
1F
100
AcDbEntity
  8
0
  6
Continuous
 62
     7
370
    25
100
AcDbLine
 10
4.9290317264
 20
21.8390512613
 30
0.0
 11
4.9290317264
 21
-21.8390512613
 31
0.0
  0
LINE
  5
17D
330
1F
100
AcDbEntity
  8
0
  6
Continuous
 62
     7
370
    25
100
AcDbLine
 10
107.4290317264
 20
-20.0
 30
0.0
 11
107.4290317264
 21
20.0
 31
0.0
  0
LINE
  5
17E
330
1F
100
AcDbEntity
  8
0
  6
Continuous
 62
     7
370
    25
100
AcDbLine
 10
-13.5709682736
 20
-19.45
 30
0.0
 11
-13.5709682736
 21
19.45
 31
0.0
  0
LINE
  5
17F
330
1F
100
AcDbEntity
  8
0
  6
Continuous
 62
     8
370
    25
100
AcDbLine
 10
18.9290317264
 20
-32.5
 30
0.0
 11
18.9290317264
 21
32.5
 31
0.0
  0
LINE
  5
180
330
1F
100
AcDbEntity
  8
0
  6
Continuous
 62
     8
370
    25
100
AcDbLine
 10
58.4290317264
 20
-21.0312190484
 30
0.0
 11
58.4290317264
 21
21.0312190484
 31
0.0
  0
LINE
  5
181
330
1F
100
AcDbEntity
  8
0
  6
Continuous
 62
     8
370
    25
100
AcDbLine
 10
57.1231483477
 20
-21.5888187778
 30
0.0
 11
57.1231483477
 21
-23.3897595794
 31
0.0
  0
LINE
  5
182
330
1F
100
AcDbEntity
  8
0
  6
Continuous
 62
     8
370
    25
100
AcDbLine
 10
57.1231483477
 20
23.3897595794
 30
0.0
 11
57.1231483477
 21
21.5888187778
 31
0.0
  0
LINE
  5
183
330
1F
100
AcDbEntity
  8
0
  6
Continuous
 62
     8
370
    25
100
AcDbLine
 10
60.1787355493
 20
-20.0
 30
0.0
 11
60.1787355493
 21
20.0
 31
0.0
  0
ARC
  5
184
330
1F
100
AcDbEntity
  8
0
  6
Continuous
 62
     7
370
    25
100
AcDbCircle
 10
18.9290317264
 20
-30.5
 30
0.0
 40
1.999999999999996
100
AcDbArc
 50
180.0
 51
270.0
  0
ARC
  5
185
330
1F
100
AcDbEntity
  8
0
  6
Continuous
 62
     7
370
    25
100
AcDbCircle
 10
18.9290317264
 20
30.5
 30
0.0
 40
1.999999999999996
100
AcDbArc
 50
90.0
 51
180.0
  0
ARC
  5
186
330
1F
100
AcDbEntity
  8
0
  6
Continuous
 62
     7
370
    25
100
AcDbCircle
 10
60.1787355493
 20
-22.0
 30
0.0
 40
1.999999999999989
100
AcDbArc
 50
90.0
 51
151.0274542403
  0
ARC
  5
187
330
1F
100
AcDbEntity
  8
0
  6
Continuous
 62
     7
370
    25
100
AcDbCircle
 10
60.1787355493
 20
22.0
 30
0.0
 40
1.999999999999987
100
AcDbArc
 50
208.9725457597
 51
270.0
  0
ARC
  5
188
330
1F
100
AcDbEntity
  8
0
  6
Continuous
 62
     7
370
    25
100
AcDbCircle
 10
48.3746292333
 20
18.5458548213
 30
0.0
 40
9.999999999999948
100
AcDbArc
 50
28.9725457597
 51
69.688163728
  0
ARC
  5
189
330
1F
100
AcDbEntity
  8
0
  6
Continuous
 62
     7
370
    25
100
AcDbCircle
 10
48.3746292333
 20
-18.5458548213
 30
0.0
 40
9.999999999999961
100
AcDbArc
 50
290.3295840872
 51
331.0274542403
  0
CIRCLE
  5
18A
330
1B
100
AcDbEntity
 67
     1
  8
0
  6
Continuous
 62
     7
370
    25
100
AcDbCircle
 10
0.0
 20
0.0
 30
0.0
 40
17.50000000000001
  0
CIRCLE
  5
18B
330
1B
100
AcDbEntity
 67
     1
  8
0
  6
Continuous
 62
     7
370
    25
100
AcDbCircle
 10
0.0
 20
0.0
 30
0.0
 40
19.44999999999999
  0
SPLINE
  5
18D
330
1B
100
AcDbEntity
 67
     1
  8
0
  6
Continuous
 62
     7
370
    25
100
AcDbSpline
210
0.0
220
0.0
230
1.0
 70
    11
 71
     3
 72
    70
 73
    66
 74
     0
 42
0.000000001
 43
0.00000001
 40
0.0
 40
0.0
 40
0.0
 40
0.0
 40
0.0312499999999999
 40
0.0312499999999999
 40
0.0624999999999999
 40
0.0624999999999999
 40
0.0937499999999998
 40
0.0937499999999998
 40
0.1249999999999998
 40
0.1249999999999998
 40
0.1562499999999998
 40
0.1562499999999998
 40
0.1874999999999997
 40
0.1874999999999997
 40
0.2187499999999997
 40
0.2187499999999997
 40
0.2499999999999997
 40
0.2499999999999997
 40
0.2812499999999997
 40
0.2812499999999997
 40
0.3124999999999997
 40
0.3124999999999997
 40
0.3437499999999997
 40
0.3437499999999997
 40
0.3749999999999997
 40
0.3749999999999997
 40
0.4062499999999997
 40
0.4062499999999997
 40
0.4374999999999997
 40
0.4374999999999997
 40
0.4687499999999997
 40
0.4687499999999997
 40
0.4999999999999997
 40
0.4999999999999997
 40
0.5312499999999996
 40
0.5312499999999996
 40
0.5624999999999996
 40
0.5624999999999996
 40
0.5937499999999996
 40
0.5937499999999996
 40
0.6249999999999997
 40
0.6249999999999997
 40
0.6562499999999997
 40
0.6562499999999997
 40
0.6874999999999998
 40
0.6874999999999998
 40
0.7187499999999997
 40
0.7187499999999997
 40
0.7499999999999996
 40
0.7499999999999996
 40
0.7812499999999997
 40
0.7812499999999997
 40
0.8124999999999997
 40
0.8124999999999997
 40
0.8437499999999998
 40
0.8437499999999998
 40
0.8749999999999998
 40
0.8749999999999998
 40
0.9062499999999999
 40
0.9062499999999999
 40
0.9374999999999999
 40
0.9374999999999999
 40
0.96875
 40
0.96875
 40
1.0
 40
1.0
 40
1.0
 40
1.0
 10
0.0
 20
20.95000000000034
 30
0.0
 10
-1.336202984674772
 20
20.95000000000034
 30
0.0
 10
-2.698324868545596
 20
20.82098579187933
 30
0.0
 10
-5.397418869990468
 20
20.28946219059842
 30
0.0
 10
-6.733883304233698
 20
19.88685080407465
 30
0.0
 10
-9.300552511863561
 20
18.82370160814894
 30
0.0
 10
-10.53026481772548
 20
18.16336778547481
 30
0.0
 10
-12.81465643203351
 20
16.63066405681962
 30
0.0
 10
-13.86904887435294
 20
15.75872525736375
 30
0.0
 10
-15.75872525736341
 20
13.86904887435328
 30
0.0
 10
-16.63066405681928
 20
12.81465643203385
 30
0.0
 10
-18.16336778547447
 20
10.53026481772582
 30
0.0
 10
-18.82370160814861
 20
9.3005525118639
 30
0.0
 10
-19.8868508040743
 20
6.733883304234039
 30
0.0
 10
-20.28946219059809
 20
5.397418869990807
 30
0.0
 10
-20.820985791879
 20
2.698324868545936
 30
0.0
 10
-20.95000000000001
 20
1.336202984675114
 30
0.0
 10
-20.94999999999999
 20
-1.33620298467443
 30
0.0
 10
-20.820985791879
 20
-2.698324868545255
 30
0.0
 10
-20.28946219059809
 20
-5.397418869990124
 30
0.0
 10
-19.88685080407431
 20
-6.733883304233354
 30
0.0
 10
-18.82370160814861
 20
-9.300552511863216
 30
0.0
 10
-18.16336778547446
 20
-10.53026481772513
 30
0.0
 10
-16.63066405681928
 20
-12.81465643203316
 30
0.0
 10
-15.75872525736341
 20
-13.86904887435259
 30
0.0
 10
-13.86904887435293
 20
-15.75872525736306
 30
0.0
 10
-12.81465643203351
 20
-16.63066405681895
 30
0.0
 10
-10.53026481772549
 20
-18.16336778547413
 30
0.0
 10
-9.300552511863561
 20
-18.82370160814827
 30
0.0
 10
-6.733883304233695
 20
-19.88685080407396
 30
0.0
 10
-5.397418869990469
 20
-20.28946219059775
 30
0.0
 10
-2.698324868545597
 20
-20.82098579187866
 30
0.0
 10
-1.336202984674774
 20
-20.94999999999965
 30
0.0
 10
1.336202984674764
 20
-20.94999999999967
 30
0.0
 10
2.698324868545597
 20
-20.82098579187866
 30
0.0
 10
5.397418869990464
 20
-20.28946219059775
 30
0.0
 10
6.73388330423369
 20
-19.88685080407397
 30
0.0
 10
9.300552511863554
 20
-18.82370160814828
 30
0.0
 10
10.53026481772547
 20
-18.16336778547414
 30
0.0
 10
12.8146564320335
 20
-16.63066405681895
 30
0.0
 10
13.86904887435292
 20
-15.75872525736307
 30
0.0
 10
15.75872525736341
 20
-13.8690488743526
 30
0.0
 10
16.63066405681928
 20
-12.81465643203318
 30
0.0
 10
18.16336778547446
 20
-10.53026481772515
 30
0.0
 10
18.8237016081486
 20
-9.300552511863245
 30
0.0
 10
19.8868508040743
 20
-6.733883304233385
 30
0.0
 10
20.28946219059809
 20
-5.397418869990131
 30
0.0
 10
20.82098579187899
 20
-2.698324868545266
 30
0.0
 10
20.95000000000001
 20
-1.336202984674432
 30
0.0
 10
20.95
 20
1.336202984675114
 30
0.0
 10
20.82098579187899
 20
2.698324868545927
 30
0.0
 10
20.28946219059809
 20
5.397418869990806
 30
0.0
 10
19.88685080407431
 20
6.733883304234034
 30
0.0
 10
18.82370160814861
 20
9.300552511863902
 30
0.0
 10
18.16336778547447
 20
10.5302648177258
 30
0.0
 10
16.6306640568193
 20
12.81465643203384
 30
0.0
 10
15.75872525736341
 20
13.86904887435327
 30
0.0
 10
13.86904887435294
 20
15.75872525736374
 30
0.0
 10
12.8146564320335
 20
16.63066405681963
 30
0.0
 10
10.53026481772548
 20
18.16336778547482
 30
0.0
 10
9.300552511863568
 20
18.82370160814894
 30
0.0
 10
6.733883304233699
 20
19.88685080407464
 30
0.0
 10
5.397418869990467
 20
20.28946219059843
 30
0.0
 10
2.698324868545588
 20
20.82098579187934
 30
0.0
 10
1.33620298467477
 20
20.95000000000035
 30
0.0
 10
0.0
 20
20.95000000000034
 30
0.0
  0
CIRCLE
  5
1A2
330
1B
100
AcDbEntity
 67
     1
  8
0
  6
Continuous
 62
     7
370
    25
100
AcDbCircle
 10
0.0
 20
0.0
 30
0.0
 40
30.50000000000001
  0
CIRCLE
  5
1A3
330
1B
100
AcDbEntity
 67
     1
  8
0
  6
Continuous
 62
     7
370
    25
100
AcDbCircle
 10
0.0
 20
0.0
 30
0.0
 40
32.5
  0
CIRCLE
  5
1A4
330
1B
100
AcDbEntity
 67
     1
  8
0
  6
Continuous
 62
     7
370
    25
100
AcDbCircle
 10
0.0
 20
0.0
 30
0.0
 40
35.00000000000002
  0
CIRCLE
  5
1A5
330
1B
100
AcDbEntity
 67
     1
  8
0
  6
Continuous
 62
     7
370
    25
100
AcDbCircle
 10
0.0
 20
0.0
 30
0.0
 40
16.0
  0
LINE
  5
1A6
330
1B
100
AcDbEntity
 67
     1
  8
0
  6
Continuous
 62
     7
370
    25
100
AcDbLine
 10
0.0
 20
20.95
 30
0.0
 11
0.0
 21
19.45
 31
0.0
  0
LINE
  5
1A7
330
1B
100
AcDbEntity
 67
     1
  8
0
  6
Continuous
 62
     7
370
    25
100
AcDbLine
 10
1.5
 20
19.45
 30
0.0
 11
0.0
 21
19.45
 31
0.0
  0
LINE
  5
1A8
330
1B
100
AcDbEntity
 67
     1
  8
0
  6
Continuous
 62
     7
370
    25
100
AcDbLine
 10
-19.7505766034
 20
-10.7779740133
 30
0.0
 11
-21.8390512613
 21
5.4134868619
 31
0.0
  0
LINE
  5
1A9
330
1B
100
AcDbEntity
 67
     1
  8
0
  6
Continuous
 62
     7
370
    25
100
AcDbLine
 10
-0.5412890049
 20
-22.4934880846
 30
0.0
 11
-15.6077427762
 21
-16.2064297559
 31
0.0
  0
LINE
  5
1AA
330
1B
100
AcDbEntity
 67
     1
  8
0
  6
Continuous
 62
     7
370
    25
100
AcDbLine
 10
19.7505766034
 20
10.7779740133
 30
0.0
 11
21.8390512613
 21
-5.4134868619
 31
0.0
  0
LINE
  5
1AB
330
1B
100
AcDbEntity
 67
     1
  8
0
  6
Continuous
 62
     7
370
    25
100
AcDbLine
 10
0.5412890049
 20
22.4934880846
 30
0.0
 11
15.6077427762
 21
16.2064297559
 31
0.0
  0
LINE
  5
1AC
330
1B
100
AcDbEntity
 67
     1
  8
0
  6
Continuous
 62
     7
370
    25
100
AcDbLine
 10
19.2092875986
 20
-11.7155140713
 30
0.0
 11
6.2313084852
 21
-21.6199166178
 31
0.0
  0
LINE
  5
1AD
330
1B
100
AcDbEntity
 67
     1
  8
0
  6
Continuous
 62
     7
370
    25
100
AcDbLine
 10
-19.2092875986
 20
11.7155140713
 30
0.0
 11
-6.2313084852
 21
21.6199166178
 31
0.0
  0
ARC
  5
1AE
330
1B
100
AcDbEntity
 67
     1
  8
0
  6
Continuous
 62
     7
370
    25
100
AcDbCircle
 10
0.0
 20
19.45
 30
0.0
 40
1.500000000000007
100
AcDbArc
 50
0.0
 51
90.0
  0
ARC
  5
1AF
330
1B
100
AcDbEntity
 67
     1
  8
0
  6
Continuous
 62
     7
370
    25
100
AcDbCircle
 10
0.0
 20
0.0
 30
0.0
 40
22.5
100
AcDbArc
 50
148.621485876
 51
106.0780789255
  0
VIEWPORT
  5
1B0
330
1B
100
AcDbEntity
 67
     1
  8
0
100
AcDbViewport
 10
0.0
 20
0.0
 30
0.0
 40
205.6
 41
156.0
 68
     1
 69
     1
 12
46.9290317264
 22
0.0
 13
0.0
 23
0.0
 14
10.0
 24
10.0
 15
10.0
 25
10.0
 16
0.0
 26
0.0
 36
1.0
 17
0.0
 27
0.0
 37
0.0
 42
50.0
 43
0.0
 44
0.0
 45
93.6455252918
 50
0.0
 51
0.0
 72
   100
 90
   557152
  1

281
     0
 71
     1
 74
     0
110
0.0
120
0.0
130
0.0
111
1.0
121
0.0
131
0.0
112
0.0
122
1.0
132
0.0
 79
     0
146
0.0
  0
ENDSEC
  0
SECTION
  2
OBJECTS
  0
DICTIONARY
  5
C
330
0
100
AcDbDictionary
281
     1
  3
ACAD_GROUP
350
D
  3
ACAD_LAYOUT
350
1A
  3
ACAD_MLINESTYLE
350
17
  3
ACAD_PLOTSETTINGS
350
19
  3
ACAD_PLOTSTYLENAME
350
E
  3
ACAD_SCALELIST
350
47
  0
DICTIONARY
  5
D
102
{ACAD_REACTORS
330
C
102
}
330
C
100
AcDbDictionary
281
     1
  0
DICTIONARY
  5
1A
102
{ACAD_REACTORS
330
C
102
}
330
C
100
AcDbDictionary
281
     1
  3
_Left
350
1E
  3
Layout2
350
26
  3
Model
350
22
  0
DICTIONARY
  5
17
102
{ACAD_REACTORS
330
C
102
}
330
C
100
AcDbDictionary
281
     1
  3
Standard
350
18
  0
DICTIONARY
  5
19
102
{ACAD_REACTORS
330
C
102
}
330
C
100
AcDbDictionary
281
     1
  0
ACDBDICTIONARYWDFLT
  5
E
102
{ACAD_REACTORS
330
C
102
}
330
C
100
AcDbDictionary
281
     1
  3
Normal
350
F
100
AcDbDictionaryWithDefault
340
F
  0
DICTIONARY
  5
47
102
{ACAD_REACTORS
330
C
102
}
330
C
100
AcDbDictionary
281
     1
  3
A0
350
48
  3
A1
350
49
  3
A2
350
4A
  3
A3
350
4B
  3
A4
350
4C
  3
A5
350
4D
  3
A6
350
4E
  3
A7
350
4F
  3
A8
350
50
  3
A9
350
51
  3
B0
350
52
  3
B1
350
53
  3
B2
350
54
  3
B3
350
55
  3
B4
350
56
  3
B5
350
57
  3
B6
350
58
  3
B7
350
59
  3
B8
350
5A
  3
B9
350
5B
  3
C0
350
5C
  3
C1
350
5D
  3
C2
350
5E
  3
C3
350
5F
  3
C4
350
60
  3
C5
350
61
  3
C6
350
62
  3
C7
350
63
  3
C8
350
64
  3
C9
350
65
  3
D0
350
66
  3
D1
350
67
  3
D2
350
68
  0
LAYOUT
  5
1E
102
{ACAD_REACTORS
330
1A
102
}
330
1A
100
AcDbPlotSettings
  1

  2
none_device
  4
ISO_A4_(210.00_x_297.00_MM)
  6

 40
7.5
 41
20.0
 42
7.5
 43
20.0
 44
210.0
 45
297.0
 46
0.0
 47
0.0
 48
0.0
 49
0.0
140
0.0
141
0.0
142
1.0
143
0.358974359
 70
   688
 72
     1
 73
     1
 74
     1
  7

 75
     0
147
2.7857142857
148
35.0
149
35.0
100
AcDbLayout
  1
_Left
 70
     1
 71
     1
 10
-42.1794871795
 20
-37.6923076923
 11
64.4358974359
 21
37.6923076923
 12
0.0
 22
0.0
 32
0.0
 14
-35.0
 24
-35.0
 34
0.0
 15
35.0
 25
35.0
 35
0.0
146
0.0
 13
0.0
 23
0.0
 33
0.0
 16
1.0
 26
0.0
 36
0.0
 17
0.0
 27
1.0
 37
0.0
 76
     0
330
1B
331
1B0
  0
LAYOUT
  5
26
102
{ACAD_REACTORS
330
1A
102
}
330
1A
100
AcDbPlotSettings
  1

  2
none_device
  4

  6

 40
0.0
 41
0.0
 42
0.0
 43
0.0
 44
0.0
 45
0.0
 46
0.0
 47
0.0
 48
0.0
 49
0.0
140
0.0
141
0.0
142
1.0
143
1.0
 70
   688
 72
     1
 73
     0
 74
     5
  7

 75
    16
147
1.0
148
0.0
149
0.0
100
AcDbLayout
  1
Layout2
 70
     1
 71
     2
 10
0.0
 20
0.0
 11
0.0
 21
0.0
 12
0.0
 22
0.0
 32
0.0
 14
0.0
 24
0.0
 34
0.0
 15
0.0
 25
0.0
 35
0.0
146
0.0
 13
0.0
 23
0.0
 33
0.0
 16
1.0
 26
0.0
 36
0.0
 17
0.0
 27
1.0
 37
0.0
 76
     0
330
23
  0
LAYOUT
  5
22
102
{ACAD_REACTORS
330
1A
102
}
330
1A
100
AcDbPlotSettings
  1

  2
none_device
  4
ANSI_A_(11.00_x_8.50_Inches)
  6

 40
6.35
 41
19.05
 42
6.35000508
 43
19.05000254
 44
279.4
 45
215.9
 46
26.0702309334
 47
88.89999873
 48
0.0
 49
0.0
140
0.0
141
0.0
142
0.09
143
1.0
 70
  1696
 72
     0
 73
     0
 74
     0
  7

 75
     0
147
0.0179189148
148
-1300.4909072572
149
0.0
100
AcDbLayout
  1
Model
 70
     1
 71
     0
 10
0.0
 20
0.0
 11
420.0
 21
297.0
 12
0.0
 22
0.0
 32
0.0
 14
-13.5709682736
 24
-35.0
 34
0.0
 15
107.4290317264
 25
35.0
 35
0.0
146
0.0
 13
0.0
 23
0.0
 33
0.0
 16
1.0
 26
0.0
 36
0.0
 17
0.0
 27
1.0
 37
0.0
 76
     0
330
1F
331
29
  0
MLINESTYLE
  5
18
102
{ACAD_REACTORS
330
17
102
}
330
17
100
AcDbMlineStyle
  2
Standard
 70
     0
  3

 62
   256
 51
90.0
 52
90.0
 71
     2
 49
0.5
 62
   256
  6
BYLAYER
 49
-0.5
 62
   256
  6
BYLAYER
  0
ACDBPLACEHOLDER
  5
F
102
{ACAD_REACTORS
330
E
102
}
330
E
  0
SCALE
  5
48
102
{ACAD_REACTORS
330
47
102
}
330
47
100
AcDbScale
 70
     0
300
1:1
140
1.0
141
1.0
290
     1
  0
SCALE
  5
49
102
{ACAD_REACTORS
330
47
102
}
330
47
100
AcDbScale
 70
     0
300
1:2
140
1.0
141
2.0
290
     0
  0
SCALE
  5
4A
102
{ACAD_REACTORS
330
47
102
}
330
47
100
AcDbScale
 70
     0
300
1:4
140
1.0
141
4.0
290
     0
  0
SCALE
  5
4B
102
{ACAD_REACTORS
330
47
102
}
330
47
100
AcDbScale
 70
     0
300
1:5
140
1.0
141
5.0
290
     0
  0
SCALE
  5
4C
102
{ACAD_REACTORS
330
47
102
}
330
47
100
AcDbScale
 70
     0
300
1:8
140
1.0
141
8.0
290
     0
  0
SCALE
  5
4D
102
{ACAD_REACTORS
330
47
102
}
330
47
100
AcDbScale
 70
     0
300
1:10
140
1.0
141
10.0
290
     0
  0
SCALE
  5
4E
102
{ACAD_REACTORS
330
47
102
}
330
47
100
AcDbScale
 70
     0
300
1:16
140
1.0
141
16.0
290
     0
  0
SCALE
  5
4F
102
{ACAD_REACTORS
330
47
102
}
330
47
100
AcDbScale
 70
     0
300
1:20
140
1.0
141
20.0
290
     0
  0
SCALE
  5
50
102
{ACAD_REACTORS
330
47
102
}
330
47
100
AcDbScale
 70
     0
300
1:30
140
1.0
141
30.0
290
     0
  0
SCALE
  5
51
102
{ACAD_REACTORS
330
47
102
}
330
47
100
AcDbScale
 70
     0
300
1:40
140
1.0
141
40.0
290
     0
  0
SCALE
  5
52
102
{ACAD_REACTORS
330
47
102
}
330
47
100
AcDbScale
 70
     0
300
1:50
140
1.0
141
50.0
290
     0
  0
SCALE
  5
53
102
{ACAD_REACTORS
330
47
102
}
330
47
100
AcDbScale
 70
     0
300
1:100
140
1.0
141
100.0
290
     0
  0
SCALE
  5
54
102
{ACAD_REACTORS
330
47
102
}
330
47
100
AcDbScale
 70
     0
300
2:1
140
2.0
141
1.0
290
     0
  0
SCALE
  5
55
102
{ACAD_REACTORS
330
47
102
}
330
47
100
AcDbScale
 70
     0
300
4:1
140
4.0
141
1.0
290
     0
  0
SCALE
  5
56
102
{ACAD_REACTORS
330
47
102
}
330
47
100
AcDbScale
 70
     0
300
8:1
140
8.0
141
1.0
290
     0
  0
SCALE
  5
57
102
{ACAD_REACTORS
330
47
102
}
330
47
100
AcDbScale
 70
     0
300
10:1
140
10.0
141
1.0
290
     0
  0
SCALE
  5
58
102
{ACAD_REACTORS
330
47
102
}
330
47
100
AcDbScale
 70
     0
300
100:1
140
100.0
141
1.0
290
     0
  0
SCALE
  5
59
102
{ACAD_REACTORS
330
47
102
}
330
47
100
AcDbScale
 70
     0
300
1/128" = 1'-0"
140
0.0078125
141
12.0
290
     0
  0
SCALE
  5
5A
102
{ACAD_REACTORS
330
47
102
}
330
47
100
AcDbScale
 70
     0
300
1/64" = 1'-0"
140
0.015625
141
12.0
290
     0
  0
SCALE
  5
5B
102
{ACAD_REACTORS
330
47
102
}
330
47
100
AcDbScale
 70
     0
300
1/32" = 1'-0"
140
0.03125
141
12.0
290
     0
  0
SCALE
  5
5C
102
{ACAD_REACTORS
330
47
102
}
330
47
100
AcDbScale
 70
     0
300
1/16" = 1'-0"
140
0.0625
141
12.0
290
     0
  0
SCALE
  5
5D
102
{ACAD_REACTORS
330
47
102
}
330
47
100
AcDbScale
 70
     0
300
3/32" = 1'-0"
140
0.09375
141
12.0
290
     0
  0
SCALE
  5
5E
102
{ACAD_REACTORS
330
47
102
}
330
47
100
AcDbScale
 70
     0
300
1/8" = 1'-0"
140
0.125
141
12.0
290
     0
  0
SCALE
  5
5F
102
{ACAD_REACTORS
330
47
102
}
330
47
100
AcDbScale
 70
     0
300
3/16" = 1'-0"
140
0.1875
141
12.0
290
     0
  0
SCALE
  5
60
102
{ACAD_REACTORS
330
47
102
}
330
47
100
AcDbScale
 70
     0
300
1/4" = 1'-0"
140
0.25
141
12.0
290
     0
  0
SCALE
  5
61
102
{ACAD_REACTORS
330
47
102
}
330
47
100
AcDbScale
 70
     0
300
3/8" = 1'-0"
140
0.375
141
12.0
290
     0
  0
SCALE
  5
62
102
{ACAD_REACTORS
330
47
102
}
330
47
100
AcDbScale
 70
     0
300
1/2" = 1'-0"
140
0.5
141
12.0
290
     0
  0
SCALE
  5
63
102
{ACAD_REACTORS
330
47
102
}
330
47
100
AcDbScale
 70
     0
300
3/4" = 1'-0"
140
0.75
141
12.0
290
     0
  0
SCALE
  5
64
102
{ACAD_REACTORS
330
47
102
}
330
47
100
AcDbScale
 70
     0
300
1" = 1'-0"
140
1.0
141
12.0
290
     0
  0
SCALE
  5
65
102
{ACAD_REACTORS
330
47
102
}
330
47
100
AcDbScale
 70
     0
300
1-1/2" = 1'-0"
140
1.5
141
12.0
290
     0
  0
SCALE
  5
66
102
{ACAD_REACTORS
330
47
102
}
330
47
100
AcDbScale
 70
     0
300
3" = 1'-0"
140
3.0
141
12.0
290
     0
  0
SCALE
  5
67
102
{ACAD_REACTORS
330
47
102
}
330
47
100
AcDbScale
 70
     0
300
6" = 1'-0"
140
6.0
141
12.0
290
     0
  0
SCALE
  5
68
102
{ACAD_REACTORS
330
47
102
}
330
47
100
AcDbScale
 70
     0
300
1'-0" = 1'-0"
140
12.0
141
12.0
290
     0
  0
ENDSEC
  0
EOF
