  0
SECTION
  2
HEADER
  9
$ACADVER
  1
AC1015
  9
$ACADMAINTVER
 70
     6
  9
$DWGCODEPAGE
  3
ANSI_1252
  9
$INSBASE
 10
0.0
 20
0.0
 30
0.0
  9
$EXTMIN
 10
-79.8
 20
-56.5
 30
0.0
  9
$EXTMAX
 10
95.0176500761
 20
95.0176500761
 30
0.0
  9
$LIMMIN
 10
0.0
 20
0.0
  9
$LIMMAX
 10
420.0
 20
297.0
  9
$ORTHOMODE
 70
     0
  9
$REGENMODE
 70
     1
  9
$FILLMODE
 70
     1
  9
$QTEXTMODE
 70
     0
  9
$MIRRTEXT
 70
     1
  9
$LTSCALE
 40
1.0
  9
$ATTMODE
 70
     1
  9
$TEXTSIZE
 40
6.35
  9
$TRACEWID
 40
1.0
  9
$TEXTSTYLE
  7
Standard
  9
$CLAYER
  8
0
  9
$CELTYPE
  6
ByLayer
  9
$CECOLOR
 62
   256
  9
$CELTSCALE
 40
1.0
  9
$DISPSILH
 70
     0
  9
$DIMSCALE
 40
1.0
  9
$DIMASZ
 40
5.9944
  9
$DIMEXO
 40
0.9906
  9
$DIMDLI
 40
3.75
  9
$DIMRND
 40
0.0
  9
$DIMDLE
 40
0.0
  9
$DIMEXE
 40
0.9906
  9
$DIMTP
 40
0.0
  9
$DIMTM
 40
0.0
  9
$DIMTXT
 40
6.35
  9
$DIMCEN
 40
2.5
  9
$DIMTSZ
 40
0.0
  9
$DIMTOL
 70
     0
  9
$DIMLIM
 70
     0
  9
$DIMTIH
 70
     1
  9
$DIMTOH
 70
     1
  9
$DIMSE1
 70
     0
  9
$DIMSE2
 70
     0
  9
$DIMTAD
 70
     1
  9
$DIMZIN
 70
     0
  9
$DIMBLK
  1

  9
$DIMASO
 70
     1
  9
$DIMSHO
 70
     1
  9
$DIMPOST
  1

  9
$DIMAPOST
  1

  9
$DIMALT
 70
     0
  9
$DIMALTD
 70
     3
  9
$DIMALTF
 40
0.0393700787
  9
$DIMLFAC
 40
1.0
  9
$DIMTOFL
 70
     1
  9
$DIMTVP
 40
0.0
  9
$DIMTIX
 70
     0
  9
$DIMSOXD
 70
     0
  9
$DIMSAH
 70
     0
  9
$DIMBLK1
  1

  9
$DIMBLK2
  1

  9
$DIMSTYLE
  2
ISO-25
  9
$DIMCLRD
 70
     0
  9
$DIMCLRE
 70
     0
  9
$DIMCLRT
 70
     0
  9
$DIMTFAC
 40
1.0
  9
$DIMGAP
 40
1.524
  9
$DIMJUST
 70
     0
  9
$DIMSD1
 70
     0
  9
$DIMSD2
 70
     0
  9
$DIMTOLJ
 70
     0
  9
$DIMTZIN
 70
     0
  9
$DIMALTZ
 70
     0
  9
$DIMALTTZ
 70
     0
  9
$DIMUPT
 70
     0
  9
$DIMDEC
 70
     2
  9
$DIMTDEC
 70
     2
  9
$DIMALTU
 70
     2
  9
$DIMALTTD
 70
     3
  9
$DIMTXSTY
  7
Standard
  9
$DIMAUNIT
 70
     0
  9
$DIMADEC
 70
     2
  9
$DIMALTRND
 40
0.0
  9
$DIMAZIN
 70
     0
  9
$DIMDSEP
 70
    44
  9
$DIMATFIT
 70
     3
  9
$DIMFRAC
 70
     0
  9
$DIMLDRBLK
  1

  9
$DIMLUNIT
 70
     2
  9
$DIMLWD
 70
    -2
  9
$DIMLWE
 70
    -2
  9
$DIMTMOVE
 70
     0
  9
$LUNITS
 70
     2
  9
$LUPREC
 70
     2
  9
$SKETCHINC
 40
1.0
  9
$FILLETRAD
 40
10.0
  9
$AUNITS
 70
     0
  9
$AUPREC
 70
     2
  9
$MENU
  1
.
  9
$ELEVATION
 40
0.0
  9
$PELEVATION
 40
0.0
  9
$THICKNESS
 40
0.0
  9
$LIMCHECK
 70
     0
  9
$CHAMFERA
 40
0.0
  9
$CHAMFERB
 40
0.0
  9
$CHAMFERC
 40
0.0
  9
$CHAMFERD
 40
0.0
  9
$SKPOLY
 70
     0
  9
$TDCREATE
 40
2458382.570663472
  9
$TDUCREATE
 40
2458382.528996806
  9
$TDUPDATE
 40
2458382.570694896
  9
$TDUUPDATE
 40
2458382.529028229
  9
$TDINDWG
 40
0.0000000116
  9
$TDUSRTIMER
 40
0.0000000116
  9
$USRTIMER
 70
     1
  9
$ANGBASE
 50
0.0
  9
$ANGDIR
 70
     0
  9
$PDMODE
 70
     0
  9
$PDSIZE
 40
-1.0
  9
$PLINEWID
 40
0.0
  9
$SPLFRAME
 70
     0
  9
$SPLINETYPE
 70
     6
  9
$SPLINESEGS
 70
     8
  9
$HANDSEED
  5
103
  9
$SURFTAB1
 70
     6
  9
$SURFTAB2
 70
     6
  9
$SURFTYPE
 70
     6
  9
$SURFU
 70
     6
  9
$SURFV
 70
     6
  9
$UCSBASE
  2

  9
$UCSNAME
  2

  9
$UCSORG
 10
0.0
 20
0.0
 30
0.0
  9
$UCSXDIR
 10
1.0
 20
0.0
 30
0.0
  9
$UCSYDIR
 10
0.0
 20
1.0
 30
0.0
  9
$UCSORTHOREF
  2

  9
$UCSORTHOVIEW
 70
     0
  9
$UCSORGTOP
 10
0.0
 20
0.0
 30
0.0
  9
$UCSORGBOTTOM
 10
0.0
 20
0.0
 30
0.0
  9
$UCSORGLEFT
 10
0.0
 20
0.0
 30
0.0
  9
$UCSORGRIGHT
 10
0.0
 20
0.0
 30
0.0
  9
$UCSORGFRONT
 10
0.0
 20
0.0
 30
0.0
  9
$UCSORGBACK
 10
0.0
 20
0.0
 30
0.0
  9
$PUCSBASE
  2

  9
$PUCSNAME
  2

  9
$PUCSORG
 10
0.0
 20
0.0
 30
0.0
  9
$PUCSXDIR
 10
1.0
 20
0.0
 30
0.0
  9
$PUCSYDIR
 10
0.0
 20
1.0
 30
0.0
  9
$PUCSORTHOREF
  2

  9
$PUCSORTHOVIEW
 70
     0
  9
$PUCSORGTOP
 10
0.0
 20
0.0
 30
0.0
  9
$PUCSORGBOTTOM
 10
0.0
 20
0.0
 30
0.0
  9
$PUCSORGLEFT
 10
0.0
 20
0.0
 30
0.0
  9
$PUCSORGRIGHT
 10
0.0
 20
0.0
 30
0.0
  9
$PUCSORGFRONT
 10
0.0
 20
0.0
 30
0.0
  9
$PUCSORGBACK
 10
0.0
 20
0.0
 30
0.0
  9
$USERI1
 70
     0
  9
$USERI2
 70
     0
  9
$USERI3
 70
     0
  9
$USERI4
 70
     0
  9
$USERI5
 70
     0
  9
$USERR1
 40
0.0
  9
$USERR2
 40
0.0
  9
$USERR3
 40
0.0
  9
$USERR4
 40
0.0
  9
$USERR5
 40
0.0
  9
$WORLDVIEW
 70
     1
  9
$SHADEDGE
 70
     3
  9
$SHADEDIF
 70
    70
  9
$TILEMODE
 70
     1
  9
$MAXACTVP
 70
    64
  9
$PINSBASE
 10
0.0
 20
0.0
 30
0.0
  9
$PLIMCHECK
 70
     0
  9
$PEXTMIN
 10
-79.8
 20
-75.5
 30
0.0
  9
$PEXTMAX
 10
95.0176500761
 20
56.5
 30
0.0
  9
$PLIMMIN
 10
-93.4044863872
 20
-80.6016823952
  9
$PLIMMAX
 10
108.6221364633
 20
62.2454246709
  9
$UNITMODE
 70
     0
  9
$VISRETAIN
 70
     1
  9
$PLINEGEN
 70
     0
  9
$PSLTSCALE
 70
     1
  9
$TREEDEPTH
 70
  3020
  9
$CMLSTYLE
  2
Standard
  9
$CMLJUST
 70
     0
  9
$CMLSCALE
 40
20.0
  9
$PROXYGRAPHICS
 70
     1
  9
$MEASUREMENT
 70
     1
  9
$CELWEIGHT
370
    -1
  9
$ENDCAPS
280
     0
  9
$JOINSTYLE
280
     0
  9
$LWDISPLAY
290
     1
  9
$INSUNITS
 70
     4
  9
$HYPERLINKBASE
  1

  9
$STYLESHEET
  1

  9
$XEDIT
290
     1
  9
$CEPSNTYPE
380
     0
  9
$PSTYLEMODE
290
     1
  9
$FINGERPRINTGUID
  2
{D486954D-2AAB-4B39-B37E-53904DE3D474}
  9
$VERSIONGUID
  2
{FAEB1C32-E019-11D5-929B-00C0DF256EC4}
  9
$EXTNAMES
290
     1
  9
$PSVPSCALE
 40
0.0
  9
$OLESTARTUP
290
     0
  0
ENDSEC
  0
SECTION
  2
CLASSES
  0
CLASS
  1
ACDBDICTIONARYWDFLT
  2
AcDbDictionaryWithDefault
  3
ObjectDBX Classes
 90
        0
280
     0
281
     0
  0
CLASS
  1
VISUALSTYLE
  2
AcDbVisualStyle
  3
ObjectDBX Classes
 90
     4095
280
     0
281
     0
  0
CLASS
  1
MATERIAL
  2
AcDbMaterial
  3
ObjectDBX Classes
 90
     1153
280
     0
281
     0
  0
CLASS
  1
SCALE
  2
AcDbScale
  3
ObjectDBX Classes
 90
     1153
280
     0
281
     0
  0
CLASS
  1
TABLESTYLE
  2
AcDbTableStyle
  3
ObjectDBX Classes
 90
     4095
280
     0
281
     0
  0
CLASS
  1
MLEADERSTYLE
  2
AcDbMLeaderStyle
  3
ACDB_MLEADERSTYLE_CLASS
 90
     4095
280
     0
281
     0
  0
CLASS
  1
SUN
  2
AcDbSun
  3
SCENEOE
 90
     1153
280
     0
281
     0
  0
CLASS
  1
ACDBPLACEHOLDER
  2
AcDbPlaceHolder
  3
ObjectDBX Classes
 90
        0
280
     0
281
     0
  0
CLASS
  1
LAYOUT
  2
AcDbLayout
  3
ObjectDBX Classes
 90
        0
280
     0
281
     0
  0
ENDSEC
  0
SECTION
  2
TABLES
  0
TABLE
  2
VPORT
  5
8
330
0
100
AcDbSymbolTable
 70
     1
  0
VPORT
  5
29
330
8
100
AcDbSymbolTableRecord
100
AcDbViewportTableRecord
  2
*Active
 70
     0
 10
0.0
 20
0.0
 11
1.0
 21
1.0
 12
7.608825038
 22
19.258825038
 13
0.0
 23
0.0
 14
10.0
 24
10.0
 15
10.0
 25
10.0
 16
0.0
 26
0.0
 36
1.0
 17
0.0
 27
0.0
 37
0.0
 40
154.5480030776
 41
1.1537774641
 42
50.0
 43
0.0
 44
0.0
 50
0.0
 51
0.0
 71
     0
 72
   100
 73
     1
 74
     3
 75
     0
 76
     0
 77
     0
 78
     0
281
     0
 65
     1
110
0.0
120
0.0
130
0.0
111
1.0
121
0.0
131
0.0
112
0.0
122
1.0
132
0.0
 79
     0
146
0.0
  0
ENDTAB
  0
TABLE
  2
LTYPE
  5
5
330
0
100
AcDbSymbolTable
 70
     6
  0
LTYPE
  5
14
330
5
100
AcDbSymbolTableRecord
100
AcDbLinetypeTableRecord
  2
ByBlock
 70
     0
  3

 72
    65
 73
     0
 40
0.0
  0
LTYPE
  5
15
330
5
100
AcDbSymbolTableRecord
100
AcDbLinetypeTableRecord
  2
ByLayer
 70
     0
  3

 72
    65
 73
     0
 40
0.0
  0
LTYPE
  5
16
330
5
100
AcDbSymbolTableRecord
100
AcDbLinetypeTableRecord
  2
Continuous
 70
     0
  3
Solid line
 72
    65
 73
     0
 40
0.0
  0
LTYPE
  5
6E
330
5
100
AcDbSymbolTableRecord
100
AcDbLinetypeTableRecord
  2
HIDDEN
 70
     0
  3
Hidden __ __ __ __ __ __ __ __ __ __ __ __ __ __
 72
    65
 73
     2
 40
1.905
 49
1.27
 74
     0
 49
-0.635
 74
     0
  0
LTYPE
  5
6F
330
5
100
AcDbSymbolTableRecord
100
AcDbLinetypeTableRecord
  2
PHANTOM
 70
     0
  3
Phantom ______  __  __  ______  __  __  ______
 72
    65
 73
     6
 40
12.7
 49
6.35
 74
     0
 49
-1.27
 74
     0
 49
1.27
 74
     0
 49
-1.27
 74
     0
 49
1.27
 74
     0
 49
-1.27
 74
     0
  0
LTYPE
  5
70
330
5
100
AcDbSymbolTableRecord
100
AcDbLinetypeTableRecord
  2
CENTER
 70
     0
  3
Center ____ _ ____ _ ____ _ ____ _ ____ _ ____
 72
    65
 73
     4
 40
10.16
 49
6.35
 74
     0
 49
-1.27
 74
     0
 49
1.27
 74
     0
 49
-1.27
 74
     0
  0
LTYPE
  5
71
330
5
100
AcDbSymbolTableRecord
100
AcDbLinetypeTableRecord
  2
CENTERX2
 70
     0
  3
Center (2x) ________  __  ________  __  _____
 72
    65
 73
     4
 40
20.32
 49
12.7
 74
     0
 49
-2.54
 74
     0
 49
2.54
 74
     0
 49
-2.54
 74
     0
  0
LTYPE
  5
72
330
5
100
AcDbSymbolTableRecord
100
AcDbLinetypeTableRecord
  2
DOT2
 70
     0
  3
Dot (.5x) ........................................
 72
    65
 73
     2
 40
0.635
 49
0.0
 74
     0
 49
-0.635
 74
     0
  0
ENDTAB
  0
TABLE
  2
LAYER
  5
2
330
0
100
AcDbSymbolTable
 70
     1
  0
LAYER
  5
10
330
2
100
AcDbSymbolTableRecord
100
AcDbLayerTableRecord
  2
0
 70
     0
 62
     7
  6
Continuous
370
    -3
390
F
  0
ENDTAB
  0
TABLE
  2
STYLE
  5
3
330
0
100
AcDbSymbolTable
 70
     1
  0
STYLE
  5
11
330
3
100
AcDbSymbolTableRecord
100
AcDbTextStyleTableRecord
  2
Standard
 70
     0
 40
0.0
 41
1.0
 50
0.0
 71
     0
 42
6.35
  3
txt
  4

  0
ENDTAB
  0
TABLE
  2
VIEW
  5
6
330
0
100
AcDbSymbolTable
 70
     0
  0
ENDTAB
  0
TABLE
  2
UCS
  5
7
330
0
100
AcDbSymbolTable
 70
     0
  0
ENDTAB
  0
TABLE
  2
APPID
  5
9
330
0
100
AcDbSymbolTable
 70
     1
  0
APPID
  5
12
330
9
100
AcDbSymbolTableRecord
100
AcDbRegAppTableRecord
  2
ACAD
 70
     0
  0
ENDTAB
  0
TABLE
  2
DIMSTYLE
  5
A
330
0
100
AcDbSymbolTable
 70
     1
100
AcDbDimStyleTable
  0
DIMSTYLE
105
27
330
A
100
AcDbSymbolTableRecord
100
AcDbDimStyleTableRecord
  2
ISO-25
 70
     0
 41
2.5
 42
0.625
 43
3.75
 44
1.25
 73
     0
 74
     0
 77
     1
 78
     8
140
2.5
141
2.5
143
0.0393700787
147
0.625
171
     3
172
     1
178
     0
271
     2
272
     2
274
     3
278
    44
283
     0
284
     8
340
11
  0
ENDTAB
  0
TABLE
  2
BLOCK_RECORD
  5
1
330
0
100
AcDbSymbolTable
 70
     1
  0
BLOCK_RECORD
  5
1F
330
1
100
AcDbSymbolTableRecord
100
AcDbBlockTableRecord
  2
*Model_Space
340
22
  0
BLOCK_RECORD
  5
1B
330
1
100
AcDbSymbolTableRecord
100
AcDbBlockTableRecord
  2
*Paper_Space
340
1E
  0
BLOCK_RECORD
  5
23
330
1
100
AcDbSymbolTableRecord
100
AcDbBlockTableRecord
  2
*Paper_Space0
340
26
  0
ENDTAB
  0
ENDSEC
  0
SECTION
  2
BLOCKS
  0
BLOCK
  5
20
330
1F
100
AcDbEntity
  8
0
100
AcDbBlockBegin
  2
*Model_Space
 70
     0
 10
0.0
 20
0.0
 30
0.0
  3
*Model_Space
  1

  0
ENDBLK
  5
21
330
1F
100
AcDbEntity
  8
0
100
AcDbBlockEnd
  0
BLOCK
  5
1C
330
1B
100
AcDbEntity
 67
     1
  8
0
100
AcDbBlockBegin
  2
*Paper_Space
 70
     0
 10
0.0
 20
0.0
 30
0.0
  3
*Paper_Space
  1

  0
ENDBLK
  5
1D
330
1B
100
AcDbEntity
 67
     1
  8
0
100
AcDbBlockEnd
  0
BLOCK
  5
24
330
23
100
AcDbEntity
  8
0
100
AcDbBlockBegin
  2
*Paper_Space0
 70
     0
 10
0.0
 20
0.0
 30
0.0
  3
*Paper_Space0
  1

  0
CIRCLE
  5
DE
330
23
100
AcDbEntity
  8
0
  6
Continuous
 62
     7
370
    25
100
AcDbCircle
 10
0.0
 20
0.0
 30
0.0
 40
46.62916666486603
  0
CIRCLE
  5
DF
330
23
100
AcDbEntity
  8
0
  6
Continuous
 62
     7
370
    25
100
AcDbCircle
 10
0.0
 20
0.0
 30
0.0
 40
54.57524940242964
  0
SPLINE
  5
E0
330
23
100
AcDbEntity
  8
0
  6
Continuous
 62
     7
370
    25
100
AcDbSpline
210
0.0
220
0.0
230
1.0
 70
     8
 71
     3
 72
    21
 73
    17
 74
     0
 42
0.000000001
 43
0.00000001
 40
0.0
 40
0.0
 40
0.0
 40
0.0
 40
0.0705228173134047
 40
0.1430926922786898
 40
0.2136147963312839
 40
0.2861810155126389
 40
0.3567161021900028
 40
0.4292982436284132
 40
0.4998104454385203
 40
0.5723655883178808
 40
0.6429079798246421
 40
0.7155010678131649
 40
0.7859432018347255
 40
0.8584414472488998
 40
0.9286576749532126
 40
1.0
 40
1.0
 40
1.0
 40
1.0
 10
54.85580733871794
 20
-4.596114685935778
 30
0.0
 10
54.8558709140092
 20
-4.329176922352351
 30
0.0
 10
54.85599990998438
 20
-3.787553023632338
 30
0.0
 10
54.86528529155416
 20
-2.837355650884811
 30
0.0
 10
54.87467881407846
 20
-1.80705352640342
 30
0.0
 10
54.88112328242714
 20
-0.7324720017609886
 30
0.0
 10
54.88209477115837
 20
0.372197492551761
 30
0.0
 10
54.87731808828534
 20
1.456505575485018
 30
0.0
 10
54.86840662688446
 20
2.508970575834588
 30
0.0
 10
54.85896976939463
 20
3.481108128203247
 30
0.0
 10
54.85374313035793
 20
4.363130423128396
 30
0.0
 10
54.85830673829243
 20
5.113418622796389
 30
0.0
 10
54.87812685216269
 20
5.725497595228051
 30
0.0
 10
54.91777619809292
 20
6.166114813727057
 30
0.0
 10
54.97857684736196
 20
6.447845885583305
 30
0.0
 10
55.0380277033005
 20
6.481754001691745
 30
0.0
 10
55.06798959685089
 20
6.498842929164645
 30
0.0
  0
SPLINE
  5
E1
330
23
100
AcDbEntity
  8
0
  6
Continuous
 62
     7
370
    25
100
AcDbSpline
210
0.0
220
0.0
230
1.0
 70
     8
 71
     3
 72
    12
 73
     8
 74
     0
 42
0.000000001
 43
0.00000001
 40
0.0
 40
0.0
 40
0.0
 40
0.0
 40
0.0666760035126284
 40
0.2867800783016772
 40
0.4982162972832893
 40
0.7158451694380947
 40
1.0
 40
1.0
 40
1.0
 40
1.0
 10
55.07008738747844
 20
-6.480482996304927
 30
0.0
 10
55.05949243811627
 20
-6.485987605355403
 30
0.0
 10
55.01392251419139
 20
-6.509663472704253
 30
0.0
 10
54.95711250730303
 20
-6.362469301969587
 30
0.0
 10
54.90139388560547
 20
-6.034777689393526
 30
0.0
 10
54.86505767458917
 20
-5.482684317853405
 30
0.0
 10
54.85915178298531
 20
-4.916652530654962
 30
0.0
 10
54.85580733871794
 20
-4.596114685935778
 30
0.0
  0
CIRCLE
  5
E4
330
23
100
AcDbEntity
  8
0
  6
Continuous
 62
     7
370
    25
100
AcDbCircle
 10
0.0
 20
0.0
 30
0.0
 40
46.129166666977
  0
CIRCLE
  5
E5
330
23
100
AcDbEntity
  8
0
  6
Continuous
 62
     7
370
    25
100
AcDbCircle
 10
0.0
 20
0.0
 30
0.0
 40
45.65000000041849
  0
LWPOLYLINE
  5
E8
330
23
100
AcDbEntity
  8
0
  6
Continuous
 62
     7
370
    25
100
AcDbPolyline
 90
       57
 70
   128
 43
0.0
 10
56.5
 20
40.8707719526
 10
56.4769588948
 20
42.0116299621
 10
56.2927427937
 20
44.2896247395
 10
55.9249114663
 20
46.5564679297
 10
55.3746647017
 20
48.8047655615
 10
54.6437972907
 20
51.0271841552
 10
53.7346931707
 20
53.2164746433
 10
52.6503176504
 20
55.3654960153
 10
51.3942077375
 20
57.4672386101
 10
49.9704606014
 20
59.5148469804
 10
48.3837202092
 20
61.5016422531
 10
46.6391621784
 20
63.4211439151
 10
44.7424768946
 20
65.2670909509
 10
42.699850951
 20
67.0334622649
 10
40.5179469689
 20
68.7144963212
 10
38.2038818655
 20
70.3047099359
 10
35.7652036402
 20
71.7989161628
 10
33.2098667545
 20
73.1922412118
 10
30.5462061862
 20
74.4801403461
 10
27.7829102425
 20
75.6584127066
 10
24.9289922202
 20
76.7232150136
 10
21.9937610069
 20
77.6710741033
 10
18.9867907167
 20
78.4988982565
 10
15.9178894615
 20
79.2039872827
 10
12.7970673596
 20
79.7840413282
 10
9.6345038837
 20
80.2371683772
 10
6.4405146588
 20
80.5618904234
 10
3.2255178137
 20
80.7571482911
 10
0.0
 20
80.8223050896
 10
-3.2255178137
 20
80.7571482911
 10
-6.4405146588
 20
80.5618904234
 10
-9.6345038837
 20
80.2371683772
 10
-12.7970673596
 20
79.7840413282
 10
-15.9178894615
 20
79.2039872827
 10
-18.9867907167
 20
78.4988982565
 10
-21.9937610069
 20
77.6710741033
 10
-24.9289922202
 20
76.7232150136
 10
-27.7829102425
 20
75.6584127066
 10
-30.5462061862
 20
74.4801403461
 10
-33.2098667545
 20
73.1922412118
 10
-35.7652036402
 20
71.7989161628
 10
-38.2038818655
 20
70.3047099359
 10
-40.5179469689
 20
68.7144963212
 10
-42.699850951
 20
67.0334622649
 10
-44.7424768946
 20
65.2670909509
 10
-46.6391621784
 20
63.4211439151
 10
-48.3837202092
 20
61.5016422531
 10
-49.9704606014
 20
59.5148469804
 10
-51.3942077375
 20
57.4672386101
 10
-52.6503176504
 20
55.3654960153
 10
-53.7346931707
 20
53.2164746433
 10
-54.6437972907
 20
51.0271841552
 10
-55.3746647017
 20
48.8047655615
 10
-55.9249114663
 20
46.5564679297
 10
-56.2927427937
 20
44.2896247395
 10
-56.4769588948
 20
42.0116299621
 10
-56.5
 20
40.8707719526
  0
CIRCLE
  5
E9
330
23
100
AcDbEntity
  8
0
  6
Continuous
 62
     7
370
    25
100
AcDbCircle
 10
0.0
 20
0.0
 30
0.0
 40
44.24999999999887
  0
LWPOLYLINE
  5
EA
330
23
100
AcDbEntity
  8
0
  6
Continuous
 62
     7
370
    25
100
AcDbPolyline
 90
       45
 70
   128
 43
0.0
 10
43.4833194455
 20
8.2014285341
 10
43.140560114
 20
7.038151051
 10
42.4210524969
 20
5.0979954382
 10
41.5272276757
 20
3.1944230066
 10
40.4627585684
 20
1.3352559437
 10
39.232019307
 20
-0.4718660342
 10
37.840067263
 20
-2.2195170753
 10
36.2926222659
 20
-3.9005157065
 10
34.5960430992
 20
-5.507954344
 10
32.7573013706
 20
-7.0352276776
 10
30.7839528642
 20
-8.4760598136
 10
28.6841064924
 20
-9.8245300636
 10
26.4663909742
 20
-11.0750972741
 10
24.1399193786
 20
-12.2226225963
 10
21.7142516762
 20
-13.2623906025
 10
19.199355456
 20
-14.1901286628
 10
16.6055649659
 20
-15.0020245026
 10
13.9435386475
 20
-15.6947418677
 10
11.224215338
 20
-16.2654342339
 10
8.45876932
 20
-16.7117565039
 10
5.6585644045
 20
-17.0318746437
 10
2.8351072341
 20
-17.2244732191
 10
0.0
 20
-17.2887608014
 10
-2.8351072341
 20
-17.2244732191
 10
-5.6585644045
 20
-17.0318746437
 10
-8.45876932
 20
-16.7117565039
 10
-11.224215338
 20
-16.2654342339
 10
-13.9435386475
 20
-15.6947418677
 10
-16.6055649659
 20
-15.0020245026
 10
-19.199355456
 20
-14.1901286628
 10
-21.7142516762
 20
-13.2623906025
 10
-24.1399193786
 20
-12.2226225963
 10
-26.4663909742
 20
-11.0750972741
 10
-28.6841064924
 20
-9.8245300636
 10
-30.7839528642
 20
-8.4760598136
 10
-32.7573013706
 20
-7.0352276776
 10
-34.5960430992
 20
-5.507954344
 10
-36.2926222659
 20
-3.9005157065
 10
-37.840067263
 20
-2.2195170753
 10
-39.232019307
 20
-0.4718660342
 10
-40.4627585684
 20
1.3352559437
 10
-41.5272276757
 20
3.1944230066
 10
-42.4210524969
 20
5.0979954382
 10
-43.140560114
 20
7.038151051
 10
-43.4833194455
 20
8.2014285341
  0
LWPOLYLINE
  5
EB
330
23
100
AcDbEntity
  8
0
  6
Continuous
 62
     7
370
    25
100
AcDbPolyline
 90
       30
 70
   128
 43
0.0
 10
35.1308490203
 20
26.9051286396
 10
34.4999680696
 20
26.3790480345
 10
32.5344889237
 20
24.8743699747
 10
30.4380048738
 20
23.4608681125
 10
28.2189577212
 20
22.1442341211
 10
25.8862827856
 20
20.9297696208
 10
23.4493729255
 20
19.8223648317
 10
20.918040717
 20
18.8264788817
 10
18.3024789415
 20
17.9461218524
 10
15.613219543
 20
17.1848386305
 10
12.8610912199
 20
16.5456946351
 10
10.0571758218
 20
16.0312634734
 10
7.2127637262
 20
15.6436165781
 10
4.3393083769
 20
15.3843148664
 10
1.4483801642
 20
15.2544024549
 10
-1.4483801642
 20
15.2544024549
 10
-4.3393083769
 20
15.3843148664
 10
-7.2127637263
 20
15.6436165781
 10
-10.0571758218
 20
16.0312634734
 10
-12.8610912199
 20
16.5456946351
 10
-15.613219543
 20
17.1848386305
 10
-18.3024789415
 20
17.9461218524
 10
-20.918040717
 20
18.8264788817
 10
-23.4493729255
 20
19.8223648317
 10
-25.8862827856
 20
20.9297696208
 10
-28.2189577212
 20
22.1442341211
 10
-30.4380048738
 20
23.4608681125
 10
-32.5344889237
 20
24.8743699747
 10
-34.4999680696
 20
26.3790480345
 10
-35.1308490203
 20
26.9051286396
  0
SPLINE
  5
EC
330
23
100
AcDbEntity
  8
0
  6
Continuous
 62
     7
370
    25
100
AcDbSpline
210
0.0
220
0.0
230
1.0
 70
     8
 71
     3
 72
    16
 73
    12
 74
     0
 42
0.000000001
 43
0.00000001
 40
0.0
 40
0.0
 40
0.0
 40
0.0
 40
0.1012666318680713
 40
0.2168989381306062
 40
0.3358761026759433
 40
0.4515691205240241
 40
0.5706859677228949
 40
0.6851744525446175
 40
0.8030359343971901
 40
0.9166528542848462
 40
1.0
 40
1.0
 40
1.0
 40
1.0
 10
55.60940660335028
 20
49.78826127568122
 30
0.0
 10
55.56961880741988
 20
50.10433342686448
 30
0.0
 10
55.4843989227583
 20
50.78131569337864
 30
0.0
 10
55.35003826086205
 20
51.78947303441406
 30
0.0
 10
55.2190075949561
 20
52.77436470758858
 30
0.0
 10
55.1023367221148
 20
53.67098176912221
 30
0.0
 10
55.00797849123307
 20
54.43399698860738
 30
0.0
 10
54.93648830949508
 20
55.05784212005431
 30
0.0
 10
54.88982593060344
 20
55.50484505306265
 30
0.0
 10
54.86475413142652
 20
55.77576380446532
 30
0.0
 10
54.86059830703031
 20
55.81228811896386
 30
0.0
 10
54.85883973192954
 20
55.82774371668083
 30
0.0
  0
LWPOLYLINE
  5
ED
330
23
100
AcDbEntity
  8
0
  6
Continuous
 62
     7
370
    25
100
AcDbPolyline
 90
       53
 70
   128
 43
0.0
 10
-54.3659814404
 20
59.8033549402
 10
-54.2062310898
 20
60.9072081007
 10
-53.7461287341
 20
63.1282961639
 10
-53.1041664916
 20
65.326709572
 10
-52.2825165595
 20
67.49500959
 10
-51.283959141
 20
69.6258593769
 10
-50.1118730383
 20
71.7120488115
 10
-48.7702242198
 20
73.7465188893
 10
-47.2635524004
 20
75.7223856074
 10
-45.5969556806
 20
77.6329632583
 10
-43.7760732961
 20
79.471787052
 10
-41.8070665366
 20
81.2326349909
 10
-39.6965978976
 20
82.9095489229
 10
-37.451808537
 20
84.4968547021
 10
-35.0802941114
 20
85.9891813882
 10
-32.590079075
 20
87.3814794201
 10
-29.9895895271
 20
88.6690377019
 10
-27.2876247012
 20
89.847499544
 10
-24.493327191
 20
90.9128774045
 10
-21.6161520148
 20
91.861566382
 10
-18.6658346227
 20
92.6903564134
 10
-15.6523579546
 20
93.3964431354
 10
-12.5859186619
 20
93.9774373742
 10
-9.4768926044
 20
94.4313732291
 10
-6.3357997422
 20
94.7567147249
 10
-3.1732685393
 20
94.9523610089
 10
0.0
 20
95.0176500761
 10
3.1732685393
 20
94.9523610089
 10
6.3357997422
 20
94.7567147249
 10
9.4768926045
 20
94.4313732291
 10
12.5859186619
 20
93.9774373742
 10
15.6523579546
 20
93.3964431354
 10
18.6658346227
 20
92.6903564134
 10
21.6161520148
 20
91.861566382
 10
24.493327191
 20
90.9128774045
 10
27.2876247012
 20
89.847499544
 10
29.9895895271
 20
88.6690377019
 10
32.590079075
 20
87.3814794201
 10
35.0802941114
 20
85.9891813882
 10
37.451808537
 20
84.4968547021
 10
39.6965978976
 20
82.9095489229
 10
41.8070665366
 20
81.2326349909
 10
43.7760732961
 20
79.471787052
 10
45.5969556806
 20
77.6329632583
 10
47.2635524004
 20
75.7223856074
 10
48.7702242198
 20
73.7465188893
 10
50.1118730383
 20
71.7120488115
 10
51.283959141
 20
69.6258593769
 10
52.2825165595
 20
67.49500959
 10
53.1041664916
 20
65.326709572
 10
53.7461287341
 20
63.1282961639
 10
54.2062310898
 20
60.9072081007
 10
54.3659814404
 20
59.8033549402
  0
LWPOLYLINE
  5
EE
330
23
100
AcDbEntity
  8
0
  6
Continuous
 62
     7
370
    25
100
AcDbPolyline
 90
       25
 70
   128
 43
0.0
 10
30.7876112956
 20
31.7834153406
 10
29.4038374606
 20
30.9407768184
 10
27.1140438674
 20
29.6848519553
 10
24.7172435302
 20
28.5330712975
 10
22.2228955251
 20
27.4899803971
 10
19.640843904
 20
26.5596958575
 10
16.981278845
 20
25.7458890865
 10
14.2546964365
 20
25.0517718079
 10
11.4718572534
 20
24.4800833853
 10
8.6437438908
 20
24.0330800119
 10
5.78151762
 20
23.7125258056
 10
2.8964743405
 20
23.5196858475
 10
0.0
 20
23.4553211889
 10
-2.8964743405
 20
23.5196858475
 10
-5.78151762
 20
23.7125258056
 10
-8.6437438908
 20
24.0330800119
 10
-11.4718572534
 20
24.4800833853
 10
-14.2546964365
 20
25.0517718079
 10
-16.981278845
 20
25.7458890865
 10
-19.640843904
 20
26.5596958575
 10
-22.2228955251
 20
27.4899803971
 10
-24.7172435302
 20
28.5330712975
 10
-27.1140438674
 20
29.6848519553
 10
-29.4038374606
 20
30.9407768184
 10
-30.7876112956
 20
31.7834153406
  0
LWPOLYLINE
  5
F1
330
23
100
AcDbEntity
  8
0
  6
Continuous
 62
     8
370
    25
100
AcDbPolyline
 90
       57
 70
   128
 43
0.0
 10
-56.5
 20
0.0
 10
-56.4171378826
 20
3.1381329311
 10
-56.1687945792
 20
6.2670611776
 10
-55.7556985236
 20
9.3776070538
 10
-55.1790613976
 20
12.4606467928
 10
-54.4405745773
 20
15.5071373079
 10
-53.5424041718
 20
18.5081427174
 10
-52.4871846696
 20
21.4548605553
 10
-51.2780112114
 20
24.3386475907
 10
-49.9184305112
 20
27.1510451791
 10
-48.4124304535
 20
29.883804074
 10
-46.7644283959
 20
32.5289086226
 10
-44.9792582124
 20
35.0786002776
 10
-43.0621561147
 20
37.525400354
 10
-41.0187452937
 20
39.8621319656
 10
-38.8550194252
 20
42.081941076
 10
-36.5773250902
 20
44.1783166026
 10
-34.1923431584
 20
46.1451095148
 10
-31.707069193
 20
47.9765508701
 10
-29.1287929305
 20
49.6672687354
 10
-26.4650768995
 20
51.212303944
 10
-23.7237342382
 20
52.6071246413
 10
-20.9128057767
 20
53.847639578
 10
-18.0405364527
 20
54.93021011
 10
-15.1153511269
 20
55.8516608713
 10
-12.1458298719
 20
56.6092890882
 10
-9.1406828052
 20
57.2008725066
 10
-6.108724541
 20
57.6246759103
 10
-3.0588483351
 20
57.879456211
 10
0.0
 20
57.9644660941
 10
3.0588483351
 20
57.879456211
 10
6.108724541
 20
57.6246759103
 10
9.1406828052
 20
57.2008725066
 10
12.1458298719
 20
56.6092890882
 10
15.1153511269
 20
55.8516608713
 10
18.0405364527
 20
54.93021011
 10
20.9128057767
 20
53.847639578
 10
23.7237342382
 20
52.6071246413
 10
26.4650768995
 20
51.212303944
 10
29.1287929305
 20
49.6672687354
 10
31.707069193
 20
47.9765508701
 10
34.1923431584
 20
46.1451095148
 10
36.5773250902
 20
44.1783166026
 10
38.8550194252
 20
42.081941076
 10
41.0187452937
 20
39.8621319656
 10
43.0621561147
 20
37.525400354
 10
44.9792582124
 20
35.0786002776
 10
46.7644283959
 20
32.5289086226
 10
48.4124304535
 20
29.883804074
 10
49.9184305112
 20
27.1510451791
 10
51.2780112114
 20
24.3386475907
 10
52.4871846696
 20
21.4548605553
 10
53.5424041718
 20
18.5081427174
 10
54.4405745773
 20
15.5071373079
 10
55.1790613976
 20
12.4606467928
 10
55.7556985236
 20
9.3776070538
 10
56.1436364581
 20
6.5
  0
LWPOLYLINE
  5
F2
330
23
100
AcDbEntity
  8
0
  6
Continuous
 62
     8
370
    25
100
AcDbPolyline
 90
       46
 70
   128
 43
0.0
 10
43.5974207544
 20
7.5714862192
 10
43.517755022
 20
7.2566716996
 10
42.9096043296
 20
5.2824186077
 10
42.1225188957
 20
3.3400367803
 10
41.1597808977
 20
1.4376260263
 10
40.025404991
 20
-0.4168805265
 10
38.7241215677
 20
-2.2157495127
 10
37.2613570311
 20
-3.9514795777
 10
35.6432111669
 20
-5.6168326587
 10
33.8764317072
 20
-7.2048641678
 10
31.968386192
 20
-8.7089519509
 10
29.9270312462
 20
-10.1228239027
 10
27.7608794005
 20
-11.4405841214
 10
25.4789635935
 20
-12.656737495
 10
23.0907995039
 20
-13.7662126159
 10
20.6063458702
 20
-14.7643829292
 10
18.035962962
 20
-15.6470860254
 10
15.3903693773
 20
-16.4106409976
 10
12.6805973457
 20
-17.0518637917
 10
9.9179467233
 20
-17.5680804832
 10
7.1139378721
 20
-17.9571384282
 10
4.2802636196
 20
-18.2174152398
 10
1.4287404991
 20
-18.3478255534
 10
-1.4287405257
 20
-18.3478255528
 10
-4.2802636461
 20
-18.217415238
 10
-7.1139378984
 20
-17.9571384252
 10
-9.9179467492
 20
-17.568080479
 10
-12.6805973712
 20
-17.0518637863
 10
-15.3903694023
 20
-16.4106409911
 10
-18.0359629863
 20
-15.6470860177
 10
-20.6063458938
 20
-14.7643829205
 10
-23.0907995266
 20
-13.7662126061
 10
-25.4789636152
 20
-12.6567374841
 10
-27.7608794213
 20
-11.4405841096
 10
-29.9270312658
 20
-10.1228238899
 10
-31.9683862104
 20
-8.7089519373
 10
-33.8764317244
 20
-7.2048641534
 10
-35.6432111827
 20
-5.6168326436
 10
-37.2613570455
 20
-3.9514795619
 10
-38.7241215806
 20
-2.2157494962
 10
-40.0254050023
 20
-0.4168805095
 10
-41.1597809075
 20
1.4376260438
 10
-42.1225189039
 20
3.3400367982
 10
-42.9096043361
 20
5.2824186259
 10
-43.5177550268
 20
7.2566717181
 10
-43.5974207544
 20
7.5714862192
  0
LINE
  5
F3
330
23
100
AcDbEntity
  8
0
  6
Continuous
 62
     7
370
    25
100
AcDbLine
 10
55.0700873875
 20
-6.5
 30
0.0
 11
75.5
 21
-6.5
 31
0.0
  0
LINE
  5
F4
330
23
100
AcDbEntity
  8
0
  6
Continuous
 62
     7
370
    25
100
AcDbLine
 10
75.5
 20
6.5
 30
0.0
 11
55.0679895969
 21
6.5
 31
0.0
  0
LINE
  5
F5
330
23
100
AcDbEntity
  8
0
  6
Continuous
 62
     7
370
    25
100
AcDbLine
 10
56.5
 20
6.5
 30
0.0
 11
56.5
 21
40.8707719526
 31
0.0
  0
LINE
  5
F6
330
23
100
AcDbEntity
  8
0
  6
Continuous
 62
     7
370
    25
100
AcDbLine
 10
-56.5
 20
40.8707719526
 30
0.0
 11
-56.5
 21
0.0
 31
0.0
  0
LINE
  5
F7
330
23
100
AcDbEntity
  8
0
  6
Continuous
 62
     7
370
    25
100
AcDbLine
 10
54.8597535891
 20
55.8278590097
 30
0.0
 11
54.3659814404
 21
59.8033549402
 31
0.0
  0
LINE
  5
F8
330
23
100
AcDbEntity
  8
0
  6
Continuous
 62
     7
370
    25
100
AcDbLine
 10
56.2833516111
 20
44.3660781926
 30
0.0
 11
55.6098876458
 21
49.7883225613
 31
0.0
  0
LINE
  5
F9
330
23
100
AcDbEntity
  8
0
  6
Continuous
 62
     7
370
    25
100
AcDbLine
 10
-54.3659814404
 20
59.8033549402
 30
0.0
 11
-56.2833516111
 21
44.3660781926
 31
0.0
  0
LINE
  5
FA
330
23
100
AcDbEntity
  8
0
  6
Continuous
 62
     7
370
    25
100
AcDbLine
 10
56.430198615
 20
42.8560533268
 30
0.0
 11
75.5
 21
42.8560533268
 31
0.0
  0
LINE
  5
FB
330
23
100
AcDbEntity
  8
0
  6
Continuous
 62
     7
370
    25
100
AcDbLine
 10
75.5
 20
55.8560533268
 30
0.0
 11
54.8559185159
 21
55.8560533268
 31
0.0
  0
LINE
  5
FC
330
23
100
AcDbEntity
  8
0
  6
Continuous
 62
     7
370
    25
100
AcDbLine
 10
75.5
 20
-6.5
 30
0.0
 11
75.5
 21
6.5
 31
0.0
  0
LINE
  5
FD
330
23
100
AcDbEntity
  8
0
  6
Continuous
 62
     7
370
    25
100
AcDbLine
 10
75.5
 20
42.8560533268
 30
0.0
 11
75.5
 21
55.8560533268
 31
0.0
  0
ARC
  5
FE
330
23
100
AcDbEntity
  8
0
  6
Continuous
 62
     7
370
    25
100
AcDbCircle
 10
0.0
 20
0.0
 30
0.0
 40
56.50000000000001
100
AcDbArc
 50
6.606177199
 51
353.393822801
  0
VIEWPORT
  5
101
330
23
100
AcDbEntity
  8
0
100
AcDbViewport
 10
0.0
 20
0.0
 30
0.0
 40
205.6
 41
156.0
 68
     1
 69
     1
 12
7.608825038
 22
19.258825038
 13
0.0
 23
0.0
 14
10.0
 24
10.0
 15
10.0
 25
10.0
 16
0.0
 26
0.0
 36
1.0
 17
0.0
 27
0.0
 37
0.0
 42
50.0
 43
0.0
 44
0.0
 45
154.5480030776
 50
0.0
 51
0.0
 72
   100
 90
   557152
  1

281
     0
 71
     1
 74
     0
110
0.0
120
0.0
130
0.0
111
1.0
121
0.0
131
0.0
112
0.0
122
1.0
132
0.0
 79
     0
146
0.0
  0
ENDBLK
  5
25
330
23
100
AcDbEntity
  8
0
100
AcDbBlockEnd
  0
ENDSEC
  0
SECTION
  2
ENTITIES
  0
CIRCLE
  5
7D
330
1F
100
AcDbEntity
  8
0
  6
Continuous
 62
     7
370
    25
100
AcDbCircle
 10
49.3560533268
 20
49.3560533268
 30
0.0
 40
5.000000000000114
  0
CIRCLE
  5
7E
330
1F
100
AcDbEntity
  8
0
  6
Continuous
 62
     7
370
    25
100
AcDbCircle
 10
49.3560533268
 20
49.3560533268
 30
0.0
 40
6.500000000000171
  0
CIRCLE
  5
7F
330
1F
100
AcDbEntity
  8
0
  6
Continuous
 62
     7
370
    25
100
AcDbCircle
 10
-69.8
 20
0.0
 30
0.0
 40
4.999999999999403
  0
CIRCLE
  5
80
330
1F
100
AcDbEntity
  8
0
  6
Continuous
 62
     7
370
    25
100
AcDbCircle
 10
-69.8
 20
0.0
 30
0.0
 40
6.499999999999503
  0
CIRCLE
  5
81
330
1F
100
AcDbEntity
  8
0
  6
Continuous
 62
     7
370
    25
100
AcDbCircle
 10
-69.8
 20
0.0
 30
0.0
 40
1.852500000000148
  0
CIRCLE
  5
82
330
1F
100
AcDbEntity
  8
0
  6
Continuous
 62
     7
370
    25
100
AcDbCircle
 10
-69.8
 20
0.0
 30
0.0
 40
2.352499999999949
  0
CIRCLE
  5
83
330
1F
100
AcDbEntity
  8
0
  6
Continuous
 62
     7
370
    25
100
AcDbCircle
 10
49.3560533268
 20
49.3560533268
 30
0.0
 40
1.852500000000155
  0
CIRCLE
  5
84
330
1F
100
AcDbEntity
  8
0
  6
Continuous
 62
     7
370
    25
100
AcDbCircle
 10
49.3560533268
 20
49.3560533268
 30
0.0
 40
2.352500000000127
  0
CIRCLE
  5
85
330
1F
100
AcDbEntity
  8
0
  6
Continuous
 62
     7
370
    25
100
AcDbCircle
 10
-69.8
 20
0.0
 30
0.0
 40
2.552500000000023
  0
CIRCLE
  5
86
330
1F
100
AcDbEntity
  8
0
  6
Continuous
 62
     7
370
    25
100
AcDbCircle
 10
49.3560533268
 20
49.3560533268
 30
0.0
 40
2.552500000000173
  0
CIRCLE
  5
87
330
1F
100
AcDbEntity
  8
0
  6
Continuous
 62
     7
370
    25
100
AcDbCircle
 10
-69.8
 20
0.0
 30
0.0
 40
2.800000000000026
  0
CIRCLE
  5
88
330
1F
100
AcDbEntity
  8
0
  6
Continuous
 62
     7
370
    25
100
AcDbCircle
 10
-69.8
 20
0.0
 30
0.0
 40
2.999999999999815
  0
CIRCLE
  5
89
330
1F
100
AcDbEntity
  8
0
  6
Continuous
 62
     7
370
    25
100
AcDbCircle
 10
49.3560533268
 20
49.3560533268
 30
0.0
 40
2.80000000000036
  0
CIRCLE
  5
8A
330
1F
100
AcDbEntity
  8
0
  6
Continuous
 62
     7
370
    25
100
AcDbCircle
 10
49.3560533268
 20
49.3560533268
 30
0.0
 40
3.000000000000114
  0
CIRCLE
  5
8B
330
1F
100
AcDbEntity
  8
0
  6
Continuous
 62
     7
370
    25
100
AcDbCircle
 10
-69.8
 20
0.0
 30
0.0
 40
3.830245019246405
  0
CIRCLE
  5
8C
330
1F
100
AcDbEntity
  8
0
  6
Continuous
 62
     7
370
    25
100
AcDbCircle
 10
-69.8
 20
0.0
 30
0.0
 40
4.007596123493286
  0
CIRCLE
  5
8D
330
1F
100
AcDbEntity
  8
0
  6
Continuous
 62
     7
370
    25
100
AcDbCircle
 10
49.3560533268
 20
49.3560533268
 30
0.0
 40
3.830245019247123
  0
CIRCLE
  5
8E
330
1F
100
AcDbEntity
  8
0
  6
Continuous
 62
     7
370
    25
100
AcDbCircle
 10
49.3560533268
 20
49.3560533268
 30
0.0
 40
4.00759612349389
  0
LINE
  5
97
330
1F
100
AcDbEntity
  8
0
  6
Continuous
 62
     7
370
    25
100
AcDbLine
 10
39.951533137
 20
-39.951533137
 30
0.0
 11
80.8223050896
 21
0.9192388155
 31
0.0
  0
LINE
  5
98
330
1F
100
AcDbEntity
  8
0
  6
Continuous
 62
     7
370
    25
100
AcDbLine
 10
0.9192388155
 20
80.8223050896
 30
0.0
 11
-21.93860018
 21
57.9644660941
 31
0.0
  0
LINE
  5
99
330
1F
100
AcDbEntity
  8
0
  6
Continuous
 62
     7
370
    25
100
AcDbLine
 10
80.8223050896
 20
0.9192388155
 30
0.0
 11
95.0176500761
 21
17.8365922013
 31
0.0
  0
LINE
  5
9A
330
1F
100
AcDbEntity
  8
0
  6
Continuous
 62
     7
370
    25
100
AcDbLine
 10
17.8365922013
 20
95.0176500761
 30
0.0
 11
0.9192388155
 21
80.8223050896
 31
0.0
  0
LINE
  5
9B
330
1F
100
AcDbEntity
  8
0
  6
Continuous
 62
     7
370
    25
100
AcDbLine
 10
-25.4741340859
 20
56.5
 30
0.0
 11
-57.8
 21
56.5
 31
0.0
  0
LINE
  5
9C
330
1F
100
AcDbEntity
  8
0
  6
Continuous
 62
     7
370
    25
100
AcDbLine
 10
-57.8
 20
-56.5
 30
0.0
 11
0.0
 21
-56.5
 31
0.0
  0
LINE
  5
9D
330
1F
100
AcDbEntity
  8
0
  6
Continuous
 62
     7
370
    25
100
AcDbLine
 10
-57.8
 20
56.5
 30
0.0
 11
-79.8
 21
54.5752494024
 31
0.0
  0
LINE
  5
9E
330
1F
100
AcDbEntity
  8
0
  6
Continuous
 62
     7
370
    25
100
AcDbLine
 10
-79.8
 20
-54.5752494024
 30
0.0
 11
-57.8
 21
-56.5
 31
0.0
  0
LINE
  5
9F
330
1F
100
AcDbEntity
  8
0
  6
Continuous
 62
     7
370
    25
100
AcDbLine
 10
80.8223050896
 20
0.9192388155
 30
0.0
 11
0.9192388155
 21
80.8223050896
 31
0.0
  0
LINE
  5
A0
330
1F
100
AcDbEntity
  8
0
  6
Continuous
 62
     7
370
    25
100
AcDbLine
 10
17.8365922013
 20
95.0176500761
 30
0.0
 11
95.0176500761
 21
17.8365922013
 31
0.0
  0
LINE
  5
A1
330
1F
100
AcDbEntity
  8
0
  6
Continuous
 62
     7
370
    25
100
AcDbLine
 10
-57.8
 20
56.5
 30
0.0
 11
-57.8
 21
-56.5
 31
0.0
  0
LINE
  5
A2
330
1F
100
AcDbEntity
  8
0
  6
Continuous
 62
     7
370
    25
100
AcDbLine
 10
-79.8
 20
-54.5752494024
 30
0.0
 11
-79.8
 21
54.5752494024
 31
0.0
  0
LINE
  5
A3
330
1F
100
AcDbEntity
  8
0
  6
Continuous
 62
     8
370
    25
100
AcDbLine
 10
-21.93860018
 20
57.9644660941
 30
0.0
 11
0.0
 21
0.0
 31
0.0
  0
LINE
  5
A4
330
1F
100
AcDbEntity
  8
0
  6
Continuous
 62
     8
370
    25
100
AcDbLine
 10
39.951533137
 20
-39.951533137
 30
0.0
 11
0.0
 21
0.0
 31
0.0
  0
LINE
  5
A5
330
1F
100
AcDbEntity
  8
0
  6
Continuous
 62
     8
370
    25
100
AcDbLine
 10
0.0
 20
0.0
 30
0.0
 11
-25.4741340859
 21
56.5
 31
0.0
  0
LINE
  5
A6
330
1F
100
AcDbEntity
  8
0
  6
Continuous
 62
     8
370
    25
100
AcDbLine
 10
0.0
 20
0.0
 30
0.0
 11
0.0
 21
-56.5
 31
0.0
  0
ARC
  5
A7
330
1F
100
AcDbEntity
  8
0
  6
Continuous
 62
     7
370
    25
100
AcDbCircle
 10
-25.4741340859
 20
61.5
 30
0.0
 40
4.999999999999998
100
AcDbArc
 50
270.2572102973
 51
314.4195410868
  0
ARC
  5
A8
330
1F
100
AcDbEntity
  8
0
  6
Continuous
 62
     7
370
    25
100
AcDbCircle
 10
0.0
 20
0.0
 30
0.0
 40
56.50000000000005
100
AcDbArc
 50
270.0
 51
315.0
  0
SPLINE
  5
B6
330
1B
100
AcDbEntity
 67
     1
  8
0
  6
Continuous
 62
     7
370
    25
100
AcDbSpline
210
0.0
220
0.0
230
1.0
 70
     8
 71
     3
 72
    27
 73
    23
 74
     0
 42
0.000000001
 43
0.00000001
 40
0.0
 40
0.0
 40
0.0
 40
0.0
 40
0.0139959164390827
 40
0.0682115748016454
 40
0.1217324585098828
 40
0.1768015234916817
 40
0.230350507804454
 40
0.2854842254711077
 40
0.3384756867688147
 40
0.3930283534741736
 40
0.4456164073938902
 40
0.4997281480927487
 40
0.5523530108145589
 40
0.6064943522570203
 40
0.6592839338042811
 40
0.7136025005416011
 40
0.7664205911607082
 40
0.8207715886780339
 40
0.8735719537431664
 40
0.9279021002685287
 40
0.9807251941606338
 40
1.0
 40
1.0
 40
1.0
 40
1.0
 10
42.87325623227623
 20
-55.66156866834286
 30
0.0
 10
42.86816969257447
 20
-55.65051829264893
 30
0.0
 10
42.84337954147158
 20
-55.59666233176826
 30
0.0
 10
42.98086176847904
 20
-55.48970030248397
 30
0.0
 10
43.29275546260428
 20
-55.35032658530315
 30
0.0
 10
43.79126944209881
 20
-55.21893036296406
 30
0.0
 10
44.45258292335853
 20
-55.10236336829222
 30
0.0
 10
45.2488958176251
 20
-55.00795057761204
 30
0.0
 10
46.16911789349202
 20
-54.93657120464628
 30
0.0
 10
47.16676165180414
 20
-54.8895160489989
 30
0.0
 10
48.23367812741965
 20
-54.86320291580143
 30
0.0
 10
49.32002706891286
 20
-54.85397667865669
 30
0.0
 10
50.4175048638459
 20
-54.85635073678675
 30
0.0
 10
51.47661792678467
 20
-54.86485606735722
 30
0.0
 10
52.48630977411829
 20
-54.87444815381328
 30
0.0
 10
53.39977750822548
 20
-54.8809893380253
 30
0.0
 10
54.20676185251138
 20
-54.88214899688747
 30
0.0
 10
54.86857909142509
 20
-54.87758140422518
 30
0.0
 10
55.38256855470028
 20
-54.86858353796951
 30
0.0
 10
55.70920543965777
 20
-54.85974425351872
 30
0.0
 10
55.86208357110992
 20
-54.85361278000234
 30
0.0
 10
55.84015437547387
 20
-54.85646792471776
 30
0.0
 10
55.83429177767736
 20
-54.85723122517778
 30
0.0
  0
LWPOLYLINE
  5
B7
330
1B
100
AcDbEntity
 67
     1
  8
0
  6
Continuous
 62
     7
370
    25
100
AcDbPolyline
 90
      109
 70
   128
 43
0.0
 10
95.0176500761
 20
0.0
 10
94.9523610089
 20
3.1732685393
 10
94.7567147249
 20
6.3357997422
 10
94.4313732291
 20
9.4768926045
 10
93.9774373742
 20
12.5859186619
 10
93.3964431354
 20
15.6523579546
 10
92.6903564134
 20
18.6658346227
 10
91.861566382
 20
21.6161520148
 10
90.9128774045
 20
24.493327191
 10
89.847499544
 20
27.2876247012
 10
88.6690377019
 20
29.9895895271
 10
87.3814794201
 20
32.590079075
 10
85.9891813882
 20
35.0802941114
 10
84.4968547021
 20
37.451808537
 10
82.9095489229
 20
39.6965978976
 10
81.2326349909
 20
41.8070665366
 10
79.471787052
 20
43.7760732961
 10
77.6329632583
 20
45.5969556806
 10
75.7223856074
 20
47.2635524004
 10
73.7465188893
 20
48.7702242198
 10
71.7120488115
 20
50.1118730383
 10
69.6258593769
 20
51.283959141
 10
67.49500959
 20
52.2825165595
 10
65.326709572
 20
53.1041664916
 10
63.1282961639
 20
53.7461287341
 10
60.9072081007
 20
54.2062310898
 10
58.6709608413
 20
54.4829167181
 10
56.4271211387
 20
54.5752494024
 10
54.1832814361
 20
54.4829167181
 10
51.9470341767
 20
54.2062310898
 10
49.7259461135
 20
53.7461287341
 10
47.5275327054
 20
53.1041664916
 10
45.3592326874
 20
52.2825165595
 10
43.2283829005
 20
51.283959141
 10
41.1421934658
 20
50.1118730383
 10
39.1077233881
 20
48.7702242198
 10
37.13185667
 20
47.2635524004
 10
35.2212790191
 20
45.5969556806
 10
33.3824552254
 20
43.7760732961
 10
31.6216072865
 20
41.8070665366
 10
29.9446933545
 20
39.6965978976
 10
28.3573875753
 20
37.451808537
 10
26.8650608892
 20
35.0802941114
 10
25.4727628573
 20
32.590079075
 10
24.1852045755
 20
29.9895895271
 10
23.0067427334
 20
27.2876247012
 10
21.9413648729
 20
24.493327191
 10
20.9926758953
 20
21.6161520148
 10
20.163885864
 20
18.6658346227
 10
19.4577991419
 20
15.6523579546
 10
18.8768049032
 20
12.5859186619
 10
18.4228690483
 20
9.4768926044
 10
18.0975275525
 20
6.3357997422
 10
17.9018812685
 20
3.1732685393
 10
17.8365922013
 20
0.0
 10
17.9018812685
 20
-3.1732685393
 10
18.0975275525
 20
-6.3357997422
 10
18.4228690483
 20
-9.4768926045
 10
18.8768049032
 20
-12.5859186619
 10
19.4577991419
 20
-15.6523579546
 10
20.163885864
 20
-18.6658346227
 10
20.9926758953
 20
-21.6161520148
 10
21.9413648729
 20
-24.493327191
 10
23.0067427334
 20
-27.2876247012
 10
24.1852045755
 20
-29.9895895271
 10
25.4727628573
 20
-32.590079075
 10
26.8650608892
 20
-35.0802941114
 10
28.3573875753
 20
-37.451808537
 10
29.9446933545
 20
-39.6965978976
 10
31.6216072865
 20
-41.8070665366
 10
33.3824552254
 20
-43.7760732961
 10
35.2212790191
 20
-45.5969556806
 10
37.13185667
 20
-47.2635524004
 10
39.1077233881
 20
-48.7702242198
 10
41.1421934658
 20
-50.1118730383
 10
43.2283829005
 20
-51.283959141
 10
45.3592326874
 20
-52.2825165595
 10
47.5275327054
 20
-53.1041664916
 10
49.7259461135
 20
-53.7461287341
 10
51.9470341767
 20
-54.2062310898
 10
54.1832814361
 20
-54.4829167181
 10
56.4271211387
 20
-54.5752494024
 10
58.6709608413
 20
-54.4829167181
 10
60.9072081007
 20
-54.2062310898
 10
63.1282961639
 20
-53.7461287341
 10
65.326709572
 20
-53.1041664916
 10
67.49500959
 20
-52.2825165595
 10
69.6258593769
 20
-51.283959141
 10
71.7120488115
 20
-50.1118730383
 10
73.7465188893
 20
-48.7702242198
 10
75.7223856074
 20
-47.2635524004
 10
77.6329632583
 20
-45.5969556806
 10
79.471787052
 20
-43.7760732961
 10
81.2326349909
 20
-41.8070665366
 10
82.9095489229
 20
-39.6965978976
 10
84.4968547021
 20
-37.451808537
 10
85.9891813882
 20
-35.0802941114
 10
87.3814794201
 20
-32.590079075
 10
88.6690377019
 20
-29.9895895271
 10
89.847499544
 20
-27.2876247012
 10
90.9128774045
 20
-24.493327191
 10
91.861566382
 20
-21.6161520148
 10
92.6903564134
 20
-18.6658346227
 10
93.3964431354
 20
-15.6523579546
 10
93.9774373742
 20
-12.5859186619
 10
94.4313732291
 20
-9.4768926044
 10
94.7567147249
 20
-6.3357997422
 10
94.9523610089
 20
-3.1732685393
 10
95.0176500761
 20
0.0
  0
LWPOLYLINE
  5
B8
330
1B
100
AcDbEntity
 67
     1
  8
0
  6
Continuous
 62
     7
370
    25
100
AcDbPolyline
 90
       60
 70
   128
 43
0.0
 10
42.8560533268
 20
-56.430198615
 10
42.0116299621
 20
-56.4769588948
 10
39.729913943
 20
-56.4769588948
 10
37.4519191656
 20
-56.2927427937
 10
35.1850759754
 20
-55.9249114663
 10
32.9367783437
 20
-55.3746647017
 10
30.71435975
 20
-54.6437972907
 10
28.5250692619
 20
-53.7346931707
 10
26.3760478899
 20
-52.6503176504
 10
24.274305295
 20
-51.3942077375
 10
22.2266969248
 20
-49.9704606014
 10
20.239901652
 20
-48.3837202092
 10
18.32039999
 20
-46.6391621784
 10
16.4744529543
 20
-44.7424768946
 10
14.7080816402
 20
-42.699850951
 10
13.027047584
 20
-40.5179469689
 10
11.4368339693
 20
-38.2038818655
 10
9.9426277424
 20
-35.7652036402
 10
8.5493026934
 20
-33.2098667545
 10
7.261403559
 20
-30.5462061862
 10
6.0831311986
 20
-27.7829102425
 10
5.0183288916
 20
-24.9289922202
 10
4.0704698019
 20
-21.9937610069
 10
3.2426456487
 20
-18.9867907167
 10
2.5375566225
 20
-15.9178894615
 10
1.957502577
 20
-12.7970673596
 10
1.504375528
 20
-9.6345038837
 10
1.1796534818
 20
-6.4405146588
 10
0.9843956141
 20
-3.2255178137
 10
0.9192388155
 20
0.0
 10
0.9843956141
 20
3.2255178137
 10
1.1796534818
 20
6.4405146588
 10
1.504375528
 20
9.6345038837
 10
1.957502577
 20
12.7970673596
 10
2.5375566225
 20
15.9178894615
 10
3.2426456487
 20
18.9867907167
 10
4.0704698019
 20
21.9937610069
 10
5.0183288916
 20
24.9289922202
 10
6.0831311986
 20
27.7829102425
 10
7.261403559
 20
30.5462061862
 10
8.5493026934
 20
33.2098667545
 10
9.9426277424
 20
35.7652036402
 10
11.4368339693
 20
38.2038818655
 10
13.027047584
 20
40.5179469689
 10
14.7080816402
 20
42.699850951
 10
16.4744529543
 20
44.7424768946
 10
18.32039999
 20
46.6391621784
 10
20.239901652
 20
48.3837202092
 10
22.2266969248
 20
49.9704606014
 10
24.274305295
 20
51.3942077375
 10
26.3760478899
 20
52.6503176504
 10
28.5250692619
 20
53.7346931707
 10
30.71435975
 20
54.6437972907
 10
32.9367783437
 20
55.3746647017
 10
35.1850759754
 20
55.9249114663
 10
37.4519191656
 20
56.2927427937
 10
39.729913943
 20
56.4769588948
 10
42.0116299621
 20
56.4769588948
 10
44.2896247395
 20
56.2927427937
 10
44.3660781926
 20
56.2833516111
  0
LWPOLYLINE
  5
B9
330
1B
100
AcDbEntity
 67
     1
  8
0
  6
Continuous
 62
     7
370
    25
100
AcDbPolyline
 90
      101
 70
   128
 43
0.0
 10
23.4553211889
 20
0.0
 10
23.5203835044
 20
-2.9278696001
 10
23.7153136797
 20
-5.8441842365
 10
24.0393424144
 20
-8.7374345477
 10
24.4911909152
 20
-11.5962021965
 10
25.0690759424
 20
-14.409204933
 10
25.7707168479
 20
-17.1653411206
 10
26.5933445756
 20
-19.8537335488
 10
27.5337125896
 20
-22.4637723611
 10
28.588109687
 20
-24.9851569266
 10
29.7523746442
 20
-27.4079364923
 10
31.0219126392
 20
-29.7225494542
 10
32.3917133857
 20
-31.9198610923
 10
33.8563709058
 20
-33.9911996215
 10
35.4101048655
 20
-35.9283904149
 10
37.0467833867
 20
-37.7237882654
 10
38.7599472469
 20
-39.370307558
 10
40.5428353711
 20
-40.8614502333
 10
42.3884115144
 20
-42.1913314323
 10
44.289392031
 20
-43.3547027216
 10
46.2382746191
 20
-44.346972806
 10
48.2273679295
 20
-45.1642256491
 10
50.2488219198
 20
-45.803235927
 10
52.2946588345
 20
-46.2614817583
 10
54.35680469
 20
-46.5371546559
 10
56.4271211387
 20
-46.6291666649
 10
58.4974375874
 20
-46.5371546559
 10
60.5595834428
 20
-46.2614817583
 10
62.6054203575
 20
-45.803235927
 10
64.6268743478
 20
-45.1642256491
 10
66.6159676583
 20
-44.346972806
 10
68.5648502464
 20
-43.3547027216
 10
70.4658307629
 20
-42.1913314323
 10
72.3114069063
 20
-40.8614502333
 10
74.0942950305
 20
-39.370307558
 10
75.8074588907
 20
-37.7237882654
 10
77.4441374119
 20
-35.9283904149
 10
78.9978713716
 20
-33.9911996215
 10
80.4625288917
 20
-31.9198610923
 10
81.8323296382
 20
-29.7225494542
 10
83.1018676332
 20
-27.4079364923
 10
84.2661325904
 20
-24.9851569266
 10
85.3205296878
 20
-22.4637723611
 10
86.2608977018
 20
-19.8537335488
 10
87.0835254294
 20
-17.1653411206
 10
87.7851663349
 20
-14.409204933
 10
88.3630513622
 20
-11.5962021965
 10
88.814899863
 20
-8.7374345477
 10
89.1389285977
 20
-5.8441842365
 10
89.333858773
 20
-2.9278696001
 10
89.3989210885
 20
0.0
 10
89.333858773
 20
2.9278696001
 10
89.1389285977
 20
5.8441842365
 10
88.814899863
 20
8.7374345477
 10
88.3630513622
 20
11.5962021965
 10
87.7851663349
 20
14.409204933
 10
87.0835254294
 20
17.1653411206
 10
86.2608977018
 20
19.8537335488
 10
85.3205296878
 20
22.4637723611
 10
84.2661325904
 20
24.9851569266
 10
83.1018676332
 20
27.4079364923
 10
81.8323296382
 20
29.7225494542
 10
80.4625288917
 20
31.9198610923
 10
78.9978713716
 20
33.9911996215
 10
77.4441374119
 20
35.9283904149
 10
75.8074588907
 20
37.7237882654
 10
74.0942950305
 20
39.370307558
 10
72.3114069063
 20
40.8614502333
 10
70.4658307629
 20
42.1913314323
 10
68.5648502464
 20
43.3547027216
 10
66.6159676583
 20
44.346972806
 10
64.6268743478
 20
45.1642256491
 10
62.6054203575
 20
45.803235927
 10
60.5595834428
 20
46.2614817583
 10
58.4974375874
 20
46.5371546559
 10
56.4271211387
 20
46.6291666649
 10
54.35680469
 20
46.5371546559
 10
52.2946588345
 20
46.2614817583
 10
50.2488219198
 20
45.803235927
 10
48.2273679295
 20
45.1642256491
 10
46.2382746191
 20
44.346972806
 10
44.289392031
 20
43.3547027216
 10
42.3884115144
 20
42.1913314323
 10
40.5428353711
 20
40.8614502333
 10
38.7599472469
 20
39.370307558
 10
37.0467833867
 20
37.7237882654
 10
35.4101048655
 20
35.9283904149
 10
33.8563709058
 20
33.9911996215
 10
32.3917133857
 20
31.9198610923
 10
31.0219126392
 20
29.7225494542
 10
29.7523746442
 20
27.4079364923
 10
28.588109687
 20
24.9851569266
 10
27.5337125896
 20
22.4637723611
 10
26.5933445756
 20
19.8537335488
 10
25.7707168479
 20
17.1653411206
 10
25.0690759424
 20
14.409204933
 10
24.4911909152
 20
11.5962021965
 10
24.0393424144
 20
8.7374345477
 10
23.7153136797
 20
5.8441842365
 10
23.5203835044
 20
2.9278696001
 10
23.4553211889
 20
0.0
  0
LWPOLYLINE
  5
BA
330
1B
100
AcDbEntity
 67
     1
  8
0
  6
Continuous
 62
     7
370
    25
100
AcDbPolyline
 90
      101
 70
   128
 43
0.0
 10
23.4553211889
 20
0.0
 10
23.5196858475
 20
-2.8964743405
 10
23.7125258056
 20
-5.78151762
 10
24.0330800119
 20
-8.6437438908
 10
24.4800833853
 20
-11.4718572534
 10
25.0517718079
 20
-14.2546964365
 10
25.7458890865
 20
-16.981278845
 10
26.5596958575
 20
-19.640843904
 10
27.4899803971
 20
-22.2228955251
 10
28.5330712975
 20
-24.7172435302
 10
29.6848519553
 20
-27.1140438674
 10
30.9407768184
 20
-29.4038374606
 10
32.2958893253
 20
-31.5775875408
 10
33.744841466
 20
-33.6267153093
 10
35.2819148883
 20
-35.5431337951
 10
36.9010434656
 20
-37.3192797699
 10
38.5958372371
 20
-38.9481435971
 10
40.3596076262
 20
-40.4232968951
 10
42.1853938369
 20
-41.738917908
 10
44.0659903251
 20
-42.8898144806
 10
45.9939752356
 20
-43.8714445499
 10
47.9617396929
 20
-44.6799340705
 10
49.9615178296
 20
-45.3120923037
 10
51.9854174349
 20
-45.7654244097
 10
54.0254511019
 20
-46.0381412938
 10
56.0735677496
 20
-46.129166667
 10
58.1216843973
 20
-46.0381412938
 10
60.1617180642
 20
-45.7654244097
 10
62.1856176696
 20
-45.3120923037
 10
64.1853958063
 20
-44.6799340705
 10
66.1531602636
 20
-43.8714445499
 10
68.0811451741
 20
-42.8898144806
 10
69.9617416623
 20
-41.738917908
 10
71.787527873
 20
-40.4232968951
 10
73.551298262
 20
-38.9481435971
 10
75.2460920336
 20
-37.3192797699
 10
76.8652206109
 20
-35.5431337951
 10
78.4022940332
 20
-33.6267153093
 10
79.8512461738
 20
-31.5775875408
 10
81.2063586807
 20
-29.4038374606
 10
82.4622835439
 20
-27.1140438674
 10
83.6140642017
 20
-24.7172435302
 10
84.657155102
 20
-22.2228955251
 10
85.5874396417
 20
-19.640843904
 10
86.4012464126
 20
-16.981278845
 10
87.0953636913
 20
-14.2546964365
 10
87.6670521138
 20
-11.4718572534
 10
88.1140554873
 20
-8.6437438908
 10
88.4346096936
 20
-5.78151762
 10
88.6274496516
 20
-2.8964743405
 10
88.6918143103
 20
0.0
 10
88.6274496516
 20
2.8964743405
 10
88.4346096936
 20
5.78151762
 10
88.1140554873
 20
8.6437438908
 10
87.6670521138
 20
11.4718572534
 10
87.0953636913
 20
14.2546964365
 10
86.4012464126
 20
16.981278845
 10
85.5874396417
 20
19.640843904
 10
84.657155102
 20
22.2228955251
 10
83.6140642017
 20
24.7172435302
 10
82.4622835439
 20
27.1140438674
 10
81.2063586807
 20
29.4038374606
 10
79.8512461738
 20
31.5775875408
 10
78.4022940332
 20
33.6267153093
 10
76.8652206109
 20
35.5431337951
 10
75.2460920336
 20
37.3192797699
 10
73.551298262
 20
38.9481435971
 10
71.787527873
 20
40.4232968951
 10
69.9617416623
 20
41.738917908
 10
68.0811451741
 20
42.8898144806
 10
66.1531602636
 20
43.8714445499
 10
64.1853958063
 20
44.6799340705
 10
62.1856176696
 20
45.3120923037
 10
60.1617180642
 20
45.7654244097
 10
58.1216843973
 20
46.0381412938
 10
56.0735677496
 20
46.129166667
 10
54.0254511019
 20
46.0381412938
 10
51.9854174349
 20
45.7654244097
 10
49.9615178296
 20
45.3120923037
 10
47.9617396929
 20
44.6799340705
 10
45.9939752356
 20
43.8714445499
 10
44.0659903251
 20
42.8898144806
 10
42.1853938369
 20
41.738917908
 10
40.3596076262
 20
40.4232968951
 10
38.5958372371
 20
38.9481435971
 10
36.9010434656
 20
37.3192797699
 10
35.2819148883
 20
35.5431337951
 10
33.744841466
 20
33.6267153093
 10
32.2958893253
 20
31.5775875408
 10
30.9407768184
 20
29.4038374606
 10
29.6848519553
 20
27.1140438674
 10
28.5330712975
 20
24.7172435302
 10
27.4899803971
 20
22.2228955251
 10
26.5596958575
 20
19.640843904
 10
25.7458890865
 20
16.981278845
 10
25.0517718079
 20
14.2546964365
 10
24.4800833853
 20
11.4718572534
 10
24.0330800119
 20
8.6437438908
 10
23.7125258056
 20
5.78151762
 10
23.5196858475
 20
2.8964743405
 10
23.4553211889
 20
0.0
  0
LWPOLYLINE
  5
BB
330
1B
100
AcDbEntity
 67
     1
  8
0
  6
Continuous
 62
     7
370
    25
100
AcDbPolyline
 90
       48
 70
   128
 43
0.0
 10
50.5105799563
 20
-45.4533425725
 10
52.1114167802
 20
-45.1853488223
 10
54.1286170857
 20
-44.6823316701
 10
56.1191970608
 20
-43.9993945387
 10
58.0751413425
 20
-43.1392873747
 10
59.9885740337
 20
-42.1054735263
 10
61.851790416
 20
-40.9021157968
 10
63.6572879749
 20
-39.5340596831
 10
65.3977966088
 20
-38.0068138644
 10
67.0663079038
 20
-36.3265280206
 10
68.6561033538
 20
-34.4999680696
 10
70.1607814136
 20
-32.5344889237
 10
71.5742832758
 20
-30.4380048738
 10
72.8909172672
 20
-28.2189577212
 10
74.1053817675
 20
-25.8862827856
 10
75.2127865567
 20
-23.4493729255
 10
76.2086725066
 20
-20.918040717
 10
77.089029536
 20
-18.3024789415
 10
77.8503127578
 20
-15.613219543
 10
78.4894567532
 20
-12.8610912199
 10
79.0038879149
 20
-10.0571758218
 10
79.3915348102
 20
-7.2127637262
 10
79.6508365219
 20
-4.3393083769
 10
79.7807489335
 20
-1.4483801642
 10
79.7807489335
 20
1.4483801642
 10
79.6508365219
 20
4.3393083769
 10
79.3915348102
 20
7.2127637263
 10
79.0038879149
 20
10.0571758218
 10
78.4894567532
 20
12.8610912199
 10
77.8503127578
 20
15.613219543
 10
77.089029536
 20
18.3024789415
 10
76.2086725066
 20
20.918040717
 10
75.2127865567
 20
23.4493729255
 10
74.1053817675
 20
25.8862827856
 10
72.8909172672
 20
28.2189577212
 10
71.5742832758
 20
30.4380048738
 10
70.1607814136
 20
32.5344889237
 10
68.6561033538
 20
34.4999680696
 10
67.0663079038
 20
36.3265280206
 10
65.3977966088
 20
38.0068138644
 10
63.6572879749
 20
39.5340596831
 10
61.851790416
 20
40.9021157968
 10
59.9885740337
 20
42.1054735263
 10
58.0751413425
 20
43.1392873747
 10
56.1191970608
 20
43.9993945387
 10
54.1286170857
 20
44.6823316701
 10
52.1114167802
 20
45.1853488223
 10
50.5105799563
 20
45.4533425725
  0
LWPOLYLINE
  5
BC
330
1B
100
AcDbEntity
 67
     1
  8
0
  6
Continuous
 62
     7
370
    25
100
AcDbPolyline
 90
       59
 70
   128
 43
0.0
 10
0.0
 20
56.5
 10
-1.1877318696
 20
56.4171378826
 10
-2.3719799171
 20
56.1687945792
 10
-3.5492705387
 20
55.7556985236
 10
-4.7161505383
 20
55.1790613976
 10
-5.8691972558
 20
54.4405745773
 10
-7.0050286065
 20
53.5424041718
 10
-8.1203130014
 20
52.4871846696
 10
-9.2117791191
 20
51.2780112114
 10
-10.2762255015
 20
49.9184305112
 10
-11.3105299439
 20
48.4124304535
 10
-12.3116586532
 20
46.7644283959
 10
-13.2766751464
 20
44.9792582124
 10
-14.2027488639
 20
43.0621561147
 10
-15.0871634718
 20
41.0187452937
 10
-15.9273248298
 20
38.8550194252
 10
-16.7207685998
 20
36.5773250902
 10
-17.4651674746
 20
34.1923431584
 10
-18.158338004
 20
31.707069193
 10
-18.7982469993
 20
29.1287929305
 10
-19.3830174973
 20
26.4650768995
 10
-19.9109342654
 20
23.7237342382
 10
-20.3804488326
 20
20.9128057767
 10
-20.7901840319
 20
18.0405364527
 10
-21.1389380393
 20
15.1153511269
 10
-21.4256878993
 20
12.1458298719
 10
-21.6495925251
 20
9.1406828052
 10
-21.8099951658
 20
6.108724541
 10
-21.9064253329
 20
3.0588483351
 10
-21.93860018
 20
0.0
 10
-21.9064253329
 20
-3.0588483351
 10
-21.8099951658
 20
-6.108724541
 10
-21.6495925251
 20
-9.1406828052
 10
-21.4256878993
 20
-12.1458298719
 10
-21.1389380393
 20
-15.1153511269
 10
-20.7901840319
 20
-18.0405364527
 10
-20.3804488326
 20
-20.9128057767
 10
-19.9109342654
 20
-23.7237342382
 10
-19.3830174973
 20
-26.4650768995
 10
-18.7982469993
 20
-29.1287929305
 10
-18.158338004
 20
-31.707069193
 10
-17.4651674746
 20
-34.1923431584
 10
-16.7207685998
 20
-36.5773250902
 10
-15.9273248298
 20
-38.8550194252
 10
-15.0871634718
 20
-41.0187452937
 10
-14.2027488639
 20
-43.0621561147
 10
-13.2766751464
 20
-44.9792582124
 10
-12.3116586532
 20
-46.7644283959
 10
-11.3105299439
 20
-48.4124304535
 10
-10.2762255015
 20
-49.9184305112
 10
-9.2117791191
 20
-51.2780112114
 10
-8.1203130014
 20
-52.4871846696
 10
-7.0050286065
 20
-53.5424041718
 10
-5.8691972558
 20
-54.4405745773
 10
-4.7161505383
 20
-55.1790613976
 10
-3.5492705387
 20
-55.7556985236
 10
-2.3719799171
 20
-56.1687945792
 10
-1.1877318696
 20
-56.4171378826
 10
0.0
 20
-56.5
  0
LWPOLYLINE
  5
BD
330
1B
100
AcDbEntity
 67
     1
  8
0
  6
Continuous
 62
     7
370
    25
100
AcDbPolyline
 90
       30
 70
   128
 43
0.0
 10
34.7758233546
 20
-34.9386918009
 10
35.1392419257
 20
-34.4999680696
 10
36.6439199855
 20
-32.5344889237
 10
38.0574218477
 20
-30.4380048738
 10
39.3740558391
 20
-28.2189577212
 10
40.5885203394
 20
-25.8862827856
 10
41.6959251286
 20
-23.4493729255
 10
42.6918110785
 20
-20.918040717
 10
43.5721681079
 20
-18.3024789415
 10
44.3334513297
 20
-15.613219543
 10
44.9725953251
 20
-12.8610912199
 10
45.4870264868
 20
-10.0571758218
 10
45.8746733821
 20
-7.2127637262
 10
46.1339750938
 20
-4.3393083769
 10
46.2638875054
 20
-1.4483801642
 10
46.2638875054
 20
1.4483801642
 10
46.1339750938
 20
4.3393083769
 10
45.8746733821
 20
7.2127637263
 10
45.4870264868
 20
10.0571758218
 10
44.9725953251
 20
12.8610912199
 10
44.3334513297
 20
15.613219543
 10
43.5721681079
 20
18.3024789415
 10
42.6918110785
 20
20.918040717
 10
41.6959251286
 20
23.4493729255
 10
40.5885203394
 20
25.8862827856
 10
39.3740558391
 20
28.2189577212
 10
38.0574218477
 20
30.4380048738
 10
36.6439199855
 20
32.5344889237
 10
35.1392419257
 20
34.4999680696
 10
34.7758233546
 20
34.9386918009
  0
LWPOLYLINE
  5
BE
330
1B
100
AcDbEntity
 67
     1
  8
0
  6
Continuous
 62
     7
370
    25
100
AcDbPolyline
 90
       59
 70
   128
 43
0.0
 10
0.0
 20
-56.5
 10
-1.3791418166
 20
-56.4171378826
 10
-2.7542383726
 20
-56.1687945792
 10
-4.1212562729
 20
-55.7556985236
 10
-5.4761858185
 20
-55.1790613976
 10
-6.8150527675
 20
-54.4405745773
 10
-8.1339299925
 20
-53.5424041718
 10
-9.4289489995
 20
-52.4871846696
 10
-10.6963112744
 20
-51.2780112114
 10
-11.9322994254
 20
-49.9184305112
 10
-13.1332880863
 20
-48.4124304535
 10
-14.2957545503
 20
-46.7644283959
 10
-15.4162891032
 20
-44.9792582124
 10
-16.4916050239
 20
-43.0621561147
 10
-17.5185482257
 20
-41.0187452937
 10
-18.494106507
 20
-38.8550194252
 10
-19.4154183875
 20
-36.5773250902
 10
-20.2797815007
 20
-34.1923431584
 10
-21.0846605205
 20
-31.707069193
 10
-21.8276945982
 20
-29.1287929305
 10
-22.5067042868
 20
-26.4650768995
 10
-23.1196979338
 20
-23.7237342382
 10
-23.6648775233
 20
-20.9128057767
 10
-24.1406439497
 20
-18.0405364527
 10
-24.5456017079
 20
-15.1153511269
 10
-24.8785629872
 20
-12.1458298719
 10
-25.1385511548
 20
-9.1406828052
 10
-25.3248036205
 20
-6.108724541
 10
-25.4367740737
 20
-3.0588483351
 10
-25.4741340859
 20
0.0
 10
-25.4367740737
 20
3.0588483351
 10
-25.3248036205
 20
6.108724541
 10
-25.1385511548
 20
9.1406828052
 10
-24.8785629872
 20
12.1458298719
 10
-24.5456017079
 20
15.1153511269
 10
-24.1406439497
 20
18.0405364527
 10
-23.6648775233
 20
20.9128057767
 10
-23.1196979338
 20
23.7237342382
 10
-22.5067042868
 20
26.4650768995
 10
-21.8276945982
 20
29.1287929305
 10
-21.0846605205
 20
31.707069193
 10
-20.2797815007
 20
34.1923431584
 10
-19.4154183875
 20
36.5773250902
 10
-18.494106507
 20
38.8550194252
 10
-17.5185482257
 20
41.0187452937
 10
-16.4916050239
 20
43.0621561147
 10
-15.4162891032
 20
44.9792582124
 10
-14.2957545503
 20
46.7644283959
 10
-13.1332880863
 20
48.4124304535
 10
-11.9322994254
 20
49.9184305112
 10
-10.6963112744
 20
51.2780112114
 10
-9.4289489995
 20
52.4871846696
 10
-8.1339299925
 20
53.5424041718
 10
-6.8150527675
 20
54.4405745773
 10
-5.4761858184
 20
55.1790613976
 10
-4.1212562729
 20
55.7556985236
 10
-2.7542383726
 20
56.1687945792
 10
-1.3791418166
 20
56.4171378826
 10
0.0
 20
56.5
  0
SPLINE
  5
BF
330
1B
100
AcDbEntity
 67
     1
  8
0
  6
Continuous
 62
     7
370
    25
100
AcDbSpline
210
0.0
220
0.0
230
1.0
 70
     8
 71
     3
 72
    27
 73
    23
 74
     0
 42
0.000000001
 43
0.00000001
 40
0.0
 40
0.0
 40
0.0
 40
0.0
 40
0.0176127502261506
 40
0.0719184896104265
 40
0.1246755064058105
 40
0.1789610455496077
 40
0.2317406501850044
 40
0.2860545797450699
 40
0.3387591720323223
 40
0.3930021406642168
 40
0.4455377105260269
 40
0.4995934747257143
 40
0.5522131122280458
 40
0.6063309551364062
 40
0.6594591413600732
 40
0.7141009371062501
 40
0.767684351984112
 40
0.8228350032623996
 40
0.8761385179424062
 40
0.9310407885849886
 40
0.9834280247108012
 40
0.9999999999999999
 40
0.9999999999999999
 40
0.9999999999999999
 40
0.9999999999999999
 10
-76.28004040027245
 20
-54.8808474830168
 30
0.0
 10
-76.28553771081735
 20
-54.8810159816393
 30
0.0
 10
-76.30798498715018
 20
-54.88170401538052
 30
0.0
 10
-76.15857330019192
 20
-54.87707824935953
 30
0.0
 10
-75.83184803034533
 20
-54.86847255225211
 30
0.0
 10
-75.32522156291391
 20
-54.85895115628491
 30
0.0
 10
-74.65980418758164
 20
-54.85375295604879
 30
0.0
 10
-73.86239695403671
 20
-54.85828602294091
 30
0.0
 10
-72.94277594893188
 20
-54.87819830344154
 30
0.0
 10
-71.94481815991884
 20
-54.91750546696174
 30
0.0
 10
-70.8792838115604
 20
-54.97981988245984
 30
0.0
 10
-69.79547382257782
 20
-55.0646278769217
 30
0.0
 10
-68.70344903652173
 20
-55.17185619314821
 30
0.0
 10
-67.64966884173928
 20
-55.29590949457931
 30
0.0
 10
-66.64492632645778
 20
-55.43289024286406
 30
0.0
 10
-65.73264425838924
 20
-55.5729968407104
 30
0.0
 10
-64.92518533587317
 20
-55.70936966401317
 30
0.0
 10
-64.26361268546994
 20
-55.82973586165775
 30
0.0
 10
-63.7522987064323
 20
-55.92804248836568
 30
0.0
 10
-63.43474314383607
 20
-55.99138525877804
 30
0.0
 10
-63.29047722379581
 20
-56.02074662176189
 30
0.0
 10
-63.31424777868083
 20
-56.01591659970136
 30
0.0
 10
-63.31996021419281
 20
-56.01475586998026
 30
0.0
  0
LWPOLYLINE
  5
C3
330
1B
100
AcDbEntity
 67
     1
  8
0
  6
Continuous
 62
     7
370
    25
100
AcDbPolyline
 90
       29
 70
   128
 43
0.0
 10
34.027953947
 20
-33.998262331
 10
35.0366562098
 20
-32.7573013706
 10
36.4774883457
 20
-30.7839528642
 10
37.8259585957
 20
-28.6841064924
 10
39.0765258063
 20
-26.4663909742
 10
40.2240511285
 20
-24.1399193786
 10
41.2638191346
 20
-21.7142516762
 10
42.1915571949
 20
-19.199355456
 10
43.0034530347
 20
-16.6055649659
 10
43.6961703998
 20
-13.9435386475
 10
44.2668627661
 20
-11.224215338
 10
44.713185036
 20
-8.45876932
 10
45.0333031758
 20
-5.6585644045
 10
45.2259017513
 20
-2.8351072341
 10
45.2901893336
 20
0.0
 10
45.2259017513
 20
2.8351072341
 10
45.0333031758
 20
5.6585644045
 10
44.713185036
 20
8.45876932
 10
44.2668627661
 20
11.224215338
 10
43.6961703998
 20
13.9435386475
 10
43.0034530347
 20
16.6055649659
 10
42.1915571949
 20
19.199355456
 10
41.2638191346
 20
21.7142516762
 10
40.2240511285
 20
24.1399193786
 10
39.0765258063
 20
26.4663909742
 10
37.8259585957
 20
28.6841064924
 10
36.4774883457
 20
30.7839528642
 10
35.0366562098
 20
32.7573013706
 10
34.027953947
 20
33.998262331
  0
LWPOLYLINE
  5
C5
330
1B
100
AcDbEntity
 67
     1
  8
0
  6
Continuous
 62
     8
370
    25
100
AcDbPolyline
 90
       28
 70
   128
 43
0.0
 10
33.5154164098
 20
-33.3190581147
 10
34.5596228876
 20
-31.968386192
 10
35.9734948394
 20
-29.9270312462
 10
37.2912550581
 20
-27.7608794005
 10
38.5074084317
 20
-25.4789635935
 10
39.6168835527
 20
-23.0907995039
 10
40.615053866
 20
-20.6063458702
 10
41.4977569621
 20
-18.035962962
 10
42.2613119344
 20
-15.3903693773
 10
42.9025347285
 20
-12.6805973457
 10
43.41875142
 20
-9.9179467233
 10
43.807809365
 20
-7.1139378721
 10
44.0680861766
 20
-4.2802636196
 10
44.1984964901
 20
-1.4287404991
 10
44.1984964895
 20
1.4287405257
 10
44.0680861748
 20
4.2802636461
 10
43.807809362
 20
7.1139378984
 10
43.4187514158
 20
9.9179467492
 10
42.9025347231
 20
12.6805973712
 10
42.2613119278
 20
15.3903694023
 10
41.4977569545
 20
18.0359629863
 10
40.6150538572
 20
20.6063458938
 10
39.6168835428
 20
23.0907995266
 10
38.5074084209
 20
25.4789636152
 10
37.2912550463
 20
27.7608794213
 10
35.9734948267
 20
29.9270312658
 10
34.559622874
 20
31.9683862104
 10
33.5154164098
 20
33.3190581147
  0
LINE
  5
C6
330
1B
100
AcDbEntity
 67
     1
  8
0
  6
Continuous
 62
     7
370
    25
100
AcDbLine
 10
55.8258687875
 20
-54.8600007825
 30
0.0
 11
59.8033549402
 21
-54.3659814404
 31
0.0
  0
LINE
  5
C7
330
1B
100
AcDbEntity
 67
     1
  8
0
  6
Continuous
 62
     7
370
    25
100
AcDbLine
 10
59.8033549402
 20
54.3659814404
 30
0.0
 11
44.3660781926
 21
56.2833516111
 31
0.0
  0
LINE
  5
C8
330
1B
100
AcDbEntity
 67
     1
  8
0
  6
Continuous
 62
     7
370
    25
100
AcDbLine
 10
-57.8
 20
-56.5
 30
0.0
 11
40.8707719526
 21
-56.5
 31
0.0
  0
LINE
  5
C9
330
1B
100
AcDbEntity
 67
     1
  8
0
  6
Continuous
 62
     7
370
    25
100
AcDbLine
 10
40.8707719526
 20
56.5
 30
0.0
 11
-57.8
 21
56.5
 31
0.0
  0
LINE
  5
CA
330
1B
100
AcDbEntity
 67
     1
  8
0
  6
Continuous
 62
     7
370
    25
100
AcDbLine
 10
-57.8
 20
56.5
 30
0.0
 11
-79.8
 21
54.5752494024
 31
0.0
  0
LINE
  5
CB
330
1B
100
AcDbEntity
 67
     1
  8
0
  6
Continuous
 62
     7
370
    25
100
AcDbLine
 10
-63.3201607942
 20
-56.0170485097
 30
0.0
 11
-57.8
 21
-56.5
 31
0.0
  0
LINE
  5
CC
330
1B
100
AcDbEntity
 67
     1
  8
0
  6
Continuous
 62
     7
370
    25
100
AcDbLine
 10
-79.8
 20
-54.5752494024
 30
0.0
 11
-76.2802451732
 21
-54.8831880482
 31
0.0
  0
LINE
  5
CD
330
1B
100
AcDbEntity
 67
     1
  8
0
  6
Continuous
 62
     7
370
    25
100
AcDbLine
 10
42.8560533268
 20
-55.6615686683
 30
0.0
 11
42.8560533268
 21
-75.5
 31
0.0
  0
LINE
  5
CE
330
1B
100
AcDbEntity
 67
     1
  8
0
  6
Continuous
 62
     7
370
    25
100
AcDbLine
 10
55.8560533268
 20
-75.5
 30
0.0
 11
55.8560533268
 21
-54.8572312252
 31
0.0
  0
LINE
  5
CF
330
1B
100
AcDbEntity
 67
     1
  8
0
  6
Continuous
 62
     7
370
    25
100
AcDbLine
 10
-76.3
 20
-54.8808479433
 30
0.0
 11
-76.3
 21
-75.5
 31
0.0
  0
LINE
  5
D0
330
1B
100
AcDbEntity
 67
     1
  8
0
  6
Continuous
 62
     7
370
    25
100
AcDbLine
 10
-63.3
 20
-75.5
 30
0.0
 11
-63.3
 21
-56.0147601791
 31
0.0
  0
LINE
  5
D1
330
1B
100
AcDbEntity
 67
     1
  8
0
  6
Continuous
 62
     7
370
    25
100
AcDbLine
 10
-79.8
 20
-54.5752494024
 30
0.0
 11
-79.8
 21
54.5752494024
 31
0.0
  0
LINE
  5
D2
330
1B
100
AcDbEntity
 67
     1
  8
0
  6
Continuous
 62
     7
370
    25
100
AcDbLine
 10
-57.8
 20
56.5
 30
0.0
 11
-57.8
 21
-56.5
 31
0.0
  0
LINE
  5
D3
330
1B
100
AcDbEntity
 67
     1
  8
0
  6
Continuous
 62
     7
370
    25
100
AcDbLine
 10
42.8560533268
 20
-75.5
 30
0.0
 11
55.8560533268
 21
-75.5
 31
0.0
  0
LINE
  5
D4
330
1B
100
AcDbEntity
 67
     1
  8
0
  6
Continuous
 62
     7
370
    25
100
AcDbLine
 10
-76.3
 20
-75.5
 30
0.0
 11
-63.3
 21
-75.5
 31
0.0
  0
VIEWPORT
  5
FF
330
1B
100
AcDbEntity
 67
     1
  8
0
100
AcDbViewport
 10
0.0
 20
0.0
 30
0.0
 40
205.6
 41
156.0
 68
     1
 69
     1
 12
7.608825038
 22
19.258825038
 13
0.0
 23
0.0
 14
10.0
 24
10.0
 15
10.0
 25
10.0
 16
0.0
 26
0.0
 36
1.0
 17
0.0
 27
0.0
 37
0.0
 42
50.0
 43
0.0
 44
0.0
 45
154.5480030776
 50
0.0
 51
0.0
 72
   100
 90
   557152
  1

281
     0
 71
     1
 74
     0
110
0.0
120
0.0
130
0.0
111
1.0
121
0.0
131
0.0
112
0.0
122
1.0
132
0.0
 79
     0
146
0.0
  0
ENDSEC
  0
SECTION
  2
OBJECTS
  0
DICTIONARY
  5
C
330
0
100
AcDbDictionary
281
     1
  3
ACAD_GROUP
350
D
  3
ACAD_LAYOUT
350
1A
  3
ACAD_MLINESTYLE
350
17
  3
ACAD_PLOTSETTINGS
350
19
  3
ACAD_PLOTSTYLENAME
350
E
  3
ACAD_SCALELIST
350
47
  0
DICTIONARY
  5
D
102
{ACAD_REACTORS
330
C
102
}
330
C
100
AcDbDictionary
281
     1
  0
DICTIONARY
  5
1A
102
{ACAD_REACTORS
330
C
102
}
330
C
100
AcDbDictionary
281
     1
  3
_Left
350
26
  3
_Top
350
1E
  3
Model
350
22
  0
DICTIONARY
  5
17
102
{ACAD_REACTORS
330
C
102
}
330
C
100
AcDbDictionary
281
     1
  3
Standard
350
18
  0
DICTIONARY
  5
19
102
{ACAD_REACTORS
330
C
102
}
330
C
100
AcDbDictionary
281
     1
  0
ACDBDICTIONARYWDFLT
  5
E
102
{ACAD_REACTORS
330
C
102
}
330
C
100
AcDbDictionary
281
     1
  3
Normal
350
F
100
AcDbDictionaryWithDefault
340
F
  0
DICTIONARY
  5
47
102
{ACAD_REACTORS
330
C
102
}
330
C
100
AcDbDictionary
281
     1
  3
A0
350
48
  3
A1
350
49
  3
A2
350
4A
  3
A3
350
4B
  3
A4
350
4C
  3
A5
350
4D
  3
A6
350
4E
  3
A7
350
4F
  3
A8
350
50
  3
A9
350
51
  3
B0
350
52
  3
B1
350
53
  3
B2
350
54
  3
B3
350
55
  3
B4
350
56
  3
B5
350
57
  3
B6
350
58
  3
B7
350
59
  3
B8
350
5A
  3
B9
350
5B
  3
C0
350
5C
  3
C1
350
5D
  3
C2
350
5E
  3
C3
350
5F
  3
C4
350
60
  3
C5
350
61
  3
C6
350
62
  3
C7
350
63
  3
C8
350
64
  3
C9
350
65
  3
D0
350
66
  3
D1
350
67
  3
D2
350
68
  0
LAYOUT
  5
26
102
{ACAD_REACTORS
330
1A
102
}
330
1A
100
AcDbPlotSettings
  1

  2
none_device
  4
ISO_A4_(210.00_x_297.00_MM)
  6

 40
7.5
 41
20.0
 42
7.5
 43
20.0
 44
210.0
 45
297.0
 46
0.0
 47
0.0
 48
0.0
 49
0.0
140
0.0
141
0.0
142
1.0
143
0.6802243194
 70
   688
 72
     1
 73
     1
 74
     1
  7

 75
     0
147
1.4701032755
148
79.8
149
75.5
100
AcDbLayout
  1
_Left
 70
     1
 71
     2
 10
0.0
 20
0.0
 11
0.0
 21
0.0
 12
0.0
 22
0.0
 32
0.0
 14
0.0
 24
0.0
 34
0.0
 15
0.0
 25
0.0
 35
0.0
146
0.0
 13
0.0
 23
0.0
 33
0.0
 16
1.0
 26
0.0
 36
0.0
 17
0.0
 27
1.0
 37
0.0
 76
     0
330
23
331
101
  0
LAYOUT
  5
1E
102
{ACAD_REACTORS
330
1A
102
}
330
1A
100
AcDbPlotSettings
  1

  2
none_device
  4
ISO_A4_(210.00_x_297.00_MM)
  6

 40
7.5
 41
20.0
 42
7.5
 43
20.0
 44
210.0
 45
297.0
 46
0.0
 47
0.0
 48
0.0
 49
0.0
140
0.0
141
0.0
142
1.0
143
0.6802243194
 70
   688
 72
     1
 73
     1
 74
     1
  7

 75
     0
147
1.4701032755
148
79.8
149
75.5
100
AcDbLayout
  1
_Top
 70
     1
 71
     1
 10
-93.4044863872
 20
-80.6016823952
 11
108.6221364633
 21
62.2454246709
 12
0.0
 22
0.0
 32
0.0
 14
-79.8
 24
-75.5
 34
0.0
 15
95.0176500761
 25
56.5
 35
0.0
146
0.0
 13
0.0
 23
0.0
 33
0.0
 16
1.0
 26
0.0
 36
0.0
 17
0.0
 27
1.0
 37
0.0
 76
     0
330
1B
331
FF
  0
LAYOUT
  5
22
102
{ACAD_REACTORS
330
1A
102
}
330
1A
100
AcDbPlotSettings
  1

  2
none_device
  4
ANSI_A_(11.00_x_8.50_Inches)
  6

 40
6.35
 41
19.05
 42
6.35000508
 43
19.05000254
 44
279.4
 45
215.9
 46
122.6164765029
 47
61.7322032924
 48
0.0
 49
0.0
140
0.0
141
0.0
142
0.0555380841
143
1.0
 70
  1696
 72
     0
 73
     0
 74
     0
  7

 75
     0
147
0.0179189148
148
-1300.4909072572
149
0.0
100
AcDbLayout
  1
Model
 70
     1
 71
     0
 10
0.0
 20
0.0
 11
420.0
 21
297.0
 12
0.0
 22
0.0
 32
0.0
 14
-79.8
 24
-56.5
 34
0.0
 15
95.0176500761
 25
95.0176500761
 35
0.0
146
0.0
 13
0.0
 23
0.0
 33
0.0
 16
1.0
 26
0.0
 36
0.0
 17
0.0
 27
1.0
 37
0.0
 76
     0
330
1F
331
29
  0
MLINESTYLE
  5
18
102
{ACAD_REACTORS
330
17
102
}
330
17
100
AcDbMlineStyle
  2
Standard
 70
     0
  3

 62
   256
 51
90.0
 52
90.0
 71
     2
 49
0.5
 62
   256
  6
BYLAYER
 49
-0.5
 62
   256
  6
BYLAYER
  0
ACDBPLACEHOLDER
  5
F
102
{ACAD_REACTORS
330
E
102
}
330
E
  0
SCALE
  5
48
102
{ACAD_REACTORS
330
47
102
}
330
47
100
AcDbScale
 70
     0
300
1:1
140
1.0
141
1.0
290
     1
  0
SCALE
  5
49
102
{ACAD_REACTORS
330
47
102
}
330
47
100
AcDbScale
 70
     0
300
1:2
140
1.0
141
2.0
290
     0
  0
SCALE
  5
4A
102
{ACAD_REACTORS
330
47
102
}
330
47
100
AcDbScale
 70
     0
300
1:4
140
1.0
141
4.0
290
     0
  0
SCALE
  5
4B
102
{ACAD_REACTORS
330
47
102
}
330
47
100
AcDbScale
 70
     0
300
1:5
140
1.0
141
5.0
290
     0
  0
SCALE
  5
4C
102
{ACAD_REACTORS
330
47
102
}
330
47
100
AcDbScale
 70
     0
300
1:8
140
1.0
141
8.0
290
     0
  0
SCALE
  5
4D
102
{ACAD_REACTORS
330
47
102
}
330
47
100
AcDbScale
 70
     0
300
1:10
140
1.0
141
10.0
290
     0
  0
SCALE
  5
4E
102
{ACAD_REACTORS
330
47
102
}
330
47
100
AcDbScale
 70
     0
300
1:16
140
1.0
141
16.0
290
     0
  0
SCALE
  5
4F
102
{ACAD_REACTORS
330
47
102
}
330
47
100
AcDbScale
 70
     0
300
1:20
140
1.0
141
20.0
290
     0
  0
SCALE
  5
50
102
{ACAD_REACTORS
330
47
102
}
330
47
100
AcDbScale
 70
     0
300
1:30
140
1.0
141
30.0
290
     0
  0
SCALE
  5
51
102
{ACAD_REACTORS
330
47
102
}
330
47
100
AcDbScale
 70
     0
300
1:40
140
1.0
141
40.0
290
     0
  0
SCALE
  5
52
102
{ACAD_REACTORS
330
47
102
}
330
47
100
AcDbScale
 70
     0
300
1:50
140
1.0
141
50.0
290
     0
  0
SCALE
  5
53
102
{ACAD_REACTORS
330
47
102
}
330
47
100
AcDbScale
 70
     0
300
1:100
140
1.0
141
100.0
290
     0
  0
SCALE
  5
54
102
{ACAD_REACTORS
330
47
102
}
330
47
100
AcDbScale
 70
     0
300
2:1
140
2.0
141
1.0
290
     0
  0
SCALE
  5
55
102
{ACAD_REACTORS
330
47
102
}
330
47
100
AcDbScale
 70
     0
300
4:1
140
4.0
141
1.0
290
     0
  0
SCALE
  5
56
102
{ACAD_REACTORS
330
47
102
}
330
47
100
AcDbScale
 70
     0
300
8:1
140
8.0
141
1.0
290
     0
  0
SCALE
  5
57
102
{ACAD_REACTORS
330
47
102
}
330
47
100
AcDbScale
 70
     0
300
10:1
140
10.0
141
1.0
290
     0
  0
SCALE
  5
58
102
{ACAD_REACTORS
330
47
102
}
330
47
100
AcDbScale
 70
     0
300
100:1
140
100.0
141
1.0
290
     0
  0
SCALE
  5
59
102
{ACAD_REACTORS
330
47
102
}
330
47
100
AcDbScale
 70
     0
300
1/128" = 1'-0"
140
0.0078125
141
12.0
290
     0
  0
SCALE
  5
5A
102
{ACAD_REACTORS
330
47
102
}
330
47
100
AcDbScale
 70
     0
300
1/64" = 1'-0"
140
0.015625
141
12.0
290
     0
  0
SCALE
  5
5B
102
{ACAD_REACTORS
330
47
102
}
330
47
100
AcDbScale
 70
     0
300
1/32" = 1'-0"
140
0.03125
141
12.0
290
     0
  0
SCALE
  5
5C
102
{ACAD_REACTORS
330
47
102
}
330
47
100
AcDbScale
 70
     0
300
1/16" = 1'-0"
140
0.0625
141
12.0
290
     0
  0
SCALE
  5
5D
102
{ACAD_REACTORS
330
47
102
}
330
47
100
AcDbScale
 70
     0
300
3/32" = 1'-0"
140
0.09375
141
12.0
290
     0
  0
SCALE
  5
5E
102
{ACAD_REACTORS
330
47
102
}
330
47
100
AcDbScale
 70
     0
300
1/8" = 1'-0"
140
0.125
141
12.0
290
     0
  0
SCALE
  5
5F
102
{ACAD_REACTORS
330
47
102
}
330
47
100
AcDbScale
 70
     0
300
3/16" = 1'-0"
140
0.1875
141
12.0
290
     0
  0
SCALE
  5
60
102
{ACAD_REACTORS
330
47
102
}
330
47
100
AcDbScale
 70
     0
300
1/4" = 1'-0"
140
0.25
141
12.0
290
     0
  0
SCALE
  5
61
102
{ACAD_REACTORS
330
47
102
}
330
47
100
AcDbScale
 70
     0
300
3/8" = 1'-0"
140
0.375
141
12.0
290
     0
  0
SCALE
  5
62
102
{ACAD_REACTORS
330
47
102
}
330
47
100
AcDbScale
 70
     0
300
1/2" = 1'-0"
140
0.5
141
12.0
290
     0
  0
SCALE
  5
63
102
{ACAD_REACTORS
330
47
102
}
330
47
100
AcDbScale
 70
     0
300
3/4" = 1'-0"
140
0.75
141
12.0
290
     0
  0
SCALE
  5
64
102
{ACAD_REACTORS
330
47
102
}
330
47
100
AcDbScale
 70
     0
300
1" = 1'-0"
140
1.0
141
12.0
290
     0
  0
SCALE
  5
65
102
{ACAD_REACTORS
330
47
102
}
330
47
100
AcDbScale
 70
     0
300
1-1/2" = 1'-0"
140
1.5
141
12.0
290
     0
  0
SCALE
  5
66
102
{ACAD_REACTORS
330
47
102
}
330
47
100
AcDbScale
 70
     0
300
3" = 1'-0"
140
3.0
141
12.0
290
     0
  0
SCALE
  5
67
102
{ACAD_REACTORS
330
47
102
}
330
47
100
AcDbScale
 70
     0
300
6" = 1'-0"
140
6.0
141
12.0
290
     0
  0
SCALE
  5
68
102
{ACAD_REACTORS
330
47
102
}
330
47
100
AcDbScale
 70
     0
300
1'-0" = 1'-0"
140
12.0
141
12.0
290
     0
  0
ENDSEC
  0
EOF
