  0
SECTION
  2
HEADER
  9
$ACADVER
  1
AC1015
  9
$ACADMAINTVER
 70
     6
  9
$DWGCODEPAGE
  3
ANSI_1252
  9
$INSBASE
 10
0.0
 20
0.0
 30
0.0
  9
$EXTMIN
 10
0.5
 20
-54.75
 30
0.0
  9
$EXTMAX
 10
122.5
 20
71.1851435246
 30
0.0
  9
$LIMMIN
 10
0.0
 20
0.0
  9
$LIMMAX
 10
420.0
 20
297.0
  9
$ORTHOMODE
 70
     0
  9
$REGENMODE
 70
     1
  9
$FILLMODE
 70
     1
  9
$QTEXTMODE
 70
     0
  9
$MIRRTEXT
 70
     1
  9
$LTSCALE
 40
1.0
  9
$ATTMODE
 70
     1
  9
$TEXTSIZE
 40
6.35
  9
$TRACEWID
 40
1.0
  9
$TEXTSTYLE
  7
Standard
  9
$CLAYER
  8
0
  9
$CELTYPE
  6
ByLayer
  9
$CECOLOR
 62
   256
  9
$CELTSCALE
 40
1.0
  9
$DISPSILH
 70
     0
  9
$DIMSCALE
 40
1.0
  9
$DIMASZ
 40
5.9944
  9
$DIMEXO
 40
0.9906
  9
$DIMDLI
 40
3.75
  9
$DIMRND
 40
0.0
  9
$DIMDLE
 40
0.0
  9
$DIMEXE
 40
0.9906
  9
$DIMTP
 40
0.0
  9
$DIMTM
 40
0.0
  9
$DIMTXT
 40
6.35
  9
$DIMCEN
 40
2.5
  9
$DIMTSZ
 40
0.0
  9
$DIMTOL
 70
     0
  9
$DIMLIM
 70
     0
  9
$DIMTIH
 70
     1
  9
$DIMTOH
 70
     1
  9
$DIMSE1
 70
     0
  9
$DIMSE2
 70
     0
  9
$DIMTAD
 70
     1
  9
$DIMZIN
 70
     0
  9
$DIMBLK
  1

  9
$DIMASO
 70
     1
  9
$DIMSHO
 70
     1
  9
$DIMPOST
  1

  9
$DIMAPOST
  1

  9
$DIMALT
 70
     0
  9
$DIMALTD
 70
     3
  9
$DIMALTF
 40
0.0393700787
  9
$DIMLFAC
 40
1.0
  9
$DIMTOFL
 70
     1
  9
$DIMTVP
 40
0.0
  9
$DIMTIX
 70
     0
  9
$DIMSOXD
 70
     0
  9
$DIMSAH
 70
     0
  9
$DIMBLK1
  1

  9
$DIMBLK2
  1

  9
$DIMSTYLE
  2
ISO-25
  9
$DIMCLRD
 70
     0
  9
$DIMCLRE
 70
     0
  9
$DIMCLRT
 70
     0
  9
$DIMTFAC
 40
1.0
  9
$DIMGAP
 40
1.524
  9
$DIMJUST
 70
     0
  9
$DIMSD1
 70
     0
  9
$DIMSD2
 70
     0
  9
$DIMTOLJ
 70
     0
  9
$DIMTZIN
 70
     0
  9
$DIMALTZ
 70
     0
  9
$DIMALTTZ
 70
     0
  9
$DIMUPT
 70
     0
  9
$DIMDEC
 70
     2
  9
$DIMTDEC
 70
     2
  9
$DIMALTU
 70
     2
  9
$DIMALTTD
 70
     3
  9
$DIMTXSTY
  7
Standard
  9
$DIMAUNIT
 70
     0
  9
$DIMADEC
 70
     2
  9
$DIMALTRND
 40
0.0
  9
$DIMAZIN
 70
     0
  9
$DIMDSEP
 70
    44
  9
$DIMATFIT
 70
     3
  9
$DIMFRAC
 70
     0
  9
$DIMLDRBLK
  1

  9
$DIMLUNIT
 70
     2
  9
$DIMLWD
 70
    -2
  9
$DIMLWE
 70
    -2
  9
$DIMTMOVE
 70
     0
  9
$LUNITS
 70
     2
  9
$LUPREC
 70
     2
  9
$SKETCHINC
 40
1.0
  9
$FILLETRAD
 40
10.0
  9
$AUNITS
 70
     0
  9
$AUPREC
 70
     2
  9
$MENU
  1
.
  9
$ELEVATION
 40
0.0
  9
$PELEVATION
 40
0.0
  9
$THICKNESS
 40
0.0
  9
$LIMCHECK
 70
     0
  9
$CHAMFERA
 40
0.0
  9
$CHAMFERB
 40
0.0
  9
$CHAMFERC
 40
0.0
  9
$CHAMFERD
 40
0.0
  9
$SKPOLY
 70
     0
  9
$TDCREATE
 40
2458381.630482639
  9
$TDUCREATE
 40
2458381.588815972
  9
$TDUPDATE
 40
2458381.630514236
  9
$TDUUPDATE
 40
2458381.58884757
  9
$TDINDWG
 40
0.0000000116
  9
$TDUSRTIMER
 40
0.0000000116
  9
$USRTIMER
 70
     1
  9
$ANGBASE
 50
0.0
  9
$ANGDIR
 70
     0
  9
$PDMODE
 70
     0
  9
$PDSIZE
 40
-1.0
  9
$PLINEWID
 40
0.0
  9
$SPLFRAME
 70
     0
  9
$SPLINETYPE
 70
     6
  9
$SPLINESEGS
 70
     8
  9
$HANDSEED
  5
FF
  9
$SURFTAB1
 70
     6
  9
$SURFTAB2
 70
     6
  9
$SURFTYPE
 70
     6
  9
$SURFU
 70
     6
  9
$SURFV
 70
     6
  9
$UCSBASE
  2

  9
$UCSNAME
  2

  9
$UCSORG
 10
0.0
 20
0.0
 30
0.0
  9
$UCSXDIR
 10
1.0
 20
0.0
 30
0.0
  9
$UCSYDIR
 10
0.0
 20
1.0
 30
0.0
  9
$UCSORTHOREF
  2

  9
$UCSORTHOVIEW
 70
     0
  9
$UCSORGTOP
 10
0.0
 20
0.0
 30
0.0
  9
$UCSORGBOTTOM
 10
0.0
 20
0.0
 30
0.0
  9
$UCSORGLEFT
 10
0.0
 20
0.0
 30
0.0
  9
$UCSORGRIGHT
 10
0.0
 20
0.0
 30
0.0
  9
$UCSORGFRONT
 10
0.0
 20
0.0
 30
0.0
  9
$UCSORGBACK
 10
0.0
 20
0.0
 30
0.0
  9
$PUCSBASE
  2

  9
$PUCSNAME
  2

  9
$PUCSORG
 10
0.0
 20
0.0
 30
0.0
  9
$PUCSXDIR
 10
1.0
 20
0.0
 30
0.0
  9
$PUCSYDIR
 10
0.0
 20
1.0
 30
0.0
  9
$PUCSORTHOREF
  2

  9
$PUCSORTHOVIEW
 70
     0
  9
$PUCSORGTOP
 10
0.0
 20
0.0
 30
0.0
  9
$PUCSORGBOTTOM
 10
0.0
 20
0.0
 30
0.0
  9
$PUCSORGLEFT
 10
0.0
 20
0.0
 30
0.0
  9
$PUCSORGRIGHT
 10
0.0
 20
0.0
 30
0.0
  9
$PUCSORGFRONT
 10
0.0
 20
0.0
 30
0.0
  9
$PUCSORGBACK
 10
0.0
 20
0.0
 30
0.0
  9
$USERI1
 70
     0
  9
$USERI2
 70
     0
  9
$USERI3
 70
     0
  9
$USERI4
 70
     0
  9
$USERI5
 70
     0
  9
$USERR1
 40
0.0
  9
$USERR2
 40
0.0
  9
$USERR3
 40
0.0
  9
$USERR4
 40
0.0
  9
$USERR5
 40
0.0
  9
$WORLDVIEW
 70
     1
  9
$SHADEDGE
 70
     3
  9
$SHADEDIF
 70
    70
  9
$TILEMODE
 70
     1
  9
$MAXACTVP
 70
    64
  9
$PINSBASE
 10
0.0
 20
0.0
 30
0.0
  9
$PLIMCHECK
 70
     0
  9
$PEXTMIN
 10
-54.75
 20
-54.75
 30
0.0
  9
$PEXTMAX
 10
54.75
 20
71.1851435246
 30
0.0
  9
$PLIMMIN
 10
-67.6664249769
 20
-59.5936593663
  9
$PLIMMAX
 10
124.1424859299
 20
76.028802891
  9
$UNITMODE
 70
     0
  9
$VISRETAIN
 70
     1
  9
$PLINEGEN
 70
     0
  9
$PSLTSCALE
 70
     1
  9
$TREEDEPTH
 70
  3020
  9
$CMLSTYLE
  2
Standard
  9
$CMLJUST
 70
     0
  9
$CMLSCALE
 40
20.0
  9
$PROXYGRAPHICS
 70
     1
  9
$MEASUREMENT
 70
     1
  9
$CELWEIGHT
370
    -1
  9
$ENDCAPS
280
     0
  9
$JOINSTYLE
280
     0
  9
$LWDISPLAY
290
     1
  9
$INSUNITS
 70
     4
  9
$HYPERLINKBASE
  1

  9
$STYLESHEET
  1

  9
$XEDIT
290
     1
  9
$CEPSNTYPE
380
     0
  9
$PSTYLEMODE
290
     1
  9
$FINGERPRINTGUID
  2
{907192B9-6187-4202-9205-A189A970BD79}
  9
$VERSIONGUID
  2
{FAEB1C32-E019-11D5-929B-00C0DF256EC4}
  9
$EXTNAMES
290
     1
  9
$PSVPSCALE
 40
0.0
  9
$OLESTARTUP
290
     0
  0
ENDSEC
  0
SECTION
  2
CLASSES
  0
CLASS
  1
ACDBDICTIONARYWDFLT
  2
AcDbDictionaryWithDefault
  3
ObjectDBX Classes
 90
        0
280
     0
281
     0
  0
CLASS
  1
VISUALSTYLE
  2
AcDbVisualStyle
  3
ObjectDBX Classes
 90
     4095
280
     0
281
     0
  0
CLASS
  1
MATERIAL
  2
AcDbMaterial
  3
ObjectDBX Classes
 90
     1153
280
     0
281
     0
  0
CLASS
  1
SCALE
  2
AcDbScale
  3
ObjectDBX Classes
 90
     1153
280
     0
281
     0
  0
CLASS
  1
TABLESTYLE
  2
AcDbTableStyle
  3
ObjectDBX Classes
 90
     4095
280
     0
281
     0
  0
CLASS
  1
MLEADERSTYLE
  2
AcDbMLeaderStyle
  3
ACDB_MLEADERSTYLE_CLASS
 90
     4095
280
     0
281
     0
  0
CLASS
  1
SUN
  2
AcDbSun
  3
SCENEOE
 90
     1153
280
     0
281
     0
  0
CLASS
  1
ACDBPLACEHOLDER
  2
AcDbPlaceHolder
  3
ObjectDBX Classes
 90
        0
280
     0
281
     0
  0
CLASS
  1
LAYOUT
  2
AcDbLayout
  3
ObjectDBX Classes
 90
        0
280
     0
281
     0
  0
ENDSEC
  0
SECTION
  2
TABLES
  0
TABLE
  2
VPORT
  5
8
330
0
100
AcDbSymbolTable
 70
     1
  0
VPORT
  5
29
330
8
100
AcDbSymbolTableRecord
100
AcDbViewportTableRecord
  2
*Active
 70
     0
 10
0.0
 20
0.0
 11
1.0
 21
1.0
 12
61.5
 22
8.2175717623
 13
0.0
 23
0.0
 14
10.0
 24
10.0
 15
10.0
 25
10.0
 16
0.0
 26
0.0
 36
1.0
 17
0.0
 27
0.0
 37
0.0
 40
128.4538463951
 41
0.9687526181
 42
50.0
 43
0.0
 44
0.0
 50
0.0
 51
0.0
 71
     0
 72
   100
 73
     1
 74
     3
 75
     0
 76
     0
 77
     0
 78
     0
281
     0
 65
     1
110
0.0
120
0.0
130
0.0
111
1.0
121
0.0
131
0.0
112
0.0
122
1.0
132
0.0
 79
     0
146
0.0
  0
ENDTAB
  0
TABLE
  2
LTYPE
  5
5
330
0
100
AcDbSymbolTable
 70
     6
  0
LTYPE
  5
14
330
5
100
AcDbSymbolTableRecord
100
AcDbLinetypeTableRecord
  2
ByBlock
 70
     0
  3

 72
    65
 73
     0
 40
0.0
  0
LTYPE
  5
15
330
5
100
AcDbSymbolTableRecord
100
AcDbLinetypeTableRecord
  2
ByLayer
 70
     0
  3

 72
    65
 73
     0
 40
0.0
  0
LTYPE
  5
16
330
5
100
AcDbSymbolTableRecord
100
AcDbLinetypeTableRecord
  2
Continuous
 70
     0
  3
Solid line
 72
    65
 73
     0
 40
0.0
  0
LTYPE
  5
6E
330
5
100
AcDbSymbolTableRecord
100
AcDbLinetypeTableRecord
  2
HIDDEN
 70
     0
  3
Hidden __ __ __ __ __ __ __ __ __ __ __ __ __ __
 72
    65
 73
     2
 40
1.905
 49
1.27
 74
     0
 49
-0.635
 74
     0
  0
LTYPE
  5
6F
330
5
100
AcDbSymbolTableRecord
100
AcDbLinetypeTableRecord
  2
PHANTOM
 70
     0
  3
Phantom ______  __  __  ______  __  __  ______
 72
    65
 73
     6
 40
12.7
 49
6.35
 74
     0
 49
-1.27
 74
     0
 49
1.27
 74
     0
 49
-1.27
 74
     0
 49
1.27
 74
     0
 49
-1.27
 74
     0
  0
LTYPE
  5
70
330
5
100
AcDbSymbolTableRecord
100
AcDbLinetypeTableRecord
  2
CENTER
 70
     0
  3
Center ____ _ ____ _ ____ _ ____ _ ____ _ ____
 72
    65
 73
     4
 40
10.16
 49
6.35
 74
     0
 49
-1.27
 74
     0
 49
1.27
 74
     0
 49
-1.27
 74
     0
  0
LTYPE
  5
71
330
5
100
AcDbSymbolTableRecord
100
AcDbLinetypeTableRecord
  2
CENTERX2
 70
     0
  3
Center (2x) ________  __  ________  __  _____
 72
    65
 73
     4
 40
20.32
 49
12.7
 74
     0
 49
-2.54
 74
     0
 49
2.54
 74
     0
 49
-2.54
 74
     0
  0
LTYPE
  5
72
330
5
100
AcDbSymbolTableRecord
100
AcDbLinetypeTableRecord
  2
DOT2
 70
     0
  3
Dot (.5x) ........................................
 72
    65
 73
     2
 40
0.635
 49
0.0
 74
     0
 49
-0.635
 74
     0
  0
ENDTAB
  0
TABLE
  2
LAYER
  5
2
330
0
100
AcDbSymbolTable
 70
     1
  0
LAYER
  5
10
330
2
100
AcDbSymbolTableRecord
100
AcDbLayerTableRecord
  2
0
 70
     0
 62
     7
  6
Continuous
370
    -3
390
F
  0
ENDTAB
  0
TABLE
  2
STYLE
  5
3
330
0
100
AcDbSymbolTable
 70
     1
  0
STYLE
  5
11
330
3
100
AcDbSymbolTableRecord
100
AcDbTextStyleTableRecord
  2
Standard
 70
     0
 40
0.0
 41
1.0
 50
0.0
 71
     0
 42
6.35
  3
txt
  4

  0
ENDTAB
  0
TABLE
  2
VIEW
  5
6
330
0
100
AcDbSymbolTable
 70
     0
  0
ENDTAB
  0
TABLE
  2
UCS
  5
7
330
0
100
AcDbSymbolTable
 70
     0
  0
ENDTAB
  0
TABLE
  2
APPID
  5
9
330
0
100
AcDbSymbolTable
 70
     1
  0
APPID
  5
12
330
9
100
AcDbSymbolTableRecord
100
AcDbRegAppTableRecord
  2
ACAD
 70
     0
  0
ENDTAB
  0
TABLE
  2
DIMSTYLE
  5
A
330
0
100
AcDbSymbolTable
 70
     1
100
AcDbDimStyleTable
  0
DIMSTYLE
105
27
330
A
100
AcDbSymbolTableRecord
100
AcDbDimStyleTableRecord
  2
ISO-25
 70
     0
 41
2.5
 42
0.625
 43
3.75
 44
1.25
 73
     0
 74
     0
 77
     1
 78
     8
140
2.5
141
2.5
143
0.0393700787
147
0.625
171
     3
172
     1
178
     0
271
     2
272
     2
274
     3
278
    44
283
     0
284
     8
340
11
  0
ENDTAB
  0
TABLE
  2
BLOCK_RECORD
  5
1
330
0
100
AcDbSymbolTable
 70
     1
  0
BLOCK_RECORD
  5
1F
330
1
100
AcDbSymbolTableRecord
100
AcDbBlockTableRecord
  2
*Model_Space
340
22
  0
BLOCK_RECORD
  5
1B
330
1
100
AcDbSymbolTableRecord
100
AcDbBlockTableRecord
  2
*Paper_Space
340
1E
  0
BLOCK_RECORD
  5
23
330
1
100
AcDbSymbolTableRecord
100
AcDbBlockTableRecord
  2
*Paper_Space0
340
26
  0
ENDTAB
  0
ENDSEC
  0
SECTION
  2
BLOCKS
  0
BLOCK
  5
20
330
1F
100
AcDbEntity
  8
0
100
AcDbBlockBegin
  2
*Model_Space
 70
     0
 10
0.0
 20
0.0
 30
0.0
  3
*Model_Space
  1

  0
ENDBLK
  5
21
330
1F
100
AcDbEntity
  8
0
100
AcDbBlockEnd
  0
BLOCK
  5
1C
330
1B
100
AcDbEntity
 67
     1
  8
0
100
AcDbBlockBegin
  2
*Paper_Space
 70
     0
 10
0.0
 20
0.0
 30
0.0
  3
*Paper_Space
  1

  0
ENDBLK
  5
1D
330
1B
100
AcDbEntity
 67
     1
  8
0
100
AcDbBlockEnd
  0
BLOCK
  5
24
330
23
100
AcDbEntity
  8
0
100
AcDbBlockBegin
  2
*Paper_Space0
 70
     0
 10
0.0
 20
0.0
 30
0.0
  3
*Paper_Space0
  1

  0
CIRCLE
  5
D1
330
23
100
AcDbEntity
  8
0
  6
Continuous
 62
     7
370
    25
100
AcDbCircle
 10
111.5
 20
0.0
 30
0.0
 40
4.999999999999893
  0
CIRCLE
  5
D2
330
23
100
AcDbEntity
  8
0
  6
Continuous
 62
     7
370
    25
100
AcDbCircle
 10
111.5
 20
0.0
 30
0.0
 40
7.499999999999844
  0
CIRCLE
  5
D3
330
23
100
AcDbEntity
  8
0
  6
Continuous
 62
     7
370
    25
100
AcDbCircle
 10
11.5
 20
0.0
 30
0.0
 40
4.999999999999893
  0
CIRCLE
  5
D4
330
23
100
AcDbEntity
  8
0
  6
Continuous
 62
     7
370
    25
100
AcDbCircle
 10
11.5
 20
0.0
 30
0.0
 40
7.499999999999838
  0
CIRCLE
  5
D5
330
23
100
AcDbEntity
  8
0
  6
Continuous
 62
     7
370
    25
100
AcDbCircle
 10
11.5
 20
0.0
 30
0.0
 40
2.352499999999756
  0
CIRCLE
  5
D6
330
23
100
AcDbEntity
  8
0
  6
Continuous
 62
     7
370
    25
100
AcDbCircle
 10
11.5
 20
0.0
 30
0.0
 40
1.85249999999959
  0
CIRCLE
  5
D7
330
23
100
AcDbEntity
  8
0
  6
Continuous
 62
     7
370
    25
100
AcDbCircle
 10
111.5
 20
0.0
 30
0.0
 40
2.352499999999773
  0
CIRCLE
  5
D8
330
23
100
AcDbEntity
  8
0
  6
Continuous
 62
     7
370
    25
100
AcDbCircle
 10
111.5
 20
0.0
 30
0.0
 40
1.852499999999587
  0
CIRCLE
  5
D9
330
23
100
AcDbEntity
  8
0
  6
Continuous
 62
     7
370
    25
100
AcDbCircle
 10
11.5
 20
0.0
 30
0.0
 40
2.552499999999739
  0
CIRCLE
  5
DA
330
23
100
AcDbEntity
  8
0
  6
Continuous
 62
     7
370
    25
100
AcDbCircle
 10
111.5
 20
0.0
 30
0.0
 40
2.552499999999709
  0
SPLINE
  5
DB
330
23
100
AcDbEntity
  8
0
  6
Continuous
 62
     7
370
    25
100
AcDbSpline
210
0.0
220
0.0
230
1.0
 70
    11
 71
     3
 72
    92
 73
    88
 74
     0
 42
0.000000001
 43
0.00000001
 40
0.0
 40
0.0
 40
0.0
 40
0.0
 40
0.0312499999999999
 40
0.0312499999999999
 40
0.0468749999999999
 40
0.0468749999999999
 40
0.0624999999999998
 40
0.0624999999999998
 40
0.0937499999999998
 40
0.0937499999999998
 40
0.1249999999999997
 40
0.1249999999999997
 40
0.1562499999999996
 40
0.1562499999999996
 40
0.1718749999999995
 40
0.1718749999999995
 40
0.1874999999999994
 40
0.1874999999999994
 40
0.2187499999999994
 40
0.2187499999999994
 40
0.2499999999999993
 40
0.2499999999999993
 40
0.2656249999999993
 40
0.2656249999999993
 40
0.2812499999999993
 40
0.2812499999999993
 40
0.3124999999999993
 40
0.3124999999999993
 40
0.3437499999999993
 40
0.3437499999999993
 40
0.3749999999999994
 40
0.3749999999999994
 40
0.3906249999999994
 40
0.3906249999999994
 40
0.4062499999999994
 40
0.4218749999999994
 40
0.4218749999999994
 40
0.4374999999999994
 40
0.4374999999999994
 40
0.4687499999999994
 40
0.4687499999999994
 40
0.4999999999999996
 40
0.4999999999999996
 40
0.5156249999999997
 40
0.5156249999999997
 40
0.5312499999999997
 40
0.5312499999999997
 40
0.5624999999999997
 40
0.5624999999999997
 40
0.5937499999999999
 40
0.5937499999999999
 40
0.625
 40
0.625
 40
0.6406250000000001
 40
0.6406250000000001
 40
0.6562500000000001
 40
0.6718750000000002
 40
0.6718750000000002
 40
0.6875000000000002
 40
0.6875000000000002
 40
0.7187500000000003
 40
0.7187500000000003
 40
0.7343750000000003
 40
0.7343750000000003
 40
0.7500000000000004
 40
0.7500000000000004
 40
0.7812500000000004
 40
0.7812500000000004
 40
0.7968750000000004
 40
0.7968750000000004
 40
0.8125000000000003
 40
0.8125000000000003
 40
0.8437500000000003
 40
0.8437500000000003
 40
0.8750000000000002
 40
0.8750000000000002
 40
0.8906250000000002
 40
0.8906250000000002
 40
0.9062500000000001
 40
0.9062500000000001
 40
0.9375
 40
0.9375
 40
0.953125
 40
0.953125
 40
0.96875
 40
0.96875
 40
1.0
 40
1.0
 40
1.0
 40
1.0
 10
5.58840688653732
 20
5.909122088454406
 30
0.0
 10
5.987411306213594
 20
6.299538746946462
 30
0.0
 10
6.420524249723239
 20
6.645949390270937
 30
0.0
 10
7.111722016887715
 20
7.097380307007135
 30
0.0
 10
7.349445128335061
 20
7.236752604387596
 30
0.0
 10
7.839694476276978
 20
7.493048592533921
 30
0.0
 10
8.093675756709981
 20
7.61051160075864
 30
0.0
 10
8.865786270413956
 20
7.922942537620598
 30
0.0
 10
9.393545412861478
 20
8.078994901086801
 30
0.0
 10
10.47416582202698
 20
8.289844468167269
 30
0.0
 10
11.03243540184862
 20
8.343992725467892
 30
0.0
 10
12.13263492475131
 20
8.34507948979338
 30
0.0
 10
12.67796371389426
 20
8.293686213531787
 30
0.0
 10
13.48885201209162
 20
8.13836998743244
 30
0.0
 10
13.75908675286835
 20
8.073040302023992
 30
0.0
 10
14.28683900631311
 20
7.918307380265114
 30
0.0
 10
14.54535988259649
 20
7.82882687626057
 30
0.0
 10
15.30525363183371
 20
7.524746234862558
 30
0.0
 10
15.79158386708503
 20
7.274561666743651
 30
0.0
 10
16.71937284325864
 20
6.676392494284157
 30
0.0
 10
17.14706767342314
 20
6.337407055328148
 30
0.0
 10
17.73614808707012
 20
5.770387163917589
 30
0.0
 10
17.92369978488563
 20
5.571551850688024
 30
0.0
 10
18.28069761735265
 20
5.153553491069736
 30
0.0
 10
18.4505724690532
 20
4.93353541904971
 30
0.0
 10
18.92151173348308
 20
4.256674257225787
 30
0.0
 10
19.18810617606458
 20
3.779264433237869
 30
0.0
 10
19.62604716757317
 20
2.771351154926502
 30
0.0
 10
19.7972826842614
 20
2.236171738209919
 30
0.0
 10
20.02514568436287
 20
1.159064889659083
 30
0.0
 10
20.08485775885424
 20
0.6121146333589121
 30
0.0
 10
20.09060239993885
 20
-0.221318678632953
 30
0.0
 10
20.07821720179266
 20
-0.5011548633285692
 30
0.0
 10
20.02583299780279
 20
-1.051719938801993
 30
0.0
 10
19.94595827104315
 20
-1.596614627419523
 30
0.0
 10
19.81213473001375
 20
-2.130396517966337
 30
0.0
 10
19.65105011824436
 20
-2.658575695598249
 30
0.0
 10
19.55619724085457
 20
-2.921322559546324
 30
0.0
 10
19.23545151965959
 20
-3.686607913284243
 30
0.0
 10
18.97405758098324
 20
-4.167971085809145
 30
0.0
 10
18.35937692046894
 20
-5.075493019521646
 30
0.0
 10
18.00289234174235
 20
-5.503693393528651
 30
0.0
 10
17.41635256415608
 20
-6.081924820259453
 30
0.0
 10
17.21166923076856
 20
-6.264899881490709
 30
0.0
 10
16.78385791922096
 20
-6.61132294547411
 30
0.0
 10
16.56044714507924
 20
-6.774782156905071
 30
0.0
 10
15.87471181718934
 20
-7.227370118086782
 30
0.0
 10
15.39323679934906
 20
-7.482379401364269
 30
0.0
 10
14.38171984356325
 20
-7.900315395053562
 30
0.0
 10
13.84832936287892
 20
-8.062850322492379
 30
0.0
 10
12.77527849854943
 20
-8.280647846469476
 30
0.0
 10
12.2307204631
 20
-8.338565509663784
 30
0.0
 10
11.40140555719089
 20
-8.34687574948539
 30
0.0
 10
11.12254060952014
 20
-8.33625810673691
 30
0.0
 10
10.57260378773178
 20
-8.288854876217215
 30
0.0
 10
10.02744272256854
 20
-8.215428631315294
 30
0.0
 10
9.491731924241103
 20
-8.09060487734716
 30
0.0
 10
8.960836786020074
 20
-7.939677396700684
 30
0.0
 10
8.696745831452649
 20
-7.850741087717529
 30
0.0
 10
7.919367279818748
 20
-7.545943627198399
 30
0.0
 10
7.428085345604414
 20
-7.295806987017852
 30
0.0
 10
6.730795418136911
 20
-6.851690501295914
 30
0.0
 10
6.50501784000776
 20
-6.692084976560972
 30
0.0
 10
6.067215847562777
 20
-6.348973954098394
 30
0.0
 10
5.85600400517862
 20
-6.165888833050977
 30
0.0
 10
5.256759727357278
 20
-5.592535750406794
 30
0.0
 10
4.898167756708142
 20
-5.17491573137125
 30
0.0
 10
4.422442354381398
 20
-4.494622360544702
 30
0.0
 10
4.273572883503663
 20
-4.257391671664856
 30
0.0
 10
4.002522755485572
 20
-3.772823604028217
 30
0.0
 10
3.880040247885394
 20
-3.525394051514934
 30
0.0
 10
3.55090833575844
 20
-2.767973322314441
 30
0.0
 10
3.382183931081459
 20
-2.243003597175375
 30
0.0
 10
3.151025192537973
 20
-1.151021303933007
 30
0.0
 10
3.092479288396975
 20
-0.6015953200655892
 30
0.0
 10
3.087323121865028
 20
0.2241067356116314
 30
0.0
 10
3.099445549505128
 20
0.499795543692822
 30
0.0
 10
3.15201610426083
 20
1.052103760667854
 30
0.0
 10
3.19278724413527
 20
1.329537623981842
 30
0.0
 10
3.355148500064534
 20
2.144367465029475
 30
0.0
 10
3.516605996151646
 20
2.670469431709757
 30
0.0
 10
3.837463078069689
 20
3.434355213932382
 30
0.0
 10
3.958210523809777
 20
3.685794342399992
 30
0.0
 10
4.224364621235536
 20
4.174917224304928
 30
0.0
 10
4.368777134144304
 20
4.411055906273764
 30
0.0
 10
4.834950463376071
 20
5.095020833715394
 30
0.0
 10
5.189402466861045
 20
5.51870542996235
 30
0.0
 10
5.588406886537319
 20
5.909122088454406
 30
0.0
  0
CIRCLE
  5
DC
330
23
100
AcDbEntity
  8
0
  6
Continuous
 62
     7
370
    25
100
AcDbCircle
 10
111.5
 20
0.0
 30
0.0
 40
2.999999999999666
  0
CIRCLE
  5
DD
330
23
100
AcDbEntity
  8
0
  6
Continuous
 62
     7
370
    25
100
AcDbCircle
 10
111.5
 20
0.0
 30
0.0
 40
2.800000000000138
  0
CIRCLE
  5
DE
330
23
100
AcDbEntity
  8
0
  6
Continuous
 62
     7
370
    25
100
AcDbCircle
 10
11.5
 20
0.0
 30
0.0
 40
2.999999999999666
  0
CIRCLE
  5
DF
330
23
100
AcDbEntity
  8
0
  6
Continuous
 62
     7
370
    25
100
AcDbCircle
 10
11.5
 20
0.0
 30
0.0
 40
2.800000000000139
  0
SPLINE
  5
E0
330
23
100
AcDbEntity
  8
0
  6
Continuous
 62
     7
370
    25
100
AcDbSpline
210
0.0
220
0.0
230
1.0
 70
    11
 71
     3
 72
    95
 73
    91
 74
     0
 42
0.000000001
 43
0.00000001
 40
0.0
 40
0.0
 40
0.0
 40
0.0
 40
0.0312499999999995
 40
0.0312499999999995
 40
0.0624999999999991
 40
0.0624999999999991
 40
0.0937499999999986
 40
0.0937499999999986
 40
0.1093749999999987
 40
0.1093749999999987
 40
0.1249999999999988
 40
0.1249999999999988
 40
0.1562499999999991
 40
0.1562499999999991
 40
0.1718749999999993
 40
0.1718749999999993
 40
0.1874999999999994
 40
0.1874999999999994
 40
0.2031249999999996
 40
0.2031249999999996
 40
0.2187499999999998
 40
0.2187499999999998
 40
0.25
 40
0.25
 40
0.2812500000000003
 40
0.2812500000000003
 40
0.3125000000000006
 40
0.3125000000000006
 40
0.3281250000000007
 40
0.3281250000000007
 40
0.3437500000000008
 40
0.3593750000000009
 40
0.3593750000000009
 40
0.375000000000001
 40
0.375000000000001
 40
0.4062500000000013
 40
0.4062500000000013
 40
0.4218750000000015
 40
0.4218750000000015
 40
0.4375000000000017
 40
0.4375000000000017
 40
0.4687500000000022
 40
0.4687500000000022
 40
0.4843750000000022
 40
0.4843750000000022
 40
0.5000000000000021
 40
0.5000000000000021
 40
0.531250000000002
 40
0.531250000000002
 40
0.5625000000000019
 40
0.5625000000000019
 40
0.5781250000000022
 40
0.5781250000000022
 40
0.5937500000000026
 40
0.5937500000000026
 40
0.6250000000000024
 40
0.6250000000000024
 40
0.6562500000000023
 40
0.6562500000000023
 40
0.6718750000000023
 40
0.6718750000000023
 40
0.6875000000000022
 40
0.6875000000000022
 40
0.7187500000000021
 40
0.7187500000000021
 40
0.7343750000000021
 40
0.7343750000000021
 40
0.7500000000000021
 40
0.7500000000000021
 40
0.781250000000002
 40
0.781250000000002
 40
0.7968750000000019
 40
0.7968750000000019
 40
0.8125000000000017
 40
0.8125000000000017
 40
0.8281250000000017
 40
0.8281250000000017
 40
0.8437500000000017
 40
0.8437500000000017
 40
0.8750000000000014
 40
0.8750000000000014
 40
0.9062500000000012
 40
0.9062500000000012
 40
0.9375000000000009
 40
0.9375000000000009
 40
0.9531250000000008
 40
0.9531250000000008
 40
0.9687500000000007
 40
0.9687500000000007
 40
1.0
 40
1.0
 40
1.0
 40
1.0
 10
105.6622250665397
 20
6.145934281716764
 30
0.0
 10
106.0726271066947
 20
6.516066073447879
 30
0.0
 10
106.5127029588008
 20
6.840603460004455
 30
0.0
 10
107.4501954511516
 20
7.40274703183538
 30
0.0
 10
107.9528953866265
 20
7.641683096259816
 30
0.0
 10
108.9826096986678
 20
8.014853201126357
 30
0.0
 10
109.5114007186234
 20
8.151368977830236
 30
0.0
 10
110.3258408153587
 20
8.280621368246816
 30
0.0
 10
110.6024032626269
 20
8.311083433445603
 30
0.0
 10
111.1543346019196
 20
8.345084175805264
 30
0.0
 10
111.4294600888087
 20
8.348792118590701
 30
0.0
 10
112.2523756702661
 20
8.320920657035325
 30
0.0
 10
112.7977332414393
 20
8.250719330436288
 30
0.0
 10
113.6106215512192
 20
8.064799059801274
 30
0.0
 10
113.8790234243778
 20
7.989545544644042
 30
0.0
 10
114.4029946031656
 20
7.815115160175712
 30
0.0
 10
114.6597598657273
 20
7.715677263154811
 30
0.0
 10
115.1629066425985
 20
7.492515048719137
 30
0.0
 10
115.4092885536769
 20
7.368791611082358
 30
0.0
 10
115.8914255252338
 20
7.096521150014651
 30
0.0
 10
116.1283755249729
 20
6.947054158641112
 30
0.0
 10
116.8099349405689
 20
6.468744258929912
 30
0.0
 10
117.2276772842354
 20
6.109817272862726
 30
0.0
 10
117.9904779846123
 20
5.312397190428568
 30
0.0
 10
118.3374503443539
 20
4.869272316544042
 30
0.0
 10
118.9275150342006
 20
3.937201181938804
 30
0.0
 10
119.1746346047555
 20
3.445335257161783
 30
0.0
 10
119.471489856107
 20
2.667657350081365
 30
0.0
 10
119.5580346095148
 20
2.401107164221274
 30
0.0
 10
119.7021232274147
 20
1.866617335666684
 30
0.0
 10
119.8184768491076
 20
1.327846803745913
 30
0.0
 10
119.8802266392439
 20
0.7806434798468825
 30
0.0
 10
119.9142972811787
 20
0.2291641114292732
 30
0.0
 10
119.9174193618603
 20
-0.0501204851006816
 30
0.0
 10
119.8839520027186
 20
-0.8843696848753709
 30
0.0
 10
119.8058395697955
 20
-1.429715077510741
 30
0.0
 10
119.6077520961982
 20
-2.2320543050953
 30
0.0
 10
119.5281357376954
 20
-2.496868215392126
 30
0.0
 10
119.3409666982671
 20
-3.021087774077844
 30
0.0
 10
119.2338663820563
 20
-3.27878887896522
 30
0.0
 10
118.8780552121309
 20
-4.027078275103019
 30
0.0
 10
118.5934668814973
 20
-4.498015240159815
 30
0.0
 10
118.0956990571991
 20
-5.16273528321735
 30
0.0
 10
117.9169514920352
 20
-5.378220718053627
 30
0.0
 10
117.5411020468077
 20
-5.787912014773969
 30
0.0
 10
117.3437728277453
 20
-5.982652005305615
 30
0.0
 10
116.7239632326998
 20
-6.536994546466978
 30
0.0
 10
116.2698932741521
 20
-6.868561803952025
 30
0.0
 10
115.319419867108
 20
-7.430041411401949
 30
0.0
 10
114.8205334444888
 20
-7.663173682074542
 30
0.0
 10
114.0365749310943
 20
-7.941041772507382
 30
0.0
 10
113.7684427110174
 20
-8.021673533431342
 30
0.0
 10
113.2314412485036
 20
-8.155327105749084
 30
0.0
 10
112.961290692688
 20
-8.208889615994782
 30
0.0
 10
112.1460233876759
 20
-8.330678170782676
 30
0.0
 10
111.5939408949379
 20
-8.360269963671456
 30
0.0
 10
110.4858527145002
 20
-8.312770771225805
 30
0.0
 10
109.9428944254427
 20
-8.236676260106664
 30
0.0
 10
109.1443585307639
 20
-8.046844922483366
 30
0.0
 10
108.8808480440771
 20
-7.970861096976567
 30
0.0
 10
108.3592573373094
 20
-7.792839013382406
 30
0.0
 10
108.1016615131317
 20
-7.690786483967477
 30
0.0
 10
107.3529409626049
 20
-7.351821500431565
 30
0.0
 10
106.8802139991235
 20
-7.080696750988245
 30
0.0
 10
106.2106076624681
 20
-6.605661208481822
 30
0.0
 10
105.9929677328741
 20
-6.434883364313644
 30
0.0
 10
105.5771361529721
 20
-6.074246292301232
 30
0.0
 10
105.3794105877941
 20
-5.885011065320231
 30
0.0
 10
104.8161055315078
 20
-5.291014072006627
 30
0.0
 10
104.480091980164
 20
-4.860231362915701
 30
0.0
 10
104.0379884403019
 20
-4.158957008545592
 30
0.0
 10
103.9017712486637
 20
-3.916816894917108
 30
0.0
 10
103.6563674935849
 20
-3.424786984923775
 30
0.0
 10
103.5463784384097
 20
-3.173667684441268
 30
0.0
 10
103.3516791727805
 20
-2.661242092131944
 30
0.0
 10
103.2669678904761
 20
-2.399936285244282
 30
0.0
 10
103.1234353363352
 20
-1.866861317035807
 30
0.0
 10
103.0643845098794
 20
-1.593383078047265
 30
0.0
 10
102.9303588484646
 20
-0.7712848661985103
 30
0.0
 10
102.8973129572038
 20
-0.2217717852999144
 30
0.0
 10
102.9416004481815
 20
0.8800954910140154
 30
0.0
 10
103.0211348324114
 20
1.437655229252785
 30
0.0
 10
103.2861435604434
 20
2.507516221850765
 30
0.0
 10
103.4707956361223
 20
3.024757385840604
 30
0.0
 10
103.8263218657053
 20
3.774139473380832
 30
0.0
 10
103.9582623773391
 20
4.019487547953439
 30
0.0
 10
104.2422250806258
 20
4.490003057415963
 30
0.0
 10
104.3949117250633
 20
4.716697008884027
 30
0.0
 10
104.8842271851511
 20
5.371903258962325
 30
0.0
 10
105.2518230263847
 20
5.775802489985651
 30
0.0
 10
105.6622250665397
 20
6.145934281716764
 30
0.0
  0
CIRCLE
  5
E3
330
23
100
AcDbEntity
  8
0
  6
Continuous
 62
     7
370
    25
100
AcDbCircle
 10
11.5
 20
0.0
 30
0.0
 40
4.007596123494508
  0
CIRCLE
  5
E4
330
23
100
AcDbEntity
  8
0
  6
Continuous
 62
     7
370
    25
100
AcDbCircle
 10
11.5
 20
0.0
 30
0.0
 40
3.830245019246445
  0
CIRCLE
  5
E5
330
23
100
AcDbEntity
  8
0
  6
Continuous
 62
     7
370
    25
100
AcDbCircle
 10
111.5
 20
0.0
 30
0.0
 40
3.830245019246445
  0
CIRCLE
  5
E6
330
23
100
AcDbEntity
  8
0
  6
Continuous
 62
     7
370
    25
100
AcDbCircle
 10
111.5
 20
0.0
 30
0.0
 40
4.007596123494504
  0
LINE
  5
EB
330
23
100
AcDbEntity
  8
0
  6
Continuous
 62
     7
370
    25
100
AcDbLine
 10
26.0
 20
54.75
 30
0.0
 11
0.9564221286
 21
52.5152265104
 31
0.0
  0
LINE
  5
EC
330
23
100
AcDbEntity
  8
0
  6
Continuous
 62
     7
370
    25
100
AcDbLine
 10
0.9564221286
 20
-52.5152265104
 30
0.0
 11
26.0
 21
-54.75
 31
0.0
  0
LINE
  5
ED
330
23
100
AcDbEntity
  8
0
  6
Continuous
 62
     7
370
    25
100
AcDbLine
 10
96.5
 20
54.75
 30
0.0
 11
26.0
 21
54.75
 31
0.0
  0
LINE
  5
EE
330
23
100
AcDbEntity
  8
0
  6
Continuous
 62
     7
370
    25
100
AcDbLine
 10
26.0
 20
-54.75
 30
0.0
 11
96.5
 21
-54.75
 31
0.0
  0
LINE
  5
EF
330
23
100
AcDbEntity
  8
0
  6
Continuous
 62
     7
370
    25
100
AcDbLine
 10
96.5
 20
-54.75
 30
0.0
 11
122.0435778714
 21
-52.5152265104
 31
0.0
  0
LINE
  5
F0
330
23
100
AcDbEntity
  8
0
  6
Continuous
 62
     7
370
    25
100
AcDbLine
 10
122.0435778714
 20
52.5152265104
 30
0.0
 11
96.5
 21
54.75
 31
0.0
  0
LINE
  5
F1
330
23
100
AcDbEntity
  8
0
  6
Continuous
 62
     7
370
    25
100
AcDbLine
 10
26.0
 20
54.75
 30
0.0
 11
26.0
 21
-54.75
 31
0.0
  0
LINE
  5
F2
330
23
100
AcDbEntity
  8
0
  6
Continuous
 62
     7
370
    25
100
AcDbLine
 10
96.5
 20
54.75
 30
0.0
 11
96.5
 21
-54.75
 31
0.0
  0
LINE
  5
F3
330
23
100
AcDbEntity
  8
0
  6
Continuous
 62
     7
370
    25
100
AcDbLine
 10
0.5
 20
52.0171291613
 30
0.0
 11
0.5
 21
-52.0171291594
 31
0.0
  0
LINE
  5
F4
330
23
100
AcDbEntity
  8
0
  6
Continuous
 62
     7
370
    25
100
AcDbLine
 10
122.5
 20
52.0171291613
 30
0.0
 11
122.5
 21
-52.0171291594
 31
0.0
  0
LINE
  5
F5
330
23
100
AcDbEntity
  8
0
  6
Continuous
 62
     8
370
    25
100
AcDbLine
 10
0.9564221286
 20
52.5152265104
 30
0.0
 11
0.9564221286
 21
-52.5152265104
 31
0.0
  0
LINE
  5
F6
330
23
100
AcDbEntity
  8
0
  6
Continuous
 62
     8
370
    25
100
AcDbLine
 10
122.0435778714
 20
52.5152265104
 30
0.0
 11
122.0435778714
 21
-52.5152265104
 31
0.0
  0
ARC
  5
F7
330
23
100
AcDbEntity
  8
0
  6
Continuous
 62
     7
370
    25
100
AcDbCircle
 10
1.0
 20
52.0171291613
 30
0.0
 40
0.5000000000004211
100
AcDbArc
 50
95.0
 51
179.9999999999
  0
ARC
  5
F8
330
23
100
AcDbEntity
  8
0
  6
Continuous
 62
     7
370
    25
100
AcDbCircle
 10
1.0
 20
-52.0171291613
 30
0.0
 40
0.5000000000004213
100
AcDbArc
 50
180.0000000001
 51
265.0
  0
ARC
  5
F9
330
23
100
AcDbEntity
  8
0
  6
Continuous
 62
     7
370
    25
100
AcDbCircle
 10
122.0
 20
52.0171291613
 30
0.0
 40
0.5000000000002984
100
AcDbArc
 50
0.0000000006
 51
85.0
  0
ARC
  5
FA
330
23
100
AcDbEntity
  8
0
  6
Continuous
 62
     7
370
    25
100
AcDbCircle
 10
122.0
 20
-52.0171291613
 30
0.0
 40
0.5000000000003126
100
AcDbArc
 50
275.0
 51
359.9999999994
  0
VIEWPORT
  5
FD
330
23
100
AcDbEntity
  8
0
100
AcDbViewport
 10
0.0
 20
0.0
 30
0.0
 40
205.6
 41
156.0
 68
     1
 69
     1
 12
61.5
 22
8.2175717623
 13
0.0
 23
0.0
 14
10.0
 24
10.0
 15
10.0
 25
10.0
 16
0.0
 26
0.0
 36
1.0
 17
0.0
 27
0.0
 37
0.0
 42
50.0
 43
0.0
 44
0.0
 45
128.4538463951
 50
0.0
 51
0.0
 72
   100
 90
   557152
  1

281
     0
 71
     1
 74
     0
110
0.0
120
0.0
130
0.0
111
1.0
121
0.0
131
0.0
112
0.0
122
1.0
132
0.0
 79
     0
146
0.0
  0
ENDBLK
  5
25
330
23
100
AcDbEntity
  8
0
100
AcDbBlockEnd
  0
ENDSEC
  0
SECTION
  2
ENTITIES
  0
SPLINE
  5
7F
330
1F
100
AcDbEntity
  8
0
  6
Continuous
 62
     7
370
    25
100
AcDbSpline
210
0.0
220
0.0
230
1.0
 70
     8
 71
     3
 72
    15
 73
    11
 74
     0
 42
0.000000001
 43
0.00000001
 40
0.0
 40
0.0
 40
0.0
 40
0.0
 40
0.1017248498730756
 40
0.3285014058492333
 40
0.5077641799929388
 40
0.6587275298526404
 40
0.7879029875048691
 40
0.895978026835784
 40
0.981780852003065
 40
1.0
 40
1.0
 40
1.0
 40
1.0
 10
103.9868755717302
 20
55.18203895020635
 30
0.0
 10
103.9893674919648
 20
55.1263772626988
 30
0.0
 10
103.9974146830036
 20
54.94662823754926
 30
0.0
 10
103.8830925825269
 20
54.68108439731944
 30
0.0
 10
103.6911890561327
 20
54.44377384213178
 30
0.0
 10
103.4832776589002
 20
54.29898617679156
 30
0.0
 10
103.2856579664677
 20
54.21932542709016
 30
0.0
 10
103.1119369250848
 20
54.18764457633834
 30
0.0
 10
102.9958437850465
 20
54.18171447107818
 30
0.0
 10
102.939470494017
 20
54.18742262507858
 30
0.0
 10
102.9295968750008
 20
54.18842239175632
 30
0.0
  0
SPLINE
  5
80
330
1F
100
AcDbEntity
  8
0
  6
Continuous
 62
     7
370
    25
100
AcDbSpline
210
0.0
220
0.0
230
1.0
 70
     8
 71
     3
 72
    12
 73
     8
 74
     0
 42
0.000000001
 43
0.00000001
 40
0.0
 40
0.0
 40
0.0
 40
0.0
 40
0.1735784232865924
 40
0.331844761787409
 40
0.5767516242267833
 40
0.8013894226338765
 40
1.0
 40
1.0
 40
1.0
 40
1.0
 10
119.8662722356377
 20
52.71760262328767
 30
0.0
 10
119.7838896092263
 20
52.73037326471525
 30
0.0
 10
119.6263916753283
 20
52.75478799542986
 30
0.0
 10
119.3841114268055
 20
52.89407949878699
 30
0.0
 10
119.1702723906079
 20
53.10816370870232
 30
0.0
 10
119.0222825545732
 20
53.40069349229396
 30
0.0
 10
119.012517832212
 20
53.60379258426376
 30
0.0
 10
119.0079357067817
 20
53.69909744596576
 30
0.0
  0
SPLINE
  5
81
330
1F
100
AcDbEntity
  8
0
  6
Continuous
 62
     7
370
    25
100
AcDbSpline
210
0.0
220
0.0
230
1.0
 70
     8
 71
     3
 72
    14
 73
    10
 74
     0
 42
0.000000001
 43
0.00000001
 40
0.0
 40
0.0
 40
0.0
 40
0.0
 40
0.1144409614272728
 40
0.3428011759861737
 40
0.5289104601730507
 40
0.6878252258850625
 40
0.8229700559430465
 40
0.934099948196892
 40
1.0
 40
1.0
 40
1.0
 40
1.0
 10
3.98630885414665
 20
53.70031789960282
 30
0.0
 10
3.98914600560428
 20
53.64447050474391
 30
0.0
 10
3.997644526099027
 20
53.47718291475316
 30
0.0
 10
3.89721709606531
 20
53.22994831804788
 30
0.0
 10
3.732669155657245
 20
53.0038107289157
 30
0.0
 10
3.548912967569609
 20
52.85563611211334
 30
0.0
 10
3.371937237297055
 20
52.76753757757962
 30
0.0
 10
3.22599185203621
 20
52.72274518090067
 30
0.0
 10
3.140551586823443
 20
52.7124284371614
 30
0.0
 10
3.10874613191249
 20
52.7085879911257
 30
0.0
  0
SPLINE
  5
82
330
1F
100
AcDbEntity
  8
0
  6
Continuous
 62
     7
370
    25
100
AcDbSpline
210
0.0
220
0.0
230
1.0
 70
     8
 71
     3
 72
    13
 73
     9
 74
     0
 42
0.000000001
 43
0.00000001
 40
0.0
 40
0.0
 40
0.0
 40
0.0
 40
0.0276428856094847
 40
0.2222086454994352
 40
0.4209340140642056
 40
0.6274585591801478
 40
0.8530044415107648
 40
1.0
 40
1.0
 40
1.0
 40
1.0
 10
19.93247220875111
 20
54.22335488166011
 30
0.0
 10
19.9186972175038
 20
54.22356367813419
 30
0.0
 10
19.80796629779903
 20
54.22524209848243
 30
0.0
 10
19.60243828761645
 20
54.28782710634294
 30
0.0
 10
19.34298171225221
 20
54.44277904865868
 30
0.0
 10
19.13664129892598
 20
54.6844236615305
 30
0.0
 10
19.01147757630554
 20
54.95549973015395
 30
0.0
 10
19.01362499082843
 20
55.14251943890858
 30
0.0
 10
19.01447230702607
 20
55.21631275026849
 30
0.0
  0
SPLINE
  5
88
330
1F
100
AcDbEntity
  8
0
  6
Continuous
 62
     7
370
    25
100
AcDbSpline
210
0.0
220
0.0
230
1.0
 70
     8
 71
     3
 72
    25
 73
    21
 74
     0
 42
0.000000001
 43
0.00000001
 40
0.0
 40
0.0
 40
0.0
 40
0.0
 40
0.0084393946278469
 40
0.0628820063690164
 40
0.1189573516089318
 40
0.1737054434103492
 40
0.2300051179862079
 40
0.3105274892132003
 40
0.3679924555315545
 40
0.4270795371384846
 40
0.4847696853417832
 40
0.5441128511674795
 40
0.6011169721561889
 40
0.6597579234345667
 40
0.715810518360334
 40
0.7734489057673994
 40
0.8292507772527858
 40
0.8866525188638877
 40
0.9424973787530069
 40
1.0
 40
1.0
 40
1.0
 40
1.0
 10
20.07331560250419
 20
54.21878718007115
 30
0.0
 10
20.07832881252093
 20
54.21998887911867
 30
0.0
 10
20.11568228609367
 20
54.22894274968544
 30
0.0
 10
19.96098998453641
 20
54.19172716784349
 30
0.0
 10
19.60562550655894
 20
54.10769994308066
 30
0.0
 10
19.00848473460757
 20
53.97134962064997
 30
0.0
 10
18.10747738440633
 20
53.77634462816248
 30
0.0
 10
16.94265413233457
 20
53.54527022943588
 30
0.0
 10
15.57022868568237
 20
53.30698195474907
 30
0.0
 10
14.24386736107169
 20
53.10686588739478
 30
0.0
 10
12.82679670914443
 20
52.92829608892619
 30
0.0
 10
11.38790279172822
 20
52.78463890899621
 30
0.0
 10
9.944260938549492
 20
52.6788805463002
 30
0.0
 10
8.569597116330998
 20
52.61414693812911
 30
0.0
 10
7.2721060895298
 20
52.58527003446111
 30
0.0
 10
6.111723137346238
 20
52.58598596555533
 30
0.0
 10
5.091599626092909
 20
52.60732811304284
 30
0.0
 10
4.264344712076519
 20
52.63881431364265
 30
0.0
 10
3.617123842447265
 20
52.67235209079951
 30
0.0
 10
3.379943262568956
 20
52.68704375309532
 30
0.0
 10
3.259618532674806
 20
52.6944970205523
 30
0.0
  0
SPLINE
  5
8A
330
1F
100
AcDbEntity
  8
0
  6
Continuous
 62
     7
370
    25
100
AcDbSpline
210
0.0
220
0.0
230
1.0
 70
     8
 71
     3
 72
    12
 73
     8
 74
     0
 42
0.000000001
 43
0.00000001
 40
0.0
 40
0.0
 40
0.0
 40
0.0
 40
0.0273253573330102
 40
0.2663879206797085
 40
0.5126366634677761
 40
0.7527781674557183
 40
0.9999999999999999
 40
0.9999999999999999
 40
0.9999999999999999
 40
0.9999999999999999
 10
119.9005766256051
 20
52.70081884287418
 30
0.0
 10
119.9045761551109
 20
52.70108709250054
 30
0.0
 10
119.9435665454576
 20
52.70370218950801
 30
0.0
 10
119.7897634465661
 20
52.69315223145045
 30
0.0
 10
119.4246001980425
 20
52.67022429231515
 30
0.0
 10
118.8164580869192
 20
52.63587810405543
 30
0.0
 10
118.2453590469174
 20
52.61471062905451
 30
0.0
 10
117.955661113876
 20
52.60397313288317
 30
0.0
  0
SPLINE
  5
8B
330
1F
100
AcDbEntity
  8
0
  6
Continuous
 62
     7
370
    25
100
AcDbSpline
210
0.0
220
0.0
230
1.0
 70
     8
 71
     3
 72
    34
 73
    30
 74
     0
 42
0.000000001
 43
0.00000001
 40
0.0
 40
0.0
 40
0.0
 40
0.0
 40
0.125
 40
0.125
 40
0.1874999999999999
 40
0.1874999999999999
 40
0.2499999999999999
 40
0.2499999999999999
 40
0.3124999999999999
 40
0.3124999999999999
 40
0.3749999999999999
 40
0.3749999999999999
 40
0.4374999999999998
 40
0.4374999999999998
 40
0.4999999999999998
 40
0.4999999999999998
 40
0.5624999999999998
 40
0.5624999999999998
 40
0.6249999999999998
 40
0.6249999999999998
 40
0.7499999999999998
 40
0.7499999999999998
 40
0.8124999999999998
 40
0.8124999999999998
 40
0.8749999999999999
 40
0.8749999999999999
 40
0.9375
 40
0.9375
 40
1.0
 40
1.0
 40
1.0
 40
1.0
 10
116.4722132599821
 20
52.57693798694662
 30
0.0
 10
115.8426348200092
 20
52.57408025496626
 30
0.0
 10
115.1656501897992
 20
52.58195009975059
 30
0.0
 10
114.0819178943611
 20
52.61760894196443
 30
0.0
 10
113.7073659133558
 20
52.63362555017706
 30
0.0
 10
112.956735287936
 20
52.67368174063461
 30
0.0
 10
112.5782466268747
 20
52.69776524699499
 30
0.0
 10
111.8150538712865
 20
52.75439648838254
 30
0.0
 10
111.4289222922555
 20
52.78708068041201
 30
0.0
 10
110.6563903301525
 20
52.86069226178725
 30
0.0
 10
110.2755370243325
 20
52.90105742297239
 30
0.0
 10
109.5242064107051
 20
52.98824142967029
 30
0.0
 10
109.1537300209678
 20
53.03506197688112
 30
0.0
 10
108.4232482852312
 20
53.13446435915944
 30
0.0
 10
108.0630128760237
 20
53.18714317025282
 30
0.0
 10
107.3737298673495
 20
53.29413030571916
 30
0.0
 10
107.041926949091
 20
53.34879762091403
 30
0.0
 10
106.40380535933
 20
53.45910439294715
 30
0.0
 10
106.0958647871703
 20
53.51505689780383
 30
0.0
 10
105.2234609974825
 20
53.67992691242264
 30
0.0
 10
104.7198742834429
 20
53.78379662895203
 30
0.0
 10
104.0823577902046
 20
53.92097288604351
 30
0.0
 10
103.8901776797779
 20
53.96349581220326
 30
0.0
 10
103.5587201071471
 20
54.03805615974497
 30
0.0
 10
103.4175785614311
 20
54.07049337221962
 30
0.0
 10
103.18478156688
 20
54.12453846624484
 30
0.0
 10
103.0927078813942
 20
54.14624721184957
 30
0.0
 10
102.9633083246213
 20
54.17688738748796
 30
0.0
 10
102.926177358548
 20
54.18576634377077
 30
0.0
 10
102.9158283479721
 20
54.18823649443282
 30
0.0
  0
SPLINE
  5
93
330
1F
100
AcDbEntity
  8
0
  6
Continuous
 62
     8
370
    25
100
AcDbSpline
210
0.0
220
0.0
230
1.0
 70
     8
 71
     3
 72
     9
 73
     5
 74
     0
 42
0.000000001
 43
0.00000001
 40
0.0
 40
0.0
 40
0.0
 40
0.0
 40
0.8271979774993726
 40
0.9999999999999999
 40
0.9999999999999999
 40
0.9999999999999999
 40
0.9999999999999999
 10
3.259618532674806
 20
52.69449702055231
 30
0.0
 10
3.171661505761016
 20
52.70017853130945
 30
0.0
 10
3.065330217113915
 20
52.70704691217072
 30
0.0
 10
3.102561267414983
 20
52.70461911056071
 30
0.0
 10
3.108994868206837
 20
52.70419958153227
 30
0.0
  0
SPLINE
  5
95
330
1F
100
AcDbEntity
  8
0
  6
Continuous
 62
     8
370
    25
100
AcDbSpline
210
0.0
220
0.0
230
1.0
 70
     8
 71
     3
 72
    10
 73
     6
 74
     0
 42
0.000000001
 43
0.00000001
 40
0.0
 40
0.0
 40
0.0
 40
0.0
 40
0.5
 40
0.5
 40
1.0
 40
1.0
 40
1.0
 40
1.0
 10
117.955661113876
 20
52.60397313288317
 30
0.0
 10
117.7362713421926
 20
52.59697423459458
 30
0.0
 10
117.5027469072737
 20
52.59085086706863
 30
0.0
 10
117.0082088465136
 20
52.58145816113461
 30
0.0
 10
116.7471939462392
 20
52.57818615723202
 30
0.0
 10
116.4722132599821
 20
52.57693798694662
 30
0.0
  0
SPLINE
  5
97
330
1F
100
AcDbEntity
  8
0
  6
Continuous
 62
     8
370
    25
100
AcDbSpline
210
0.0
220
0.0
230
1.0
 70
     8
 71
     3
 72
    27
 73
    23
 74
     0
 42
0.000000001
 43
0.00000001
 40
0.0
 40
0.0
 40
0.0
 40
0.0
 40
0.0068816148760418
 40
0.0605420577235628
 40
0.1139543647379107
 40
0.1690221323466123
 40
0.2228822889326045
 40
0.2783293499714691
 40
0.3314830068672712
 40
0.3861231142257463
 40
0.4384930154711166
 40
0.4923323164324164
 40
0.5446081701318775
 40
0.598405628516932
 40
0.6506453706549566
 40
0.7044082958730759
 40
0.7806826678686566
 40
0.8333065469822825
 40
0.8874494020140031
 40
0.9400596544742567
 40
0.9941956420568988
 40
1.0
 40
1.0
 40
1.0
 40
1.0
 10
104.0115865387829
 20
55.181980630211
 30
0.0
 10
104.007839682323
 20
55.18300337142723
 30
0.0
 10
103.9748761404564
 20
55.1920010934538
 30
0.0
 10
104.1133085249401
 20
55.15406348670189
 30
0.0
 10
104.4446360446371
 20
55.06493390969104
 30
0.0
 10
104.9994958863581
 20
54.9210698819827
 30
0.0
 10
105.742408294563
 20
54.73948757903852
 30
0.0
 10
106.6415854747532
 20
54.53652605058401
 30
0.0
 10
107.6817813392957
 20
54.32514488333578
 30
0.0
 10
108.81013779191
 20
54.12436580266885
 30
0.0
 10
110.020308435406
 20
53.94251853457876
 30
0.0
 10
111.2576883980451
 20
53.79261487694816
 30
0.0
 10
112.5163348440317
 20
53.67795791789967
 30
0.0
 10
113.7377967115342
 20
53.60340867383965
 30
0.0
 10
114.9092661777622
 20
53.56601487764791
 30
0.0
 10
116.136893251866
 20
53.56032558295916
 30
0.0
 10
117.1934631020413
 20
53.5883412575539
 30
0.0
 10
118.0202944304253
 20
53.62911989818863
 30
0.0
 10
118.5633616472275
 20
53.66436636074404
 30
0.0
 10
118.8894180647748
 20
53.68888768817121
 30
0.0
 10
119.0268933241309
 20
53.69996996464648
 30
0.0
 10
118.9931211197298
 20
53.69729008287955
 30
0.0
 10
118.9898507688309
 20
53.69703057498242
 30
0.0
  0
SPLINE
  5
98
330
1F
100
AcDbEntity
  8
0
  6
Continuous
 62
     8
370
    25
100
AcDbSpline
210
0.0
220
0.0
230
1.0
 70
     8
 71
     3
 72
    27
 73
    23
 74
     0
 42
0.000000001
 43
0.00000001
 40
0.0
 40
0.0
 40
0.0
 40
0.0
 40
0.0095234673179581
 40
0.0637520776335136
 40
0.1164157920925515
 40
0.1706058976919555
 40
0.2229267667761264
 40
0.2767430499135253
 40
0.3289640516594668
 40
0.3826974980750042
 40
0.4356057450022316
 40
0.4901023296387021
 40
0.5437066298008351
 40
0.5989142549316184
 40
0.6525806542800296
 40
0.7077862270098461
 40
0.7833573820135625
 40
0.8349477160643601
 40
0.8879602614237843
 40
0.939385976190281
 40
0.9923133593601114
 40
1.0
 40
1.0
 40
1.0
 40
1.0
 10
4.015326206203172
 20
53.70037092590215
 30
0.0
 10
4.010478019286272
 20
53.70074682373917
 30
0.0
 10
3.978023244319479
 20
53.70326316230448
 30
0.0
 10
4.124977702129273
 20
53.69171362205876
 30
0.0
 10
4.467062918306258
 20
53.66686068252608
 30
0.0
 10
5.021728946878093
 20
53.63245845097283
 30
0.0
 10
5.75793412739143
 20
53.59851161872476
 30
0.0
 10
6.6466171950329
 20
53.57499932953114
 30
0.0
 10
7.678708683336962
 20
53.57194908511896
 30
0.0
 10
8.811808510561216
 20
53.59839465917722
 30
0.0
 10
10.03596238453236
 20
53.66213407110384
 30
0.0
 10
11.29882838107642
 20
53.7660102882725
 30
0.0
 10
12.5812150117067
 20
53.91088882656351
 30
0.0
 10
13.82215538899399
 20
54.08865671262733
 30
0.0
 10
15.00428589795133
 20
54.29190896075775
 30
0.0
 10
16.21782530784164
 20
54.53257170676238
 30
0.0
 10
17.24516734022549
 20
54.76596070893852
 30
0.0
 10
18.04172575219928
 20
54.9632512128892
 30
0.0
 10
18.56584334541076
 20
55.10036842625985
 30
0.0
 10
18.88558698439767
 20
55.18697204547711
 30
0.0
 10
19.0233140812732
 20
55.22496899986142
 30
0.0
 10
18.99121503761568
 20
55.21614613107327
 30
0.0
 10
18.98714446453751
 20
55.21502727742315
 30
0.0
  0
LINE
  5
99
330
1F
100
AcDbEntity
  8
0
  6
Continuous
 62
     7
370
    25
100
AcDbLine
 10
3.1087193083
 20
52.707287593
 30
0.0
 11
0.9564221286
 21
52.5152265104
 31
0.0
  0
LINE
  5
9A
330
1F
100
AcDbEntity
  8
0
  6
Continuous
 62
     7
370
    25
100
AcDbLine
 10
26.0
 20
54.75
 30
0.0
 11
20.0731081922
 21
54.2211114859
 31
0.0
  0
LINE
  5
9B
330
1F
100
AcDbEntity
  8
0
  6
Continuous
 62
     7
370
    25
100
AcDbLine
 10
0.9564221286
 20
-52.5152265104
 30
0.0
 11
26.0
 21
-54.75
 31
0.0
  0
LINE
  5
9C
330
1F
100
AcDbEntity
  8
0
  6
Continuous
 62
     7
370
    25
100
AcDbLine
 10
96.5
 20
54.75
 30
0.0
 11
26.0
 21
54.75
 31
0.0
  0
LINE
  5
9D
330
1F
100
AcDbEntity
  8
0
  6
Continuous
 62
     7
370
    25
100
AcDbLine
 10
26.0
 20
-54.75
 30
0.0
 11
96.5
 21
-54.75
 31
0.0
  0
LINE
  5
9E
330
1F
100
AcDbEntity
  8
0
  6
Continuous
 62
     7
370
    25
100
AcDbLine
 10
96.5
 20
-54.75
 30
0.0
 11
122.0435778714
 21
-52.5152265104
 31
0.0
  0
LINE
  5
9F
330
1F
100
AcDbEntity
  8
0
  6
Continuous
 62
     7
370
    25
100
AcDbLine
 10
102.9291517783
 20
54.1875221033
 30
0.0
 11
96.5
 21
54.75
 31
0.0
  0
LINE
  5
A0
330
1F
100
AcDbEntity
  8
0
  6
Continuous
 62
     7
370
    25
100
AcDbLine
 10
122.0435778714
 20
52.5152265104
 30
0.0
 11
119.9007412426
 21
52.7027004232
 31
0.0
  0
LINE
  5
A1
330
1F
100
AcDbEntity
  8
0
  6
Continuous
 62
     7
370
    25
100
AcDbLine
 10
104.0
 20
71.1851435246
 30
0.0
 11
104.0
 21
55.1820187382
 31
0.0
  0
LINE
  5
A2
330
1F
100
AcDbEntity
  8
0
  6
Continuous
 62
     7
370
    25
100
AcDbLine
 10
119.0
 20
53.6970087537
 30
0.0
 11
119.0
 21
71.1851435246
 31
0.0
  0
LINE
  5
A3
330
1F
100
AcDbEntity
  8
0
  6
Continuous
 62
     7
370
    25
100
AcDbLine
 10
4.0
 20
71.1851435246
 30
0.0
 11
4.0
 21
53.7003835834
 31
0.0
  0
LINE
  5
A4
330
1F
100
AcDbEntity
  8
0
  6
Continuous
 62
     7
370
    25
100
AcDbLine
 10
19.0
 20
55.2149326211
 30
0.0
 11
19.0
 21
71.1851435246
 31
0.0
  0
LINE
  5
A5
330
1F
100
AcDbEntity
  8
0
  6
Continuous
 62
     7
370
    25
100
AcDbLine
 10
26.0
 20
54.75
 30
0.0
 11
26.0
 21
-54.75
 31
0.0
  0
LINE
  5
A6
330
1F
100
AcDbEntity
  8
0
  6
Continuous
 62
     7
370
    25
100
AcDbLine
 10
96.5
 20
54.75
 30
0.0
 11
96.5
 21
-54.75
 31
0.0
  0
LINE
  5
A7
330
1F
100
AcDbEntity
  8
0
  6
Continuous
 62
     7
370
    25
100
AcDbLine
 10
0.5
 20
52.0171291613
 30
0.0
 11
0.5
 21
-52.0171291613
 31
0.0
  0
LINE
  5
A8
330
1F
100
AcDbEntity
  8
0
  6
Continuous
 62
     7
370
    25
100
AcDbLine
 10
122.5
 20
52.0171291613
 30
0.0
 11
122.5
 21
-52.0171291613
 31
0.0
  0
LINE
  5
A9
330
1F
100
AcDbEntity
  8
0
  6
Continuous
 62
     7
370
    25
100
AcDbLine
 10
104.0
 20
71.1851435246
 30
0.0
 11
119.0
 21
71.1851435246
 31
0.0
  0
LINE
  5
AA
330
1F
100
AcDbEntity
  8
0
  6
Continuous
 62
     7
370
    25
100
AcDbLine
 10
19.0
 20
71.1851435246
 30
0.0
 11
4.0
 21
71.1851435246
 31
0.0
  0
LINE
  5
AB
330
1F
100
AcDbEntity
  8
0
  6
Continuous
 62
     8
370
    25
100
AcDbLine
 10
0.9564221286
 20
52.5152265104
 30
0.0
 11
0.9564221286
 21
-52.5152265104
 31
0.0
  0
LINE
  5
AC
330
1F
100
AcDbEntity
  8
0
  6
Continuous
 62
     8
370
    25
100
AcDbLine
 10
122.0435778714
 20
52.5152265104
 30
0.0
 11
122.0435778714
 21
-52.5152265104
 31
0.0
  0
LINE
  5
AD
330
1F
100
AcDbEntity
  8
0
  6
Continuous
 62
     8
370
    25
100
AcDbLine
 10
102.915828348
 20
54.1882364944
 30
0.0
 11
102.9289412633
 21
54.1851159057
 31
0.0
  0
ARC
  5
AE
330
1F
100
AcDbEntity
  8
0
  6
Continuous
 62
     7
370
    25
100
AcDbCircle
 10
1.0
 20
52.0171291613
 30
0.0
 40
0.5000000000004211
100
AcDbArc
 50
95.0
 51
179.9999999999
  0
ARC
  5
AF
330
1F
100
AcDbEntity
  8
0
  6
Continuous
 62
     7
370
    25
100
AcDbCircle
 10
1.0
 20
-52.0171291613
 30
0.0
 40
0.5000000000004213
100
AcDbArc
 50
180.0000000001
 51
265.0
  0
ARC
  5
B0
330
1F
100
AcDbEntity
  8
0
  6
Continuous
 62
     7
370
    25
100
AcDbCircle
 10
122.0
 20
52.0171291613
 30
0.0
 40
0.5000000000002984
100
AcDbArc
 50
0.0000000006
 51
85.0
  0
ARC
  5
B1
330
1F
100
AcDbEntity
  8
0
  6
Continuous
 62
     7
370
    25
100
AcDbCircle
 10
122.0
 20
-52.0171291613
 30
0.0
 40
0.5000000000003126
100
AcDbArc
 50
275.0
 51
359.9999999994
  0
SPLINE
  5
B2
330
1B
100
AcDbEntity
 67
     1
  8
0
  6
Continuous
 62
     7
370
    25
100
AcDbSpline
210
0.0
220
0.0
230
1.0
 70
     8
 71
     3
 72
    12
 73
     8
 74
     0
 42
0.000000001
 43
0.00000001
 40
0.0
 40
0.0
 40
0.0
 40
0.0
 40
0.1189009065239274
 40
0.3574814042971948
 40
0.5708200052040165
 40
0.7823672521576601
 40
1.0
 40
1.0
 40
1.0
 40
1.0
 10
7.806653698334959
 20
53.11972057225292
 30
0.0
 10
7.809102488431774
 20
53.11824624592103
 30
0.0
 10
7.81646489590393
 20
53.11381361152881
 30
0.0
 10
7.761356175292957
 20
53.15255342845181
 30
0.0
 10
7.655164893713397
 20
53.27036255073466
 30
0.0
 10
7.529691593265025
 20
53.49057749609935
 30
0.0
 10
7.510451636483451
 20
53.69375169245559
 30
0.0
 10
7.500695252883299
 20
53.7967792314365
 30
0.0
  0
SPLINE
  5
B3
330
1B
100
AcDbEntity
 67
     1
  8
0
  6
Continuous
 62
     7
370
    25
100
AcDbSpline
210
0.0
220
0.0
230
1.0
 70
     8
 71
     3
 72
    12
 73
     8
 74
     0
 42
0.000000001
 43
0.00000001
 40
0.0
 40
0.0
 40
0.0
 40
0.0
 40
0.2006686830521432
 40
0.40283450719617
 40
0.6003732459951282
 40
0.8128286092576382
 40
1.0
 40
1.0
 40
1.0
 40
1.0
 10
-7.504941138473741
 20
53.79984932904634
 30
0.0
 10
-7.510964239322131
 20
53.7042246117082
 30
0.0
 10
-7.523055377935045
 20
53.5122617438666
 30
0.0
 10
-7.636933026160938
 20
53.29756077059469
 30
0.0
 10
-7.741497768072179
 20
53.17156967492657
 30
0.0
 10
-7.808227387988644
 20
53.11883953616205
 30
0.0
 10
-7.80990434743512
 20
53.11813417598166
 30
0.0
 10
-7.810689777411136
 20
53.11780380959697
 30
0.0
  0
CIRCLE
  5
B6
330
1B
100
AcDbEntity
 67
     1
  8
0
  6
Continuous
 62
     7
370
    25
100
AcDbCircle
 10
0.0
 20
0.0
 30
0.0
 40
46.21528759513116
  0
CIRCLE
  5
B7
330
1B
100
AcDbEntity
 67
     1
  8
0
  6
Continuous
 62
     7
370
    25
100
AcDbCircle
 10
0.0
 20
0.0
 30
0.0
 40
46.73273734348248
  0
CIRCLE
  5
B8
330
1B
100
AcDbEntity
 67
     1
  8
0
  6
Continuous
 62
     7
370
    25
100
AcDbCircle
 10
0.0
 20
0.0
 30
0.0
 40
52.01712916131758
  0
CIRCLE
  5
B9
330
1B
100
AcDbEntity
 67
     1
  8
0
  6
Continuous
 62
     7
370
    25
100
AcDbCircle
 10
0.0
 20
0.0
 30
0.0
 40
52.51522651036347
  0
SPLINE
  5
BC
330
1B
100
AcDbEntity
 67
     1
  8
0
  6
Continuous
 62
     7
370
    25
100
AcDbSpline
210
0.0
220
0.0
230
1.0
 70
     8
 71
     3
 72
    18
 73
    14
 74
     0
 42
0.000000001
 43
0.00000001
 40
0.0
 40
0.0
 40
0.0
 40
0.0
 40
0.0121269505060213
 40
0.1107736312984186
 40
0.2122485662944779
 40
0.3109712420889765
 40
0.4126245123446843
 40
0.5111456981971909
 40
0.6126443293381156
 40
0.711141978942562
 40
0.8125817601714107
 40
0.9051165720767778
 40
0.9999999999999999
 40
0.9999999999999999
 40
0.9999999999999999
 40
0.9999999999999999
 10
6.487784210597423
 20
52.58961832002046
 30
0.0
 10
6.455849972031346
 20
52.58954410185742
 30
0.0
 10
6.164146664843138
 20
52.58886615603555
 30
0.0
 10
5.42819840583929
 20
52.60880307174021
 30
0.0
 10
4.308501434483477
 20
52.63858189133888
 30
0.0
 10
3.033274605582481
 20
52.67185138144493
 30
0.0
 10
1.68648355725615
 20
52.69656193823625
 30
0.0
 10
0.2763343429737662
 20
52.70792162334885
 30
0.0
 10
-1.127337593679027
 20
52.70299054950409
 30
0.0
 10
-2.511422965235075
 20
52.68280612873019
 30
0.0
 10
-3.780080381690189
 20
52.6533287600905
 30
0.0
 10
-4.939940122107311
 20
52.62067611360382
 30
0.0
 10
-5.583373721536404
 20
52.60540388933654
 30
0.0
 10
-5.909122088454407
 20
52.59767208590154
 30
0.0
  0
CIRCLE
  5
BD
330
1B
100
AcDbEntity
 67
     1
  8
0
  6
Continuous
 62
     7
370
    25
100
AcDbCircle
 10
0.0
 20
0.0
 30
0.0
 40
45.75454545454961
  0
SPLINE
  5
BF
330
1B
100
AcDbEntity
 67
     1
  8
0
  6
Continuous
 62
     8
370
    25
100
AcDbSpline
210
0.0
220
0.0
230
1.0
 70
     8
 71
     3
 72
    15
 73
    11
 74
     0
 42
0.000000001
 43
0.00000001
 40
0.0
 40
0.0
 40
0.0
 40
0.0
 40
0.0203018199076156
 40
0.1663645261868289
 40
0.3166581658759395
 40
0.4625648669639637
 40
0.6126079687209717
 40
0.7580712367415879
 40
0.9075288716281341
 40
1.0
 40
1.0
 40
1.0
 40
1.0
 10
-5.909122088454407
 20
52.59767208590154
 30
0.0
 10
-5.954259664400712
 20
52.59676787184092
 30
0.0
 10
-6.32414233845163
 20
52.58935823347109
 30
0.0
 10
-6.954259492414563
 20
52.5825487962551
 30
0.0
 10
-7.638325485802226
 20
52.59924284678246
 30
0.0
 10
-8.10910990594412
 20
52.65043534152601
 30
0.0
 10
-8.350855238174423
 20
52.73870732504736
 30
0.0
 10
-8.352549905342544
 20
52.86685148714714
 30
0.0
 10
-8.182232787058851
 20
53.00562608909117
 30
0.0
 10
-7.920237840114882
 20
53.10951833010213
 30
0.0
 10
-7.820096922411111
 20
53.14922850191459
 30
0.0
  0
SPLINE
  5
C0
330
1B
100
AcDbEntity
 67
     1
  8
0
  6
Continuous
 62
     8
370
    25
100
AcDbSpline
210
0.0
220
0.0
230
1.0
 70
     8
 71
     3
 72
    14
 73
    10
 74
     0
 42
0.000000001
 43
0.00000001
 40
0.0
 40
0.0
 40
0.0
 40
0.0
 40
0.0344322369075558
 40
0.1985035008332387
 40
0.3672759607004273
 40
0.5293961574908961
 40
0.6961715133132217
 40
0.8555855620235197
 40
1.0
 40
1.0
 40
1.0
 40
1.0
 10
7.820892657933247
 20
53.150547165204
 30
0.0
 10
7.860215406952832
 20
53.13668228145806
 30
0.0
 10
8.08691294518514
 20
53.05675056021657
 30
0.0
 10
8.284410524937734
 20
52.92931915073195
 30
0.0
 10
8.385257894726506
 20
52.78439880714571
 30
0.0
 10
8.226966720204805
 20
52.67885662239629
 30
0.0
 10
7.838934548833356
 20
52.61449367103516
 30
0.0
 10
7.267168057175732
 20
52.58517900538704
 30
0.0
 10
6.738885285435603
 20
52.58818806626181
 30
0.0
 10
6.487784210597423
 20
52.58961832002046
 30
0.0
  0
SPLINE
  5
C1
330
1B
100
AcDbEntity
 67
     1
  8
0
  6
Continuous
 62
     8
370
    25
100
AcDbSpline
210
0.0
220
0.0
230
1.0
 70
     8
 71
     3
 72
    22
 73
    18
 74
     0
 42
0.000000001
 43
0.00000001
 40
0.0
 40
0.0
 40
0.0
 40
0.0
 40
0.065764033440602
 40
0.1331761793419858
 40
0.2035389201471866
 40
0.2759352932055743
 40
0.3464342530634862
 40
0.4189893960285218
 40
0.4894507873385854
 40
0.5619544129372538
 40
0.6319570944436984
 40
0.7039605644599817
 40
0.7738296285095043
 40
0.8457222671738049
 40
0.9165108305815094
 40
0.9894245096597112
 40
1.0
 40
1.0
 40
1.0
 40
1.0
 10
-5.312050208125314
 20
53.58748731270304
 30
0.0
 10
-5.026134060193185
 20
53.59565814742724
 30
0.0
 10
-4.447136419664178
 20
53.61220458616696
 30
0.0
 10
-3.415585886857353
 20
53.64637399879354
 30
0.0
 10
-2.268288943756712
 20
53.67756931260109
 30
0.0
 10
-1.036867505432257
 20
53.69867214905005
 30
0.0
 10
0.2356264338571568
 20
53.70409497832927
 30
0.0
 10
1.490774705027825
 20
53.69261849875822
 30
0.0
 10
2.714346150098092
 20
53.66661394276456
 30
0.0
 10
3.847446199211464
 20
53.6325199558908
 30
0.0
 10
4.879394680539781
 20
53.5985048895238
 30
0.0
 10
5.764025888615538
 20
53.57496261291953
 30
0.0
 10
6.493293680013657
 20
53.57209865932303
 30
0.0
 10
7.042978889989569
 20
53.59781712561973
 30
0.0
 10
7.379802911800647
 20
53.66427876276379
 30
0.0
 10
7.523986540011011
 20
53.7312493031124
 30
0.0
 10
7.490891135536973
 20
53.78705889066902
 30
0.0
 10
7.486698973454622
 20
53.79412823580937
 30
0.0
  0
SPLINE
  5
C2
330
1B
100
AcDbEntity
 67
     1
  8
0
  6
Continuous
 62
     8
370
    25
100
AcDbSpline
210
0.0
220
0.0
230
1.0
 70
     8
 71
     3
 72
    12
 73
     8
 74
     0
 42
0.000000001
 43
0.00000001
 40
0.0
 40
0.0
 40
0.0
 40
0.0
 40
0.1114040550884665
 40
0.3224834966715511
 40
0.5397746704483913
 40
0.7660658434977787
 40
0.9999999999999999
 40
0.9999999999999999
 40
0.9999999999999999
 40
0.9999999999999999
 10
-7.473349388028299
 20
53.79637103851125
 30
0.0
 10
-7.477925817495287
 20
53.77333687888301
 30
0.0
 10
-7.491173297361375
 20
53.70665944659473
 30
0.0
 10
-7.285894552814614
 20
53.63657636132078
 30
0.0
 10
-6.865651709282299
 20
53.58431025742983
 30
0.0
 10
-6.220420013324633
 20
53.56864350113269
 30
0.0
 10
-5.618173985788292
 20
53.58113688278952
 30
0.0
 10
-5.312050208125314
 20
53.58748731270304
 30
0.0
  0
LINE
  5
C3
330
1B
100
AcDbEntity
 67
     1
  8
0
  6
Continuous
 62
     7
370
    25
100
AcDbLine
 10
-7.5
 20
71.1851435246
 30
0.0
 11
-7.5
 21
53.7974075081
 31
0.0
  0
LINE
  5
C4
330
1B
100
AcDbEntity
 67
     1
  8
0
  6
Continuous
 62
     7
370
    25
100
AcDbLine
 10
7.5
 20
53.7950063985
 30
0.0
 11
7.5
 21
71.1851435246
 31
0.0
  0
LINE
  5
C5
330
1B
100
AcDbEntity
 67
     1
  8
0
  6
Continuous
 62
     7
370
    25
100
AcDbLine
 10
7.5
 20
71.1851435246
 30
0.0
 11
-7.5
 21
71.1851435246
 31
0.0
  0
ARC
  5
C6
330
1B
100
AcDbEntity
 67
     1
  8
0
  6
Continuous
 62
     7
370
    25
100
AcDbCircle
 10
0.0
 20
0.0
 30
0.0
 40
54.7500000000008
100
AcDbArc
 50
97.8734937983
 51
82.1265062017
  0
VIEWPORT
  5
FB
330
1B
100
AcDbEntity
 67
     1
  8
0
100
AcDbViewport
 10
0.0
 20
0.0
 30
0.0
 40
205.6
 41
156.0
 68
     1
 69
     1
 12
61.5
 22
8.2175717623
 13
0.0
 23
0.0
 14
10.0
 24
10.0
 15
10.0
 25
10.0
 16
0.0
 26
0.0
 36
1.0
 17
0.0
 27
0.0
 37
0.0
 42
50.0
 43
0.0
 44
0.0
 45
128.4538463951
 50
0.0
 51
0.0
 72
   100
 90
   557152
  1

281
     0
 71
     1
 74
     0
110
0.0
120
0.0
130
0.0
111
1.0
121
0.0
131
0.0
112
0.0
122
1.0
132
0.0
 79
     0
146
0.0
  0
ENDSEC
  0
SECTION
  2
OBJECTS
  0
DICTIONARY
  5
C
330
0
100
AcDbDictionary
281
     1
  3
ACAD_GROUP
350
D
  3
ACAD_LAYOUT
350
1A
  3
ACAD_MLINESTYLE
350
17
  3
ACAD_PLOTSETTINGS
350
19
  3
ACAD_PLOTSTYLENAME
350
E
  3
ACAD_SCALELIST
350
47
  0
DICTIONARY
  5
D
102
{ACAD_REACTORS
330
C
102
}
330
C
100
AcDbDictionary
281
     1
  0
DICTIONARY
  5
1A
102
{ACAD_REACTORS
330
C
102
}
330
C
100
AcDbDictionary
281
     1
  3
_Left
350
1E
  3
_Top
350
26
  3
Model
350
22
  0
DICTIONARY
  5
17
102
{ACAD_REACTORS
330
C
102
}
330
C
100
AcDbDictionary
281
     1
  3
Standard
350
18
  0
DICTIONARY
  5
19
102
{ACAD_REACTORS
330
C
102
}
330
C
100
AcDbDictionary
281
     1
  0
ACDBDICTIONARYWDFLT
  5
E
102
{ACAD_REACTORS
330
C
102
}
330
C
100
AcDbDictionary
281
     1
  3
Normal
350
F
100
AcDbDictionaryWithDefault
340
F
  0
DICTIONARY
  5
47
102
{ACAD_REACTORS
330
C
102
}
330
C
100
AcDbDictionary
281
     1
  3
A0
350
48
  3
A1
350
49
  3
A2
350
4A
  3
A3
350
4B
  3
A4
350
4C
  3
A5
350
4D
  3
A6
350
4E
  3
A7
350
4F
  3
A8
350
50
  3
A9
350
51
  3
B0
350
52
  3
B1
350
53
  3
B2
350
54
  3
B3
350
55
  3
B4
350
56
  3
B5
350
57
  3
B6
350
58
  3
B7
350
59
  3
B8
350
5A
  3
B9
350
5B
  3
C0
350
5C
  3
C1
350
5D
  3
C2
350
5E
  3
C3
350
5F
  3
C4
350
60
  3
C5
350
61
  3
C6
350
62
  3
C7
350
63
  3
C8
350
64
  3
C9
350
65
  3
D0
350
66
  3
D1
350
67
  3
D2
350
68
  0
LAYOUT
  5
1E
102
{ACAD_REACTORS
330
1A
102
}
330
1A
100
AcDbPlotSettings
  1

  2
none_device
  4
ISO_A4_(210.00_x_297.00_MM)
  6

 40
7.5
 41
20.0
 42
7.5
 43
20.0
 44
210.0
 45
297.0
 46
0.0
 47
0.0
 48
0.0
 49
0.0
140
0.0
141
0.0
142
1.0
143
0.6458212488
 70
   688
 72
     1
 73
     1
 74
     1
  7

 75
     0
147
1.5484160699
148
54.75
149
54.75
100
AcDbLayout
  1
_Left
 70
     1
 71
     1
 10
-67.6664249769
 20
-59.5936593663
 11
124.1424859299
 21
76.028802891
 12
0.0
 22
0.0
 32
0.0
 14
-54.75
 24
-54.75
 34
0.0
 15
54.75
 25
71.1851435246
 35
0.0
146
0.0
 13
0.0
 23
0.0
 33
0.0
 16
1.0
 26
0.0
 36
0.0
 17
0.0
 27
1.0
 37
0.0
 76
     0
330
1B
331
FB
  0
LAYOUT
  5
26
102
{ACAD_REACTORS
330
1A
102
}
330
1A
100
AcDbPlotSettings
  1

  2
none_device
  4
ISO_A4_(210.00_x_297.00_MM)
  6

 40
7.5
 41
20.0
 42
7.5
 43
20.0
 44
210.0
 45
297.0
 46
0.0
 47
0.0
 48
0.0
 49
0.0
140
0.0
141
0.0
142
1.0
143
0.6458212488
 70
   688
 72
     1
 73
     1
 74
     1
  7

 75
     0
147
1.5484160699
148
54.75
149
54.75
100
AcDbLayout
  1
_Top
 70
     1
 71
     2
 10
0.0
 20
0.0
 11
0.0
 21
0.0
 12
0.0
 22
0.0
 32
0.0
 14
0.0
 24
0.0
 34
0.0
 15
0.0
 25
0.0
 35
0.0
146
0.0
 13
0.0
 23
0.0
 33
0.0
 16
1.0
 26
0.0
 36
0.0
 17
0.0
 27
1.0
 37
0.0
 76
     0
330
23
331
FD
  0
LAYOUT
  5
22
102
{ACAD_REACTORS
330
1A
102
}
330
1A
100
AcDbPlotSettings
  1

  2
none_device
  4
ANSI_A_(11.00_x_8.50_Inches)
  6

 40
6.35
 41
19.05
 42
6.35000508
 43
19.05000254
 44
279.4
 45
215.9
 46
28.970305405
 47
74.9528831204
 48
0.0
 49
0.0
140
0.0
141
0.0
142
0.0668201089
143
1.0
 70
  1696
 72
     0
 73
     0
 74
     0
  7

 75
     0
147
0.0179189148
148
-1300.4909072572
149
0.0
100
AcDbLayout
  1
Model
 70
     1
 71
     0
 10
0.0
 20
0.0
 11
420.0
 21
297.0
 12
0.0
 22
0.0
 32
0.0
 14
0.5
 24
-54.75
 34
0.0
 15
122.5
 25
71.1851435246
 35
0.0
146
0.0
 13
0.0
 23
0.0
 33
0.0
 16
1.0
 26
0.0
 36
0.0
 17
0.0
 27
1.0
 37
0.0
 76
     0
330
1F
331
29
  0
MLINESTYLE
  5
18
102
{ACAD_REACTORS
330
17
102
}
330
17
100
AcDbMlineStyle
  2
Standard
 70
     0
  3

 62
   256
 51
90.0
 52
90.0
 71
     2
 49
0.5
 62
   256
  6
BYLAYER
 49
-0.5
 62
   256
  6
BYLAYER
  0
ACDBPLACEHOLDER
  5
F
102
{ACAD_REACTORS
330
E
102
}
330
E
  0
SCALE
  5
48
102
{ACAD_REACTORS
330
47
102
}
330
47
100
AcDbScale
 70
     0
300
1:1
140
1.0
141
1.0
290
     1
  0
SCALE
  5
49
102
{ACAD_REACTORS
330
47
102
}
330
47
100
AcDbScale
 70
     0
300
1:2
140
1.0
141
2.0
290
     0
  0
SCALE
  5
4A
102
{ACAD_REACTORS
330
47
102
}
330
47
100
AcDbScale
 70
     0
300
1:4
140
1.0
141
4.0
290
     0
  0
SCALE
  5
4B
102
{ACAD_REACTORS
330
47
102
}
330
47
100
AcDbScale
 70
     0
300
1:5
140
1.0
141
5.0
290
     0
  0
SCALE
  5
4C
102
{ACAD_REACTORS
330
47
102
}
330
47
100
AcDbScale
 70
     0
300
1:8
140
1.0
141
8.0
290
     0
  0
SCALE
  5
4D
102
{ACAD_REACTORS
330
47
102
}
330
47
100
AcDbScale
 70
     0
300
1:10
140
1.0
141
10.0
290
     0
  0
SCALE
  5
4E
102
{ACAD_REACTORS
330
47
102
}
330
47
100
AcDbScale
 70
     0
300
1:16
140
1.0
141
16.0
290
     0
  0
SCALE
  5
4F
102
{ACAD_REACTORS
330
47
102
}
330
47
100
AcDbScale
 70
     0
300
1:20
140
1.0
141
20.0
290
     0
  0
SCALE
  5
50
102
{ACAD_REACTORS
330
47
102
}
330
47
100
AcDbScale
 70
     0
300
1:30
140
1.0
141
30.0
290
     0
  0
SCALE
  5
51
102
{ACAD_REACTORS
330
47
102
}
330
47
100
AcDbScale
 70
     0
300
1:40
140
1.0
141
40.0
290
     0
  0
SCALE
  5
52
102
{ACAD_REACTORS
330
47
102
}
330
47
100
AcDbScale
 70
     0
300
1:50
140
1.0
141
50.0
290
     0
  0
SCALE
  5
53
102
{ACAD_REACTORS
330
47
102
}
330
47
100
AcDbScale
 70
     0
300
1:100
140
1.0
141
100.0
290
     0
  0
SCALE
  5
54
102
{ACAD_REACTORS
330
47
102
}
330
47
100
AcDbScale
 70
     0
300
2:1
140
2.0
141
1.0
290
     0
  0
SCALE
  5
55
102
{ACAD_REACTORS
330
47
102
}
330
47
100
AcDbScale
 70
     0
300
4:1
140
4.0
141
1.0
290
     0
  0
SCALE
  5
56
102
{ACAD_REACTORS
330
47
102
}
330
47
100
AcDbScale
 70
     0
300
8:1
140
8.0
141
1.0
290
     0
  0
SCALE
  5
57
102
{ACAD_REACTORS
330
47
102
}
330
47
100
AcDbScale
 70
     0
300
10:1
140
10.0
141
1.0
290
     0
  0
SCALE
  5
58
102
{ACAD_REACTORS
330
47
102
}
330
47
100
AcDbScale
 70
     0
300
100:1
140
100.0
141
1.0
290
     0
  0
SCALE
  5
59
102
{ACAD_REACTORS
330
47
102
}
330
47
100
AcDbScale
 70
     0
300
1/128" = 1'-0"
140
0.0078125
141
12.0
290
     0
  0
SCALE
  5
5A
102
{ACAD_REACTORS
330
47
102
}
330
47
100
AcDbScale
 70
     0
300
1/64" = 1'-0"
140
0.015625
141
12.0
290
     0
  0
SCALE
  5
5B
102
{ACAD_REACTORS
330
47
102
}
330
47
100
AcDbScale
 70
     0
300
1/32" = 1'-0"
140
0.03125
141
12.0
290
     0
  0
SCALE
  5
5C
102
{ACAD_REACTORS
330
47
102
}
330
47
100
AcDbScale
 70
     0
300
1/16" = 1'-0"
140
0.0625
141
12.0
290
     0
  0
SCALE
  5
5D
102
{ACAD_REACTORS
330
47
102
}
330
47
100
AcDbScale
 70
     0
300
3/32" = 1'-0"
140
0.09375
141
12.0
290
     0
  0
SCALE
  5
5E
102
{ACAD_REACTORS
330
47
102
}
330
47
100
AcDbScale
 70
     0
300
1/8" = 1'-0"
140
0.125
141
12.0
290
     0
  0
SCALE
  5
5F
102
{ACAD_REACTORS
330
47
102
}
330
47
100
AcDbScale
 70
     0
300
3/16" = 1'-0"
140
0.1875
141
12.0
290
     0
  0
SCALE
  5
60
102
{ACAD_REACTORS
330
47
102
}
330
47
100
AcDbScale
 70
     0
300
1/4" = 1'-0"
140
0.25
141
12.0
290
     0
  0
SCALE
  5
61
102
{ACAD_REACTORS
330
47
102
}
330
47
100
AcDbScale
 70
     0
300
3/8" = 1'-0"
140
0.375
141
12.0
290
     0
  0
SCALE
  5
62
102
{ACAD_REACTORS
330
47
102
}
330
47
100
AcDbScale
 70
     0
300
1/2" = 1'-0"
140
0.5
141
12.0
290
     0
  0
SCALE
  5
63
102
{ACAD_REACTORS
330
47
102
}
330
47
100
AcDbScale
 70
     0
300
3/4" = 1'-0"
140
0.75
141
12.0
290
     0
  0
SCALE
  5
64
102
{ACAD_REACTORS
330
47
102
}
330
47
100
AcDbScale
 70
     0
300
1" = 1'-0"
140
1.0
141
12.0
290
     0
  0
SCALE
  5
65
102
{ACAD_REACTORS
330
47
102
}
330
47
100
AcDbScale
 70
     0
300
1-1/2" = 1'-0"
140
1.5
141
12.0
290
     0
  0
SCALE
  5
66
102
{ACAD_REACTORS
330
47
102
}
330
47
100
AcDbScale
 70
     0
300
3" = 1'-0"
140
3.0
141
12.0
290
     0
  0
SCALE
  5
67
102
{ACAD_REACTORS
330
47
102
}
330
47
100
AcDbScale
 70
     0
300
6" = 1'-0"
140
6.0
141
12.0
290
     0
  0
SCALE
  5
68
102
{ACAD_REACTORS
330
47
102
}
330
47
100
AcDbScale
 70
     0
300
1'-0" = 1'-0"
140
12.0
141
12.0
290
     0
  0
ENDSEC
  0
EOF
