  0
SECTION
  2
HEADER
  9
$ACADVER
  1
AC1015
  9
$ACADMAINTVER
 70
     6
  9
$DWGCODEPAGE
  3
ANSI_1252
  9
$INSBASE
 10
0.0
 20
0.0
 30
0.0
  9
$EXTMIN
 10
0.0
 20
-109.5
 30
0.0
  9
$EXTMAX
 10
185.0
 20
123.9
 30
0.0
  9
$LIMMIN
 10
0.0
 20
0.0
  9
$LIMMAX
 10
420.0
 20
297.0
  9
$ORTHOMODE
 70
     0
  9
$REGENMODE
 70
     1
  9
$FILLMODE
 70
     1
  9
$QTEXTMODE
 70
     0
  9
$MIRRTEXT
 70
     1
  9
$LTSCALE
 40
1.0
  9
$ATTMODE
 70
     1
  9
$TEXTSIZE
 40
6.35
  9
$TRACEWID
 40
1.0
  9
$TEXTSTYLE
  7
Standard
  9
$CLAYER
  8
0
  9
$CELTYPE
  6
ByLayer
  9
$CECOLOR
 62
   256
  9
$CELTSCALE
 40
1.0
  9
$DISPSILH
 70
     0
  9
$DIMSCALE
 40
1.0
  9
$DIMASZ
 40
5.9944
  9
$DIMEXO
 40
0.9906
  9
$DIMDLI
 40
3.75
  9
$DIMRND
 40
0.0
  9
$DIMDLE
 40
0.0
  9
$DIMEXE
 40
0.9906
  9
$DIMTP
 40
0.0
  9
$DIMTM
 40
0.0
  9
$DIMTXT
 40
6.35
  9
$DIMCEN
 40
2.5
  9
$DIMTSZ
 40
0.0
  9
$DIMTOL
 70
     0
  9
$DIMLIM
 70
     0
  9
$DIMTIH
 70
     1
  9
$DIMTOH
 70
     1
  9
$DIMSE1
 70
     0
  9
$DIMSE2
 70
     0
  9
$DIMTAD
 70
     1
  9
$DIMZIN
 70
     0
  9
$DIMBLK
  1

  9
$DIMASO
 70
     1
  9
$DIMSHO
 70
     1
  9
$DIMPOST
  1

  9
$DIMAPOST
  1

  9
$DIMALT
 70
     0
  9
$DIMALTD
 70
     3
  9
$DIMALTF
 40
0.0393700787
  9
$DIMLFAC
 40
1.0
  9
$DIMTOFL
 70
     1
  9
$DIMTVP
 40
0.0
  9
$DIMTIX
 70
     0
  9
$DIMSOXD
 70
     0
  9
$DIMSAH
 70
     0
  9
$DIMBLK1
  1

  9
$DIMBLK2
  1

  9
$DIMSTYLE
  2
ISO-25
  9
$DIMCLRD
 70
     0
  9
$DIMCLRE
 70
     0
  9
$DIMCLRT
 70
     0
  9
$DIMTFAC
 40
1.0
  9
$DIMGAP
 40
1.524
  9
$DIMJUST
 70
     0
  9
$DIMSD1
 70
     0
  9
$DIMSD2
 70
     0
  9
$DIMTOLJ
 70
     0
  9
$DIMTZIN
 70
     0
  9
$DIMALTZ
 70
     0
  9
$DIMALTTZ
 70
     0
  9
$DIMUPT
 70
     0
  9
$DIMDEC
 70
     2
  9
$DIMTDEC
 70
     2
  9
$DIMALTU
 70
     2
  9
$DIMALTTD
 70
     3
  9
$DIMTXSTY
  7
Standard
  9
$DIMAUNIT
 70
     0
  9
$DIMADEC
 70
     2
  9
$DIMALTRND
 40
0.0
  9
$DIMAZIN
 70
     0
  9
$DIMDSEP
 70
    44
  9
$DIMATFIT
 70
     3
  9
$DIMFRAC
 70
     0
  9
$DIMLDRBLK
  1

  9
$DIMLUNIT
 70
     2
  9
$DIMLWD
 70
    -2
  9
$DIMLWE
 70
    -2
  9
$DIMTMOVE
 70
     0
  9
$LUNITS
 70
     2
  9
$LUPREC
 70
     2
  9
$SKETCHINC
 40
1.0
  9
$FILLETRAD
 40
10.0
  9
$AUNITS
 70
     0
  9
$AUPREC
 70
     2
  9
$MENU
  1
.
  9
$ELEVATION
 40
0.0
  9
$PELEVATION
 40
0.0
  9
$THICKNESS
 40
0.0
  9
$LIMCHECK
 70
     0
  9
$CHAMFERA
 40
0.0
  9
$CHAMFERB
 40
0.0
  9
$CHAMFERC
 40
0.0
  9
$CHAMFERD
 40
0.0
  9
$SKPOLY
 70
     0
  9
$TDCREATE
 40
2458381.647482593
  9
$TDUCREATE
 40
2458381.605815926
  9
$TDUPDATE
 40
2458381.647515452
  9
$TDUUPDATE
 40
2458381.605848785
  9
$TDINDWG
 40
0.0000000116
  9
$TDUSRTIMER
 40
0.0000000116
  9
$USRTIMER
 70
     1
  9
$ANGBASE
 50
0.0
  9
$ANGDIR
 70
     0
  9
$PDMODE
 70
     0
  9
$PDSIZE
 40
-1.0
  9
$PLINEWID
 40
0.0
  9
$SPLFRAME
 70
     0
  9
$SPLINETYPE
 70
     6
  9
$SPLINESEGS
 70
     8
  9
$HANDSEED
  5
EF
  9
$SURFTAB1
 70
     6
  9
$SURFTAB2
 70
     6
  9
$SURFTYPE
 70
     6
  9
$SURFU
 70
     6
  9
$SURFV
 70
     6
  9
$UCSBASE
  2

  9
$UCSNAME
  2

  9
$UCSORG
 10
0.0
 20
0.0
 30
0.0
  9
$UCSXDIR
 10
1.0
 20
0.0
 30
0.0
  9
$UCSYDIR
 10
0.0
 20
1.0
 30
0.0
  9
$UCSORTHOREF
  2

  9
$UCSORTHOVIEW
 70
     0
  9
$UCSORGTOP
 10
0.0
 20
0.0
 30
0.0
  9
$UCSORGBOTTOM
 10
0.0
 20
0.0
 30
0.0
  9
$UCSORGLEFT
 10
0.0
 20
0.0
 30
0.0
  9
$UCSORGRIGHT
 10
0.0
 20
0.0
 30
0.0
  9
$UCSORGFRONT
 10
0.0
 20
0.0
 30
0.0
  9
$UCSORGBACK
 10
0.0
 20
0.0
 30
0.0
  9
$PUCSBASE
  2

  9
$PUCSNAME
  2

  9
$PUCSORG
 10
0.0
 20
0.0
 30
0.0
  9
$PUCSXDIR
 10
1.0
 20
0.0
 30
0.0
  9
$PUCSYDIR
 10
0.0
 20
1.0
 30
0.0
  9
$PUCSORTHOREF
  2

  9
$PUCSORTHOVIEW
 70
     0
  9
$PUCSORGTOP
 10
0.0
 20
0.0
 30
0.0
  9
$PUCSORGBOTTOM
 10
0.0
 20
0.0
 30
0.0
  9
$PUCSORGLEFT
 10
0.0
 20
0.0
 30
0.0
  9
$PUCSORGRIGHT
 10
0.0
 20
0.0
 30
0.0
  9
$PUCSORGFRONT
 10
0.0
 20
0.0
 30
0.0
  9
$PUCSORGBACK
 10
0.0
 20
0.0
 30
0.0
  9
$USERI1
 70
     0
  9
$USERI2
 70
     0
  9
$USERI3
 70
     0
  9
$USERI4
 70
     0
  9
$USERI5
 70
     0
  9
$USERR1
 40
0.0
  9
$USERR2
 40
0.0
  9
$USERR3
 40
0.0
  9
$USERR4
 40
0.0
  9
$USERR5
 40
0.0
  9
$WORLDVIEW
 70
     1
  9
$SHADEDGE
 70
     3
  9
$SHADEDIF
 70
    70
  9
$TILEMODE
 70
     1
  9
$MAXACTVP
 70
    64
  9
$PINSBASE
 10
0.0
 20
0.0
 30
0.0
  9
$PLIMCHECK
 70
     0
  9
$PEXTMIN
 10
-109.5
 20
-109.5
 30
0.0
  9
$PEXTMAX
 10
109.5
 20
123.9
 30
0.0
  9
$PLIMMIN
 10
-133.4384615385
 20
-118.4769230769
  9
$PLIMMAX
 10
222.0476923077
 20
132.8769230769
  9
$UNITMODE
 70
     0
  9
$VISRETAIN
 70
     1
  9
$PLINEGEN
 70
     0
  9
$PSLTSCALE
 70
     1
  9
$TREEDEPTH
 70
  3020
  9
$CMLSTYLE
  2
Standard
  9
$CMLJUST
 70
     0
  9
$CMLSCALE
 40
20.0
  9
$PROXYGRAPHICS
 70
     1
  9
$MEASUREMENT
 70
     1
  9
$CELWEIGHT
370
    -1
  9
$ENDCAPS
280
     0
  9
$JOINSTYLE
280
     0
  9
$LWDISPLAY
290
     1
  9
$INSUNITS
 70
     4
  9
$HYPERLINKBASE
  1

  9
$STYLESHEET
  1

  9
$XEDIT
290
     1
  9
$CEPSNTYPE
380
     0
  9
$PSTYLEMODE
290
     1
  9
$FINGERPRINTGUID
  2
{44C0654F-1ADD-4534-9FC5-CE2AD86C152B}
  9
$VERSIONGUID
  2
{FAEB1C32-E019-11D5-929B-00C0DF256EC4}
  9
$EXTNAMES
290
     1
  9
$PSVPSCALE
 40
0.0
  9
$OLESTARTUP
290
     0
  0
ENDSEC
  0
SECTION
  2
CLASSES
  0
CLASS
  1
ACDBDICTIONARYWDFLT
  2
AcDbDictionaryWithDefault
  3
ObjectDBX Classes
 90
        0
280
     0
281
     0
  0
CLASS
  1
VISUALSTYLE
  2
AcDbVisualStyle
  3
ObjectDBX Classes
 90
     4095
280
     0
281
     0
  0
CLASS
  1
MATERIAL
  2
AcDbMaterial
  3
ObjectDBX Classes
 90
     1153
280
     0
281
     0
  0
CLASS
  1
SCALE
  2
AcDbScale
  3
ObjectDBX Classes
 90
     1153
280
     0
281
     0
  0
CLASS
  1
TABLESTYLE
  2
AcDbTableStyle
  3
ObjectDBX Classes
 90
     4095
280
     0
281
     0
  0
CLASS
  1
MLEADERSTYLE
  2
AcDbMLeaderStyle
  3
ACDB_MLEADERSTYLE_CLASS
 90
     4095
280
     0
281
     0
  0
CLASS
  1
SUN
  2
AcDbSun
  3
SCENEOE
 90
     1153
280
     0
281
     0
  0
CLASS
  1
ACDBPLACEHOLDER
  2
AcDbPlaceHolder
  3
ObjectDBX Classes
 90
        0
280
     0
281
     0
  0
CLASS
  1
LAYOUT
  2
AcDbLayout
  3
ObjectDBX Classes
 90
        0
280
     0
281
     0
  0
ENDSEC
  0
SECTION
  2
TABLES
  0
TABLE
  2
VPORT
  5
8
330
0
100
AcDbSymbolTable
 70
     1
  0
VPORT
  5
29
330
8
100
AcDbSymbolTableRecord
100
AcDbViewportTableRecord
  2
*Active
 70
     0
 10
0.0
 20
0.0
 11
1.0
 21
1.0
 12
92.5
 22
7.2
 13
0.0
 23
0.0
 14
10.0
 24
10.0
 15
10.0
 25
10.0
 16
0.0
 26
0.0
 36
1.0
 17
0.0
 27
0.0
 37
0.0
 40
238.068
 41
0.7926306769
 42
50.0
 43
0.0
 44
0.0
 50
0.0
 51
0.0
 71
     0
 72
   100
 73
     1
 74
     3
 75
     0
 76
     0
 77
     0
 78
     0
281
     0
 65
     1
110
0.0
120
0.0
130
0.0
111
1.0
121
0.0
131
0.0
112
0.0
122
1.0
132
0.0
 79
     0
146
0.0
  0
ENDTAB
  0
TABLE
  2
LTYPE
  5
5
330
0
100
AcDbSymbolTable
 70
     6
  0
LTYPE
  5
14
330
5
100
AcDbSymbolTableRecord
100
AcDbLinetypeTableRecord
  2
ByBlock
 70
     0
  3

 72
    65
 73
     0
 40
0.0
  0
LTYPE
  5
15
330
5
100
AcDbSymbolTableRecord
100
AcDbLinetypeTableRecord
  2
ByLayer
 70
     0
  3

 72
    65
 73
     0
 40
0.0
  0
LTYPE
  5
16
330
5
100
AcDbSymbolTableRecord
100
AcDbLinetypeTableRecord
  2
Continuous
 70
     0
  3
Solid line
 72
    65
 73
     0
 40
0.0
  0
LTYPE
  5
6E
330
5
100
AcDbSymbolTableRecord
100
AcDbLinetypeTableRecord
  2
HIDDEN
 70
     0
  3
Hidden __ __ __ __ __ __ __ __ __ __ __ __ __ __
 72
    65
 73
     2
 40
1.905
 49
1.27
 74
     0
 49
-0.635
 74
     0
  0
LTYPE
  5
6F
330
5
100
AcDbSymbolTableRecord
100
AcDbLinetypeTableRecord
  2
PHANTOM
 70
     0
  3
Phantom ______  __  __  ______  __  __  ______
 72
    65
 73
     6
 40
12.7
 49
6.35
 74
     0
 49
-1.27
 74
     0
 49
1.27
 74
     0
 49
-1.27
 74
     0
 49
1.27
 74
     0
 49
-1.27
 74
     0
  0
LTYPE
  5
70
330
5
100
AcDbSymbolTableRecord
100
AcDbLinetypeTableRecord
  2
CENTER
 70
     0
  3
Center ____ _ ____ _ ____ _ ____ _ ____ _ ____
 72
    65
 73
     4
 40
10.16
 49
6.35
 74
     0
 49
-1.27
 74
     0
 49
1.27
 74
     0
 49
-1.27
 74
     0
  0
LTYPE
  5
71
330
5
100
AcDbSymbolTableRecord
100
AcDbLinetypeTableRecord
  2
CENTERX2
 70
     0
  3
Center (2x) ________  __  ________  __  _____
 72
    65
 73
     4
 40
20.32
 49
12.7
 74
     0
 49
-2.54
 74
     0
 49
2.54
 74
     0
 49
-2.54
 74
     0
  0
LTYPE
  5
72
330
5
100
AcDbSymbolTableRecord
100
AcDbLinetypeTableRecord
  2
DOT2
 70
     0
  3
Dot (.5x) ........................................
 72
    65
 73
     2
 40
0.635
 49
0.0
 74
     0
 49
-0.635
 74
     0
  0
ENDTAB
  0
TABLE
  2
LAYER
  5
2
330
0
100
AcDbSymbolTable
 70
     1
  0
LAYER
  5
10
330
2
100
AcDbSymbolTableRecord
100
AcDbLayerTableRecord
  2
0
 70
     0
 62
     7
  6
Continuous
370
    -3
390
F
  0
ENDTAB
  0
TABLE
  2
STYLE
  5
3
330
0
100
AcDbSymbolTable
 70
     1
  0
STYLE
  5
11
330
3
100
AcDbSymbolTableRecord
100
AcDbTextStyleTableRecord
  2
Standard
 70
     0
 40
0.0
 41
1.0
 50
0.0
 71
     0
 42
6.35
  3
txt
  4

  0
ENDTAB
  0
TABLE
  2
VIEW
  5
6
330
0
100
AcDbSymbolTable
 70
     0
  0
ENDTAB
  0
TABLE
  2
UCS
  5
7
330
0
100
AcDbSymbolTable
 70
     0
  0
ENDTAB
  0
TABLE
  2
APPID
  5
9
330
0
100
AcDbSymbolTable
 70
     1
  0
APPID
  5
12
330
9
100
AcDbSymbolTableRecord
100
AcDbRegAppTableRecord
  2
ACAD
 70
     0
  0
ENDTAB
  0
TABLE
  2
DIMSTYLE
  5
A
330
0
100
AcDbSymbolTable
 70
     1
100
AcDbDimStyleTable
  0
DIMSTYLE
105
27
330
A
100
AcDbSymbolTableRecord
100
AcDbDimStyleTableRecord
  2
ISO-25
 70
     0
 41
2.5
 42
0.625
 43
3.75
 44
1.25
 73
     0
 74
     0
 77
     1
 78
     8
140
2.5
141
2.5
143
0.0393700787
147
0.625
171
     3
172
     1
178
     0
271
     2
272
     2
274
     3
278
    44
283
     0
284
     8
340
11
  0
ENDTAB
  0
TABLE
  2
BLOCK_RECORD
  5
1
330
0
100
AcDbSymbolTable
 70
     1
  0
BLOCK_RECORD
  5
1F
330
1
100
AcDbSymbolTableRecord
100
AcDbBlockTableRecord
  2
*Model_Space
340
22
  0
BLOCK_RECORD
  5
1B
330
1
100
AcDbSymbolTableRecord
100
AcDbBlockTableRecord
  2
*Paper_Space
340
1E
  0
BLOCK_RECORD
  5
23
330
1
100
AcDbSymbolTableRecord
100
AcDbBlockTableRecord
  2
*Paper_Space0
340
26
  0
ENDTAB
  0
ENDSEC
  0
SECTION
  2
BLOCKS
  0
BLOCK
  5
20
330
1F
100
AcDbEntity
  8
0
100
AcDbBlockBegin
  2
*Model_Space
 70
     0
 10
0.0
 20
0.0
 30
0.0
  3
*Model_Space
  1

  0
ENDBLK
  5
21
330
1F
100
AcDbEntity
  8
0
100
AcDbBlockEnd
  0
BLOCK
  5
1C
330
1B
100
AcDbEntity
 67
     1
  8
0
100
AcDbBlockBegin
  2
*Paper_Space
 70
     0
 10
0.0
 20
0.0
 30
0.0
  3
*Paper_Space
  1

  0
ENDBLK
  5
1D
330
1B
100
AcDbEntity
 67
     1
  8
0
100
AcDbBlockEnd
  0
BLOCK
  5
24
330
23
100
AcDbEntity
  8
0
100
AcDbBlockBegin
  2
*Paper_Space0
 70
     0
 10
0.0
 20
0.0
 30
0.0
  3
*Paper_Space0
  1

  0
CIRCLE
  5
CB
330
23
100
AcDbEntity
  8
0
  6
Continuous
 62
     7
370
    25
100
AcDbCircle
 10
18.0
 20
0.0
 30
0.0
 40
10.00000000000001
  0
CIRCLE
  5
CC
330
23
100
AcDbEntity
  8
0
  6
Continuous
 62
     7
370
    25
100
AcDbCircle
 10
18.0
 20
0.0
 30
0.0
 40
6.250000000000091
  0
CIRCLE
  5
CD
330
23
100
AcDbEntity
  8
0
  6
Continuous
 62
     7
370
    25
100
AcDbCircle
 10
167.0
 20
0.0
 30
0.0
 40
10.00000000000001
  0
CIRCLE
  5
CE
330
23
100
AcDbEntity
  8
0
  6
Continuous
 62
     7
370
    25
100
AcDbCircle
 10
167.0
 20
0.0
 30
0.0
 40
6.250000000000087
  0
CIRCLE
  5
CF
330
23
100
AcDbEntity
  8
0
  6
Continuous
 62
     7
370
    25
100
AcDbCircle
 10
18.0
 20
0.0
 30
0.0
 40
1.916987298107962
  0
CIRCLE
  5
D0
330
23
100
AcDbEntity
  8
0
  6
Continuous
 62
     7
370
    25
100
AcDbCircle
 10
18.0
 20
0.0
 30
0.0
 40
2.350000000000081
  0
CIRCLE
  5
D1
330
23
100
AcDbEntity
  8
0
  6
Continuous
 62
     7
370
    25
100
AcDbCircle
 10
167.0
 20
0.0
 30
0.0
 40
1.916987298107945
  0
CIRCLE
  5
D2
330
23
100
AcDbEntity
  8
0
  6
Continuous
 62
     7
370
    25
100
AcDbCircle
 10
167.0
 20
0.0
 30
0.0
 40
2.350000000000076
  0
SPLINE
  5
D5
330
23
100
AcDbEntity
  8
0
  6
Continuous
 62
     7
370
    25
100
AcDbSpline
210
0.0
220
0.0
230
1.0
 70
    11
 71
     3
 72
   103
 73
    99
 74
     0
 42
0.000000001
 43
0.00000001
 40
0.0
 40
0.0
 40
0.0
 40
0.0
 40
0.0156250000000001
 40
0.0156250000000001
 40
0.0312500000000002
 40
0.0312500000000002
 40
0.0625000000000005
 40
0.0625000000000005
 40
0.0781250000000006
 40
0.0781250000000006
 40
0.0937500000000007
 40
0.0937500000000007
 40
0.1250000000000008
 40
0.1250000000000008
 40
0.1406250000000008
 40
0.1406250000000008
 40
0.1562500000000008
 40
0.1562500000000008
 40
0.1875000000000009
 40
0.1875000000000009
 40
0.2031250000000009
 40
0.2031250000000009
 40
0.2187500000000009
 40
0.2187500000000009
 40
0.234375000000001
 40
0.234375000000001
 40
0.2500000000000011
 40
0.2500000000000011
 40
0.2812500000000012
 40
0.2812500000000012
 40
0.2968750000000012
 40
0.2968750000000012
 40
0.3125000000000011
 40
0.3125000000000011
 40
0.3437500000000013
 40
0.3437500000000013
 40
0.3593750000000013
 40
0.3593750000000013
 40
0.3750000000000014
 40
0.3750000000000014
 40
0.4062500000000015
 40
0.4062500000000015
 40
0.4375000000000016
 40
0.4375000000000016
 40
0.4531250000000017
 40
0.4531250000000017
 40
0.4687500000000017
 40
0.4687500000000017
 40
0.4843750000000018
 40
0.4843750000000018
 40
0.5000000000000018
 40
0.5000000000000018
 40
0.531250000000002
 40
0.531250000000002
 40
0.5468750000000022
 40
0.5468750000000022
 40
0.5625000000000024
 40
0.5625000000000024
 40
0.5937500000000027
 40
0.5937500000000027
 40
0.6093750000000027
 40
0.6093750000000027
 40
0.6250000000000026
 40
0.6250000000000026
 40
0.6562500000000023
 40
0.6562500000000023
 40
0.6875000000000021
 40
0.6875000000000021
 40
0.703125000000002
 40
0.703125000000002
 40
0.7187500000000019
 40
0.7187500000000019
 40
0.7500000000000018
 40
0.7500000000000018
 40
0.7656250000000017
 40
0.7656250000000017
 40
0.7812500000000016
 40
0.7812500000000016
 40
0.8125000000000014
 40
0.8125000000000014
 40
0.8281250000000013
 40
0.8281250000000013
 40
0.8437500000000012
 40
0.8593750000000011
 40
0.8593750000000011
 40
0.8750000000000009
 40
0.8750000000000009
 40
0.9062500000000007
 40
0.9062500000000007
 40
0.9218750000000006
 40
0.9218750000000006
 40
0.9375000000000004
 40
0.9375000000000004
 40
0.9687500000000002
 40
0.9687500000000002
 40
0.9843750000000001
 40
0.9843750000000001
 40
1.0
 40
1.0
 40
1.0
 40
1.0
 10
9.988889012205576
 20
8.426057121942852
 30
0.0
 10
10.27418282836495
 20
8.699413587918958
 30
0.0
 10
10.57161654533166
 20
8.957231658620842
 30
0.0
 10
11.19021104349574
 20
9.442400569767182
 30
0.0
 10
11.51255985370417
 20
9.670482975579244
 30
0.0
 10
12.50678151074713
 20
10.30325277363932
 30
0.0
 10
13.19994210602712
 20
10.65411103342337
 30
0.0
 10
14.28271577196706
 20
11.07875802799625
 30
0.0
 10
14.65086663402923
 20
11.2032439198366
 30
0.0
 10
15.40184132015908
 20
11.41744628834655
 30
0.0
 10
15.78307247819681
 20
11.50650188119942
 30
0.0
 10
16.92546268024454
 20
11.71676930730518
 30
0.0
 10
17.69226937024633
 20
11.78367846197155
 30
0.0
 10
18.85012974100629
 20
11.7753290966487
 30
0.0
 10
19.23935030134599
 20
11.75403836911884
 30
0.0
 10
20.00862232454205
 20
11.67507407255993
 30
0.0
 10
20.38868805060464
 20
11.61765103382309
 30
0.0
 10
21.51559308682141
 20
11.39295756797583
 30
0.0
 10
22.24925609125404
 20
11.1737644432225
 30
0.0
 10
23.32289910940285
 20
10.73739704837809
 30
0.0
 10
23.67409384842903
 20
10.57458756449784
 30
0.0
 10
24.35395822665824
 20
10.21919685392772
 30
0.0
 10
24.68409943358102
 20
10.02603411349544
 30
0.0
 10
25.32498676590286
 20
9.608873577871039
 30
0.0
 10
25.63573368521412
 20
9.384877399209454
 30
0.0
 10
26.23745983513413
 20
8.905243309234052
 30
0.0
 10
26.52989741336441
 20
8.648140459284745
 30
0.0
 10
27.36451994885546
 20
7.838194976919993
 30
0.0
 10
27.86198496574806
 20
7.250782764612424
 30
0.0
 10
28.52037932725208
 20
6.298265271021642
 30
0.0
 10
28.72510568288045
 20
5.968775876901556
 30
0.0
 10
29.10382712912908
 20
5.284696031010056
 30
0.0
 10
29.27720680651398
 20
4.930610703181883
 30
0.0
 10
29.73823305530493
 20
3.85554052576599
 30
0.0
 10
29.97204269515962
 20
3.113849415836113
 30
0.0
 10
30.21024720713209
 20
1.962911141085122
 30
0.0
 10
30.27095282245238
 20
1.570333475029814
 30
0.0
 10
30.35126960831589
 20
0.7853255324483491
 30
0.0
 10
30.37112388578726
 20
0.3936040370699398
 30
0.0
 10
30.37139197027627
 20
-0.7792744052219419
 30
0.0
 10
30.29308738119739
 20
-1.558269114123129
 30
0.0
 10
29.97381702603515
 20
-3.109586806457929
 30
0.0
 10
29.73867367565988
 20
-3.853859909193291
 30
0.0
 10
29.27926228107489
 20
-4.926141674263323
 30
0.0
 10
29.10819888887918
 20
-5.276155810411642
 30
0.0
 10
28.72965947825187
 20
-5.961178990980038
 30
0.0
 10
28.52257457411433
 20
-6.295080871193306
 30
0.0
 10
28.0794199491968
 20
-6.936221978869246
 30
0.0
 10
27.84257271014985
 20
-7.244923980052257
 30
0.0
 10
27.33848430786183
 20
-7.838821606530847
 30
0.0
 10
27.07154526527843
 20
-8.123353394009946
 30
0.0
 10
26.23987067058064
 20
-8.927835229165566
 30
0.0
 10
25.64029476845994
 20
-9.404382031367879
 30
0.0
 10
24.67429337583134
 20
-10.03203683844118
 30
0.0
 10
24.33966019841263
 20
-10.22735293541657
 30
0.0
 10
23.65406756072386
 20
-10.58433906069489
 30
0.0
 10
23.30520997258448
 20
-10.74511161930473
 30
0.0
 10
22.24091995420727
 20
-11.17606938351246
 30
0.0
 10
21.50792768118666
 20
-11.39537151083819
 30
0.0
 10
20.37215532306021
 20
-11.6204927051749
 30
0.0
 10
19.98691373693583
 20
-11.67794006483682
 30
0.0
 10
19.21995723193466
 20
-11.75535626703105
 30
0.0
 10
18.83629371199098
 20
-11.77579178791193
 30
0.0
 10
17.68472988131886
 20
-11.78299008688979
 30
0.0
 10
16.91552574386809
 20
-11.71604257388667
 30
0.0
 10
15.37854454333927
 20
-11.43091813290157
 30
0.0
 10
14.63413772636395
 20
-11.21719094886848
 30
0.0
 10
13.55309830649168
 20
-10.79230272164973
 30
0.0
 10
13.19872279278553
 20
-10.63317036679687
 30
0.0
 10
12.50234891593741
 20
-10.27882731283639
 30
0.0
 10
12.15899945629353
 20
-10.0825706720426
 30
0.0
 10
11.16939267789337
 20
-9.45070361498315
 30
0.0
 10
10.55707316188886
 20
-8.969996061871683
 30
0.0
 10
9.710393273221248
 20
-8.15944749618676
 30
0.0
 10
9.439763300896868
 20
-7.873718935289336
 30
0.0
 10
8.925677887428568
 20
-7.273060220427646
 30
0.0
 10
8.68567195195126
 20
-6.962265662883146
 30
0.0
 10
8.015443424530117
 20
-5.999352679191099
 30
0.0
 10
7.634521043422285
 20
-5.317005589088664
 30
0.0
 10
7.165576854072361
 20
-4.230871121046811
 30
0.0
 10
7.026774348451961
 20
-3.858252604013033
 30
0.0
 10
6.790282889311605
 20
-3.10913238224296
 30
0.0
 10
6.592915395232643
 20
-2.351882535479589
 30
0.0
 10
6.472828940254444
 20
-1.578585149903105
 30
0.0
 10
6.39205902705385
 20
-0.7971270270175628
 30
0.0
 10
6.371395035799768
 20
-0.3999554774566312
 30
0.0
 10
6.370854192229547
 20
0.7840815169431545
 30
0.0
 10
6.450599678186119
 20
1.562157192279525
 30
0.0
 10
6.687279654245149
 20
2.712774536592654
 30
0.0
 10
6.785828247788173
 20
3.09354369187568
 30
0.0
 10
7.023514720246774
 20
3.849358130331969
 30
0.0
 10
7.161046155516757
 20
4.219058186957833
 30
0.0
 10
7.625457289834589
 20
5.298575659094364
 30
0.0
 10
8.0044922171289
 20
5.981728036426579
 30
0.0
 10
8.677448826690942
 20
6.951368556326058
 30
0.0
 10
8.919974712929116
 20
7.265882013278723
 30
0.0
 10
9.432577497801534
 20
7.86582485563038
 30
0.0
 10
9.703595196046203
 20
8.15270065596675
 30
0.0
 10
9.988889012205576
 20
8.426057121942854
 30
0.0
  0
SPLINE
  5
D6
330
23
100
AcDbEntity
  8
0
  6
Continuous
 62
     7
370
    25
100
AcDbSpline
210
0.0
220
0.0
230
1.0
 70
    11
 71
     3
 72
    96
 73
    92
 74
     0
 42
0.000000001
 43
0.00000001
 40
0.0
 40
0.0
 40
0.0
 40
0.0
 40
0.0312499999999984
 40
0.0312499999999984
 40
0.0624999999999967
 40
0.0624999999999967
 40
0.0781249999999959
 40
0.0781249999999959
 40
0.0937499999999951
 40
0.1093749999999943
 40
0.1093749999999943
 40
0.1249999999999934
 40
0.1249999999999934
 40
0.1562499999999918
 40
0.1562499999999918
 40
0.1718749999999914
 40
0.1718749999999914
 40
0.1874999999999911
 40
0.1874999999999911
 40
0.2187499999999904
 40
0.2187499999999904
 40
0.2499999999999897
 40
0.2499999999999897
 40
0.281249999999989
 40
0.281249999999989
 40
0.296874999999989
 40
0.296874999999989
 40
0.3124999999999889
 40
0.3281249999999889
 40
0.3281249999999889
 40
0.3437499999999888
 40
0.3437499999999888
 40
0.3749999999999888
 40
0.3749999999999888
 40
0.3906249999999888
 40
0.3906249999999888
 40
0.4062499999999888
 40
0.4062499999999888
 40
0.4374999999999888
 40
0.4374999999999888
 40
0.4531249999999887
 40
0.4531249999999887
 40
0.4687499999999887
 40
0.4687499999999887
 40
0.4843749999999887
 40
0.4843749999999887
 40
0.4999999999999887
 40
0.4999999999999887
 40
0.5312499999999878
 40
0.5312499999999878
 40
0.562499999999987
 40
0.562499999999987
 40
0.578124999999987
 40
0.578124999999987
 40
0.5937499999999871
 40
0.5937499999999871
 40
0.6249999999999882
 40
0.6249999999999882
 40
0.6562499999999895
 40
0.6562499999999895
 40
0.6874999999999906
 40
0.6874999999999906
 40
0.7031249999999912
 40
0.7031249999999912
 40
0.7187499999999918
 40
0.7187499999999918
 40
0.7499999999999931
 40
0.7499999999999931
 40
0.7812499999999946
 40
0.7812499999999946
 40
0.7968749999999949
 40
0.7968749999999949
 40
0.8124999999999953
 40
0.8124999999999953
 40
0.843749999999996
 40
0.843749999999996
 40
0.8593749999999964
 40
0.8593749999999964
 40
0.8749999999999969
 40
0.8749999999999969
 40
0.9062499999999977
 40
0.9062499999999977
 40
0.9218749999999981
 40
0.9218749999999981
 40
0.9374999999999984
 40
0.9374999999999984
 40
0.9531249999999989
 40
0.9531249999999989
 40
0.9687499999999993
 40
0.9687499999999993
 40
1.0
 40
1.0
 40
1.0
 40
1.0
 10
158.4233451546008
 20
8.596826850926607
 30
0.0
 10
158.9960037921633
 20
9.123540683672802
 30
0.0
 10
159.6185797847578
 20
9.591691733249966
 30
0.0
 10
160.925011276968
 20
10.3923521097886
 30
0.0
 10
161.6123202706897
 20
10.72855060328788
 30
0.0
 10
162.6955982242384
 20
11.135702442517
 30
0.0
 10
163.0652220879834
 20
11.25476128847291
 30
0.0
 10
163.8070778828384
 20
11.45547655115003
 30
0.0
 10
164.5552440765979
 20
11.62028491989549
 30
0.0
 10
165.3159551775718
 20
11.71432974556993
 30
0.0
 10
166.0830578807741
 20
11.77251500863473
 30
0.0
 10
166.4709459227553
 20
11.78365313577834
 30
0.0
 10
167.637102327282
 20
11.76116797877891
 30
0.0
 10
168.4031049931069
 20
11.6728911281684
 30
0.0
 10
169.5352112663592
 20
11.43290013449806
 30
0.0
 10
169.9097421415561
 20
11.33485028998802
 30
0.0
 10
170.6529019892114
 20
11.10151250737561
 30
0.0
 10
171.0227364732431
 20
10.96552224368641
 30
0.0
 10
172.0998297007053
 20
10.50916301641139
 30
0.0
 10
172.7821400993119
 20
10.13914956136861
 30
0.0
 10
174.0742718374595
 20
9.266780159152963
 30
0.0
 10
174.687602340027
 20
8.758986684669651
 30
0.0
 10
175.7862379623708
 20
7.64872645375055
 30
0.0
 10
176.2784231081774
 20
7.042996989261992
 30
0.0
 10
176.9276275949588
 20
6.055878014430784
 30
0.0
 10
177.128987405356
 20
5.713210798399355
 30
0.0
 10
177.4921985865817
 20
5.016961329405938
 30
0.0
 10
177.8185731687855
 20
4.306037154450523
 30
0.0
 10
178.0720862874303
 20
3.566120899474899
 30
0.0
 10
178.2884874825411
 20
2.811451606333054
 30
0.0
 10
178.3784879537581
 20
2.424481059083758
 30
0.0
 10
178.5871013216519
 20
1.258605310934557
 30
0.0
 10
178.6453937519968
 20
0.4786045733958759
 30
0.0
 10
178.6144783226528
 20
-0.6954242707282641
 30
0.0
 10
178.5843014990036
 20
-1.087443522548441
 30
0.0
 10
178.4828551050262
 20
-1.872880841868733
 30
0.0
 10
178.4120794418952
 20
-2.261576785978937
 30
0.0
 10
178.1433290309102
 20
-3.406194603985541
 30
0.0
 10
177.8889339790911
 20
-4.145128512041317
 30
0.0
 10
177.3939048344158
 20
-5.217055564009757
 30
0.0
 10
177.2091017262145
 20
-5.569176388779915
 30
0.0
 10
176.8077692378387
 20
-6.248006621360537
 30
0.0
 10
176.5906515674686
 20
-6.576271169728546
 30
0.0
 10
176.123825058028
 20
-7.210670388599722
 30
0.0
 10
175.8728147751896
 20
-7.518151920636285
 30
0.0
 10
175.3453329638491
 20
-8.102253855638873
 30
0.0
 10
175.0690004827215
 20
-8.37909442960892
 30
0.0
 10
174.2035628813256
 20
-9.165461464972571
 30
0.0
 10
173.578355661186
 20
-9.631242611198887
 30
0.0
 10
172.2300474309239
 20
-10.44348807409781
 30
0.0
 10
171.5257887501748
 20
-10.77821772635302
 30
0.0
 10
170.4341711488099
 20
-11.17556905243739
 30
0.0
 10
170.0639917095175
 20
-11.29066617152028
 30
0.0
 10
169.3109306004391
 20
-11.48577437856225
 30
0.0
 10
168.9264930478892
 20
-11.56588688659788
 30
0.0
 10
167.7764939100298
 20
-11.74873398073655
 30
0.0
 10
167.0083354597826
 20
-11.79662171856091
 30
0.0
 10
165.4691820840632
 20
-11.74809684696817
 30
0.0
 10
164.6929566608139
 20
-11.64932030499745
 30
0.0
 10
163.1961797031545
 20
-11.31269074465378
 30
0.0
 10
162.4689400052217
 20
-11.07559777596921
 30
0.0
 10
161.4099362783765
 20
-10.61480631671904
 30
0.0
 10
161.0611269431998
 20
-10.44274375614115
 30
0.0
 10
160.3879944271224
 20
-10.06949390670953
 30
0.0
 10
160.062104590501
 20
-9.867766581524215
 30
0.0
 10
159.1159345365822
 20
-9.21775293414526
 30
0.0
 10
158.5268277070904
 20
-8.725111046115208
 30
0.0
 10
157.4365996211449
 20
-7.612964077686009
 30
0.0
 10
156.952384773549
 20
-7.010349901023086
 30
0.0
 10
156.3187390107367
 20
-6.041147348231604
 30
0.0
 10
156.1228879009759
 20
-5.706922375579198
 30
0.0
 10
155.7629466455579
 20
-5.015308545060544
 30
0.0
 10
155.5981364866927
 20
-4.655769464101385
 30
0.0
 10
155.1632729324453
 20
-3.56412342792738
 30
0.0
 10
154.9491975562329
 20
-2.815369054440928
 30
0.0
 10
154.741887091388
 20
-1.660596032123659
 30
0.0
 10
154.6918568176988
 20
-1.269962973367378
 30
0.0
 10
154.6319169605607
 20
-0.4791940094248841
 30
0.0
 10
154.6224773797061
 20
-0.085778877772904
 30
0.0
 10
154.6535253050899
 20
1.088770685943767
 30
0.0
 10
154.7528027032226
 20
1.864263039767649
 30
0.0
 10
155.0216224032637
 20
3.016019160347294
 30
0.0
 10
155.1312882513612
 20
3.39652745072834
 30
0.0
 10
155.385373491135
 20
4.13606494462568
 30
0.0
 10
155.5302654995366
 20
4.497279805099637
 30
0.0
 10
155.8549446615353
 20
5.203038585437987
 30
0.0
 10
156.034733114904
 20
5.547581789840089
 30
0.0
 10
156.4294617153442
 20
6.219936887649072
 30
0.0
 10
156.6453392825888
 20
6.548786770702936
 30
0.0
 10
157.3341407397817
 20
7.49232000806164
 30
0.0
 10
157.8506865170381
 20
8.070113018180372
 30
0.0
 10
158.4233451546008
 20
8.596826850926606
 30
0.0
  0
LINE
  5
DB
330
23
100
AcDbEntity
  8
0
  6
Continuous
 62
     7
370
    25
100
AcDbLine
 10
45.0
 20
-109.5
 30
0.0
 11
140.0
 21
-109.5
 31
0.0
  0
LINE
  5
DC
330
23
100
AcDbEntity
  8
0
  6
Continuous
 62
     7
370
    25
100
AcDbLine
 10
140.0
 20
109.5
 30
0.0
 11
45.0
 21
109.5
 31
0.0
  0
LINE
  5
DD
330
23
100
AcDbEntity
  8
0
  6
Continuous
 62
     7
370
    25
100
AcDbLine
 10
45.0
 20
109.5
 30
0.0
 11
0.8143932252
 21
101.1538298314
 31
0.0
  0
LINE
  5
DE
330
23
100
AcDbEntity
  8
0
  6
Continuous
 62
     7
370
    25
100
AcDbLine
 10
0.8143932252
 20
-101.1538298314
 30
0.0
 11
45.0
 21
-109.5
 31
0.0
  0
LINE
  5
DF
330
23
100
AcDbEntity
  8
0
  6
Continuous
 62
     7
370
    25
100
AcDbLine
 10
140.0
 20
-109.5
 30
0.0
 11
184.1856067748
 21
-101.1538298314
 31
0.0
  0
LINE
  5
E0
330
23
100
AcDbEntity
  8
0
  6
Continuous
 62
     7
370
    25
100
AcDbLine
 10
184.1856067748
 20
101.1538298314
 30
0.0
 11
140.0
 21
109.5
 31
0.0
  0
LINE
  5
E1
330
23
100
AcDbEntity
  8
0
  6
Continuous
 62
     7
370
    25
100
AcDbLine
 10
45.0
 20
-109.5
 30
0.0
 11
45.0
 21
109.5
 31
0.0
  0
LINE
  5
E2
330
23
100
AcDbEntity
  8
0
  6
Continuous
 62
     7
370
    25
100
AcDbLine
 10
140.0
 20
-109.5
 30
0.0
 11
140.0
 21
109.5
 31
0.0
  0
LINE
  5
E3
330
23
100
AcDbEntity
  8
0
  6
Continuous
 62
     7
370
    25
100
AcDbLine
 10
185.0
 20
-100.1712057298
 30
0.0
 11
185.0
 21
100.1712057298
 31
0.0
  0
LINE
  5
E4
330
23
100
AcDbEntity
  8
0
  6
Continuous
 62
     7
370
    25
100
AcDbLine
 10
0.0
 20
-100.1712057298
 30
0.0
 11
0.0
 21
100.1712057298
 31
0.0
  0
LINE
  5
E5
330
23
100
AcDbEntity
  8
0
  6
Continuous
 62
     8
370
    25
100
AcDbLine
 10
0.8143932252
 20
-101.1538298314
 30
0.0
 11
0.8143932252
 21
101.1538298314
 31
0.0
  0
LINE
  5
E6
330
23
100
AcDbEntity
  8
0
  6
Continuous
 62
     8
370
    25
100
AcDbLine
 10
184.1856067748
 20
-101.1538298314
 30
0.0
 11
184.1856067748
 21
101.1538298314
 31
0.0
  0
ARC
  5
E7
330
23
100
AcDbEntity
  8
0
  6
Continuous
 62
     7
370
    25
100
AcDbCircle
 10
184.0
 20
-100.1712057298
 30
0.0
 40
1.000000000000171
100
AcDbArc
 50
280.6965107358
 51
360.0
  0
ARC
  5
E8
330
23
100
AcDbEntity
  8
0
  6
Continuous
 62
     7
370
    25
100
AcDbCircle
 10
184.0
 20
100.1712057298
 30
0.0
 40
1.000000000000114
100
AcDbArc
 50
0.0
 51
79.3034892642
  0
ARC
  5
E9
330
23
100
AcDbEntity
  8
0
  6
Continuous
 62
     7
370
    25
100
AcDbCircle
 10
1.0
 20
-100.1712057298
 30
0.0
 40
0.9999999999999503
100
AcDbArc
 50
180.0
 51
259.3034892642
  0
ARC
  5
EA
330
23
100
AcDbEntity
  8
0
  6
Continuous
 62
     7
370
    25
100
AcDbCircle
 10
1.0
 20
100.1712057298
 30
0.0
 40
0.9999999999999402
100
AcDbArc
 50
100.6965107358
 51
180.0
  0
VIEWPORT
  5
ED
330
23
100
AcDbEntity
  8
0
100
AcDbViewport
 10
0.0
 20
0.0
 30
0.0
 40
205.6
 41
156.0
 68
     1
 69
     1
 12
92.5
 22
7.2
 13
0.0
 23
0.0
 14
10.0
 24
10.0
 15
10.0
 25
10.0
 16
0.0
 26
0.0
 36
1.0
 17
0.0
 27
0.0
 37
0.0
 42
50.0
 43
0.0
 44
0.0
 45
238.068
 50
0.0
 51
0.0
 72
   100
 90
   557152
  1

281
     0
 71
     1
 74
     0
110
0.0
120
0.0
130
0.0
111
1.0
121
0.0
131
0.0
112
0.0
122
1.0
132
0.0
 79
     0
146
0.0
  0
ENDBLK
  5
25
330
23
100
AcDbEntity
  8
0
100
AcDbBlockEnd
  0
ENDSEC
  0
SECTION
  2
ENTITIES
  0
SPLINE
  5
7F
330
1F
100
AcDbEntity
  8
0
  6
Continuous
 62
     7
370
    25
100
AcDbSpline
210
0.0
220
0.0
230
1.0
 70
     8
 71
     3
 72
    13
 73
     9
 74
     0
 42
0.000000001
 43
0.00000001
 40
0.0
 40
0.0
 40
0.0
 40
0.0
 40
0.0143907460257061
 40
0.2193300296135892
 40
0.4082474889749641
 40
0.6453594769574956
 40
0.8924268026694167
 40
1.0
 40
1.0
 40
1.0
 40
1.0
 10
178.3570113743424
 20
102.2766815679639
 30
0.0
 10
178.3455465679719
 20
102.2798727303209
 30
0.0
 10
178.1708109207543
 20
102.3285093842518
 30
0.0
 10
177.8710450074371
 20
102.4977194183293
 30
0.0
 10
177.4711066373431
 20
102.8382736307286
 30
0.0
 10
177.1663314236533
 20
103.3096621534048
 30
0.0
 10
176.9974325432768
 20
103.786230045906
 30
0.0
 10
177.0178572932018
 20
104.0801870598517
 30
0.0
 10
177.0240527376345
 20
104.1693531133996
 30
0.0
  0
SPLINE
  5
80
330
1F
100
AcDbEntity
  8
0
  6
Continuous
 62
     7
370
    25
100
AcDbSpline
210
0.0
220
0.0
230
1.0
 70
     8
 71
     3
 72
    15
 73
    11
 74
     0
 42
0.000000001
 43
0.00000001
 40
0.0
 40
0.0
 40
0.0
 40
0.0
 40
0.077282507899424
 40
0.2780797953467317
 40
0.4683614721639316
 40
0.6278019543910557
 40
0.765788684940439
 40
0.8842771506939617
 40
0.9827872113826202
 40
1.0
 40
1.0
 40
1.0
 40
1.0
 10
156.9773591457011
 20
108.6884398326677
 30
0.0
 10
156.9826064928077
 20
108.6058032142771
 30
0.0
 10
157.001487624505
 20
108.3084581286323
 30
0.0
 10
156.825791073948
 20
107.8211340366234
 30
0.0
 10
156.494734139683
 20
107.3308401259402
 30
0.0
 10
156.0849362826158
 20
106.9990449820066
 30
0.0
 10
155.6814519330106
 20
106.8052942113409
 30
0.0
 10
155.3114213083909
 20
106.7183627455514
 30
0.0
 10
155.0605415709956
 20
106.6942164149534
 30
0.0
 10
154.9374670346947
 20
106.7045411816643
 30
0.0
 10
154.919160745226
 20
106.7060769028117
 30
0.0
  0
SPLINE
  5
81
330
1F
100
AcDbEntity
  8
0
  6
Continuous
 62
     7
370
    25
100
AcDbSpline
210
0.0
220
0.0
230
1.0
 70
     8
 71
     3
 72
    14
 73
    10
 74
     0
 42
0.000000001
 43
0.00000001
 40
0.0
 40
0.0
 40
0.0
 40
0.0
 40
0.0546954067678802
 40
0.1997642934587784
 40
0.370475996235234
 40
0.547737265673585
 40
0.7418984721988405
 40
0.9418241905591235
 40
1.0
 40
1.0
 40
1.0
 40
1.0
 10
30.09391760010011
 20
106.7079624646798
 30
0.0
 10
30.03529339926556
 20
106.7051800590538
 30
0.0
 10
29.82117995260992
 20
106.6950178657943
 30
0.0
 10
29.42470161203763
 20
106.7652286051073
 30
0.0
 10
28.93486288289369
 20
106.9765831468184
 30
0.0
 10
28.47884648951977
 20
107.3536655275946
 30
0.0
 10
28.14901933233602
 20
107.8744415637721
 30
0.0
 10
27.99030169107916
 20
108.3523122062297
 30
0.0
 10
28.01309214901768
 20
108.628943439207
 30
0.0
 10
28.01822909396101
 20
108.691295824457
 30
0.0
  0
SPLINE
  5
82
330
1F
100
AcDbEntity
  8
0
  6
Continuous
 62
     7
370
    25
100
AcDbSpline
210
0.0
220
0.0
230
1.0
 70
     8
 71
     3
 72
    13
 73
     9
 74
     0
 42
0.000000001
 43
0.00000001
 40
0.0
 40
0.0
 40
0.0
 40
0.0
 40
0.2432052710441988
 40
0.4593717499898665
 40
0.6454522206397165
 40
0.8061237112582078
 40
0.9415416541446289
 40
1.0
 40
1.0
 40
1.0
 40
1.0
 10
7.992865156947277
 20
104.1745060870061
 30
0.0
 10
7.978702374556098
 20
103.9713891291161
 30
0.0
 10
7.951951383083633
 20
103.5877371136893
 30
0.0
 10
7.711587975701595
 20
103.0970154134511
 30
0.0
 10
7.415118084737715
 20
102.7319772537632
 30
0.0
 10
7.097403203146918
 20
102.4850726443782
 30
0.0
 10
6.837586153975991
 20
102.3421741121943
 30
0.0
 10
6.684310513689063
 20
102.2928240396154
 30
0.0
 10
6.638094236034648
 20
102.2779438104263
 30
0.0
  0
SPLINE
  5
88
330
1F
100
AcDbEntity
  8
0
  6
Continuous
 62
     7
370
    25
100
AcDbSpline
210
0.0
220
0.0
230
1.0
 70
     8
 71
     3
 72
    27
 73
    23
 74
     0
 42
0.000000001
 43
0.00000001
 40
0.0
 40
0.0
 40
0.0
 40
0.0
 40
0.0101207646707152
 40
0.0622489251034699
 40
0.1121981359521716
 40
0.1635857269710638
 40
0.2275131137442381
 40
0.2820631214821652
 40
0.3382049524600625
 40
0.3930379835308341
 40
0.4493985749973915
 40
0.5046828537383007
 40
0.561555305759899
 40
0.6159092699477274
 40
0.6718510358616412
 40
0.7248336301693985
 40
0.7793673478072484
 40
0.8314466294135503
 40
0.8850638857374685
 40
0.9368050463519483
 40
0.9900966514476919
 40
1.0
 40
1.0
 40
1.0
 40
1.0
 10
30.34609387572366
 20
106.7293258135865
 30
0.0
 10
30.35391200733486
 20
106.7316472090639
 30
0.0
 10
30.40199832343342
 20
106.7459252184743
 30
0.0
 10
30.17486287416371
 20
106.6783616455698
 30
0.0
 10
29.65579955592691
 20
106.525678810443
 30
0.0
 10
28.75523674020002
 20
106.2659014924121
 30
0.0
 10
27.50646493249186
 20
105.9173133524312
 30
0.0
 10
25.9300733604608
 20
105.4980252948313
 30
0.0
 10
24.22405272509748
 20
105.0686740728645
 30
0.0
 10
22.33492070334346
 20
104.6239622029387
 30
0.0
 10
20.34120423864637
 20
104.1899673603481
 30
0.0
 10
18.26219446663547
 20
103.776608077114
 30
0.0
 10
16.20262111876401
 20
103.4072211936895
 30
0.0
 10
14.19045127983461
 20
103.085106263233
 30
0.0
 10
12.33470592403976
 20
102.8224197884889
 30
0.0
 10
10.6440079939551
 20
102.6118747647401
 30
0.0
 10
9.20272409090854
 20
102.4542856813603
 30
0.0
 10
8.0142803276448
 20
102.3394263413439
 30
0.0
 10
7.12454959644672
 20
102.2625573908804
 30
0.0
 10
6.574864162780275
 20
102.2188365780757
 30
0.0
 10
6.337839452618191
 20
102.2009043123172
 30
0.0
 10
6.38872127414851
 20
102.2047870338485
 30
0.0
 10
6.396695018640791
 20
102.2053954992786
 30
0.0
  0
SPLINE
  5
8A
330
1F
100
AcDbEntity
  8
0
  6
Continuous
 62
     7
370
    25
100
AcDbSpline
210
0.0
220
0.0
230
1.0
 70
     8
 71
     3
 72
    26
 73
    22
 74
     0
 42
0.000000001
 43
0.00000001
 40
0.0
 40
0.0
 40
0.0
 40
0.0
 40
0.0421036741425289
 40
0.0939435666205762
 40
0.1473387188793291
 40
0.216555216721048
 40
0.2690717193190715
 40
0.3231131950878033
 40
0.3759263903744824
 40
0.4302110688466975
 40
0.4835371678396673
 40
0.53829965247037
 40
0.5925476805118735
 40
0.6482692957692924
 40
0.7031380256791867
 40
0.7595883173178584
 40
0.8138188768845814
 40
0.869739616211643
 40
0.9219884952559688
 40
0.975915632271058
 40
1.0
 40
1.0
 40
1.0
 40
1.0
 10
178.5998662394389
 20
102.2056577853172
 30
0.0
 10
178.5904345507689
 20
102.2063583065091
 30
0.0
 10
178.5693901528405
 20
102.207921340154
 30
0.0
 10
178.1313520421007
 20
102.2418061343837
 30
0.0
 10
177.2983178646968
 20
102.3112206116086
 30
0.0
 10
176.0613372510665
 20
102.4265024069547
 30
0.0
 10
174.5006833423473
 20
102.5952395815293
 30
0.0
 10
172.8707166452358
 20
102.7955104608335
 30
0.0
 10
171.0575556358909
 20
103.0484260007096
 30
0.0
 10
169.1389445143952
 20
103.3502260317522
 30
0.0
 10
167.1374095319111
 20
103.7022820677003
 30
0.0
 10
165.1291450861299
 20
104.0932554128812
 30
0.0
 10
163.1381566927608
 20
104.5178059405178
 30
0.0
 10
161.2439260123888
 20
104.9555446040996
 30
0.0
 10
159.4763277266213
 20
105.3933146747886
 30
0.0
 10
157.9238776572378
 20
105.8010484825246
 30
0.0
 10
156.6121971537253
 20
106.1620895840691
 30
0.0
 10
155.6126514692173
 20
106.4474996823505
 30
0.0
 10
154.9506694443837
 20
106.6411705883977
 30
0.0
 10
154.6340900782691
 20
106.7352057312176
 30
0.0
 10
154.6597181887614
 20
106.7275936039479
 30
0.0
 10
154.6676303145347
 20
106.7252435240082
 30
0.0
  0
SPLINE
  5
93
330
1F
100
AcDbEntity
  8
0
  6
Continuous
 62
     8
370
    25
100
AcDbSpline
210
0.0
220
0.0
230
1.0
 70
     8
 71
     3
 72
    26
 73
    22
 74
     0
 42
0.000000001
 43
0.00000001
 40
0.0
 40
0.0
 40
0.0
 40
0.0
 40
0.0238410926392117
 40
0.077210853237838
 40
0.1305910474677782
 40
0.1859255813474301
 40
0.2412762922905813
 40
0.2970690334700897
 40
0.352869481061193
 40
0.4077638527448628
 40
0.4626552943408616
 40
0.5164076458458505
 40
0.5701528276968347
 40
0.6233630771378412
 40
0.6765679790486077
 40
0.7296641215669702
 40
0.7827586040007082
 40
0.8520292115348913
 40
0.9048800509863684
 40
0.9577311655724251
 40
1.0
 40
1.0
 40
1.0
 40
1.0
 10
157.0337760651526
 20
108.6898605428871
 30
0.0
 10
157.0267069159083
 20
108.692419941125
 30
0.0
 10
157.0038130388081
 20
108.7007087106337
 30
0.0
 10
157.2687139534841
 20
108.6054349878375
 30
0.0
 10
157.8114252871565
 20
108.4138375473724
 30
0.0
 10
158.6491168296675
 20
108.124926314987
 30
0.0
 10
159.7322014887631
 20
107.7648810246766
 30
0.0
 10
161.0322973517843
 20
107.3531295513151
 30
0.0
 10
162.4955083705486
 20
106.9156554843742
 30
0.0
 10
164.0818289468033
 20
106.4745367250639
 30
0.0
 10
165.7327244644056
 20
106.0501955756445
 30
0.0
 10
167.4147648932087
 20
105.6573970218871
 30
0.0
 10
169.0767171407243
 20
105.3060419695758
 30
0.0
 10
170.683299479314
 20
105.0043081682364
 30
0.0
 10
172.1905290100704
 20
104.7528909761207
 30
0.0
 10
173.5544812703221
 20
104.5540482867259
 30
0.0
 10
174.8586714684084
 20
104.386796642615
 30
0.0
 10
175.888649539549
 20
104.274109692788
 30
0.0
 10
176.5819939316757
 20
104.2061149199775
 30
0.0
 10
176.950173756719
 20
104.1731403067197
 30
0.0
 10
176.9684914095805
 20
104.1714278346223
 30
0.0
 10
176.9766312986777
 20
104.1706668565069
 30
0.0
  0
SPLINE
  5
94
330
1F
100
AcDbEntity
  8
0
  6
Continuous
 62
     8
370
    25
100
AcDbSpline
210
0.0
220
0.0
230
1.0
 70
     8
 71
     3
 72
    27
 73
    23
 74
     0
 42
0.000000001
 43
0.00000001
 40
0.0
 40
0.0
 40
0.0
 40
0.0
 40
0.0096689488795089
 40
0.0624500767134048
 40
0.1152310003899522
 40
0.1681363295192473
 40
0.2210415300856787
 40
0.2745865711486584
 40
0.3281334675065973
 40
0.3829063419719889
 40
0.4376854591102419
 40
0.493450601411294
 40
0.5492238832608297
 40
0.6047379921225714
 40
0.6602541204655389
 40
0.7157453188586492
 40
0.7712276234335846
 40
0.8354437029420945
 40
0.8863732332411244
 40
0.9372917120986479
 40
0.9888977685483187
 40
1.0
 40
1.0
 40
1.0
 40
1.0
 10
8.02131508908302
 20
104.1705721345496
 30
0.0
 10
8.014676813325696
 20
104.1699910128808
 30
0.0
 10
7.971801332706696
 20
104.1662376480379
 30
0.0
 10
8.170436649197713
 20
104.1834793910774
 30
0.0
 10
8.619893722304969
 20
104.225506383513
 30
0.0
 10
9.365247723259293
 20
104.3008840029238
 30
0.0
 10
10.34592000203036
 20
104.4123800089518
 30
0.0
 10
11.55356108416635
 20
104.5687999690633
 30
0.0
 10
12.95310659917821
 20
104.7752111990453
 30
0.0
 10
14.5082290219143
 20
105.038177878678
 30
0.0
 10
16.17741783316139
 20
105.3567201999014
 30
0.0
 10
17.90246972356228
 20
105.7282424530643
 30
0.0
 10
19.62899405338273
 20
106.1395729190797
 30
0.0
 10
21.29733032220456
 20
106.5769347817286
 30
0.0
 10
22.86631817482182
 20
107.0211005866678
 30
0.0
 10
24.29295734071352
 20
107.4541541469274
 30
0.0
 10
25.6090422149141
 20
107.8760834609363
 30
0.0
 10
26.64969989633352
 20
108.226929101971
 30
0.0
 10
27.39941814171396
 20
108.4878472155218
 30
0.0
 10
27.83420381044961
 20
108.6425318678397
 30
0.0
 10
28.02278727851388
 20
108.7100523144708
 30
0.0
 10
27.98332772181571
 20
108.6959546656817
 30
0.0
 10
27.97634157778107
 20
108.6934587378702
 30
0.0
  0
LINE
  5
95
330
1F
100
AcDbEntity
  8
0
  6
Continuous
 62
     7
370
    25
100
AcDbLine
 10
6.3961717445
 20
102.208165774
 30
0.0
 11
0.8143932252
 21
101.1538298314
 31
0.0
  0
LINE
  5
96
330
1F
100
AcDbEntity
  8
0
  6
Continuous
 62
     7
370
    25
100
AcDbLine
 10
45.0
 20
109.5
 30
0.0
 11
30.3455988662
 21
106.7319464525
 31
0.0
  0
LINE
  5
97
330
1F
100
AcDbEntity
  8
0
  6
Continuous
 62
     7
370
    25
100
AcDbLine
 10
0.8143932252
 20
-101.1538298314
 30
0.0
 11
45.0
 21
-109.5
 31
0.0
  0
LINE
  5
98
330
1F
100
AcDbEntity
  8
0
  6
Continuous
 62
     7
370
    25
100
AcDbLine
 10
45.0
 20
-109.5
 30
0.0
 11
140.0
 21
-109.5
 31
0.0
  0
LINE
  5
99
330
1F
100
AcDbEntity
  8
0
  6
Continuous
 62
     7
370
    25
100
AcDbLine
 10
140.0
 20
109.5
 30
0.0
 11
45.0
 21
109.5
 31
0.0
  0
LINE
  5
9A
330
1F
100
AcDbEntity
  8
0
  6
Continuous
 62
     7
370
    25
100
AcDbLine
 10
140.0
 20
-109.5
 30
0.0
 11
184.1856067748
 21
-101.1538298314
 31
0.0
  0
LINE
  5
9B
330
1F
100
AcDbEntity
  8
0
  6
Continuous
 62
     7
370
    25
100
AcDbLine
 10
154.6683970623
 20
106.7293027771
 30
0.0
 11
140.0
 21
109.5
 31
0.0
  0
LINE
  5
9C
330
1F
100
AcDbEntity
  8
0
  6
Continuous
 62
     7
370
    25
100
AcDbLine
 10
184.1856067748
 20
101.1538298314
 30
0.0
 11
178.6004601416
 21
102.2088019733
 31
0.0
  0
LINE
  5
9D
330
1F
100
AcDbEntity
  8
0
  6
Continuous
 62
     7
370
    25
100
AcDbLine
 10
157.0
 20
123.9
 30
0.0
 11
157.0
 21
108.6898370185
 31
0.0
  0
LINE
  5
9E
330
1F
100
AcDbEntity
  8
0
  6
Continuous
 62
     7
370
    25
100
AcDbLine
 10
177.0
 20
104.1706473055
 30
0.0
 11
177.0
 21
123.9
 31
0.0
  0
LINE
  5
9F
330
1F
100
AcDbEntity
  8
0
  6
Continuous
 62
     7
370
    25
100
AcDbLine
 10
8.0
 20
123.9
 30
0.0
 11
8.0
 21
104.1706102741
 31
0.0
  0
LINE
  5
A0
330
1F
100
AcDbEntity
  8
0
  6
Continuous
 62
     7
370
    25
100
AcDbLine
 10
28.0
 20
108.6935510335
 30
0.0
 11
28.0
 21
123.9
 31
0.0
  0
LINE
  5
A1
330
1F
100
AcDbEntity
  8
0
  6
Continuous
 62
     7
370
    25
100
AcDbLine
 10
45.0
 20
-109.5
 30
0.0
 11
45.0
 21
109.5
 31
0.0
  0
LINE
  5
A2
330
1F
100
AcDbEntity
  8
0
  6
Continuous
 62
     7
370
    25
100
AcDbLine
 10
140.0
 20
-109.5
 30
0.0
 11
140.0
 21
109.5
 31
0.0
  0
LINE
  5
A3
330
1F
100
AcDbEntity
  8
0
  6
Continuous
 62
     7
370
    25
100
AcDbLine
 10
185.0
 20
-100.1712057298
 30
0.0
 11
185.0
 21
100.1712057272
 31
0.0
  0
LINE
  5
A4
330
1F
100
AcDbEntity
  8
0
  6
Continuous
 62
     7
370
    25
100
AcDbLine
 10
0.0
 20
-100.1712057298
 30
0.0
 11
0.0
 21
100.1712057272
 31
0.0
  0
LINE
  5
A5
330
1F
100
AcDbEntity
  8
0
  6
Continuous
 62
     7
370
    25
100
AcDbLine
 10
157.0
 20
123.9
 30
0.0
 11
177.0
 21
123.9
 31
0.0
  0
LINE
  5
A6
330
1F
100
AcDbEntity
  8
0
  6
Continuous
 62
     7
370
    25
100
AcDbLine
 10
28.0
 20
123.9
 30
0.0
 11
8.0
 21
123.9
 31
0.0
  0
LINE
  5
A7
330
1F
100
AcDbEntity
  8
0
  6
Continuous
 62
     8
370
    25
100
AcDbLine
 10
0.8143932252
 20
-101.1538298314
 30
0.0
 11
0.8143932252
 21
101.1538298314
 31
0.0
  0
LINE
  5
A8
330
1F
100
AcDbEntity
  8
0
  6
Continuous
 62
     8
370
    25
100
AcDbLine
 10
184.1856067748
 20
-101.1538298314
 30
0.0
 11
184.1856067748
 21
101.1538298314
 31
0.0
  0
ARC
  5
A9
330
1F
100
AcDbEntity
  8
0
  6
Continuous
 62
     7
370
    25
100
AcDbCircle
 10
184.0
 20
-100.1712057298
 30
0.0
 40
1.000000000000143
100
AcDbArc
 50
280.6965107358
 51
360.0
  0
ARC
  5
AA
330
1F
100
AcDbEntity
  8
0
  6
Continuous
 62
     7
370
    25
100
AcDbCircle
 10
184.0
 20
100.1712057298
 30
0.0
 40
1.00000000000009
100
AcDbArc
 50
0.0
 51
79.3034892642
  0
ARC
  5
AB
330
1F
100
AcDbEntity
  8
0
  6
Continuous
 62
     7
370
    25
100
AcDbCircle
 10
1.0
 20
-100.1712057298
 30
0.0
 40
0.9999999999999503
100
AcDbArc
 50
180.0
 51
259.3034892642
  0
ARC
  5
AC
330
1F
100
AcDbEntity
  8
0
  6
Continuous
 62
     7
370
    25
100
AcDbCircle
 10
1.0
 20
100.1712057298
 30
0.0
 40
0.9999999999999403
100
AcDbArc
 50
100.6965107358
 51
180.0
  0
SPLINE
  5
AD
330
1B
100
AcDbEntity
 67
     1
  8
0
  6
Continuous
 62
     7
370
    25
100
AcDbSpline
210
0.0
220
0.0
230
1.0
 70
     8
 71
     3
 72
    11
 73
     7
 74
     0
 42
0.000000001
 43
0.00000001
 40
0.0
 40
0.0
 40
0.0
 40
0.0
 40
0.3325295938529249
 40
0.6344611907010879
 40
0.918361153208019
 40
1.0
 40
1.0
 40
1.0
 40
1.0
 10
-10.0004669418834
 20
105.7558618731559
 30
0.0
 10
-10.02311541333455
 20
105.5677004012067
 30
0.0
 10
-10.06632833762786
 20
105.2086912972238
 30
0.0
 10
-10.25032083439161
 20
104.9190786288416
 30
0.0
 10
-10.33651130469221
 20
104.8343512899335
 30
0.0
 10
-10.31993464811582
 20
104.8476986653482
 30
0.0
 10
-10.31623244443146
 20
104.8506796465979
 30
0.0
  0
SPLINE
  5
AE
330
1B
100
AcDbEntity
 67
     1
  8
0
  6
Continuous
 62
     7
370
    25
100
AcDbSpline
210
0.0
220
0.0
230
1.0
 70
     8
 71
     3
 72
    11
 73
     7
 74
     0
 42
0.000000001
 43
0.00000001
 40
0.0
 40
0.0
 40
0.0
 40
0.0
 40
0.06472579094855
 40
0.3611683753419768
 40
0.6601872009743077
 40
1.0
 40
1.0
 40
1.0
 40
1.0
 10
10.31948246610791
 20
104.8478887544085
 30
0.0
 10
10.32318258681367
 20
104.8449972077139
 30
0.0
 10
10.34382917242171
 20
104.8288624458726
 30
0.0
 10
10.24900891346618
 20
104.9195639512827
 30
0.0
 10
10.06419816299932
 20
105.2132994954227
 30
0.0
 10
10.02292283924514
 20
105.5703107783406
 30
0.0
 10
10.00096731488752
 20
105.7602152831419
 30
0.0
  0
CIRCLE
  5
B1
330
1B
100
AcDbEntity
 67
     1
  8
0
  6
Continuous
 62
     7
370
    25
100
AcDbCircle
 10
0.0
 20
0.0
 30
0.0
 40
100.1712057297742
  0
CIRCLE
  5
B2
330
1B
100
AcDbEntity
 67
     1
  8
0
  6
Continuous
 62
     7
370
    25
100
AcDbCircle
 10
0.0
 20
0.0
 30
0.0
 40
101.1538298314345
  0
CIRCLE
  5
B3
330
1B
100
AcDbEntity
 67
     1
  8
0
  6
Continuous
 62
     7
370
    25
100
AcDbCircle
 10
0.0
 20
0.0
 30
0.0
 40
92.47968477356322
  0
CIRCLE
  5
B4
330
1B
100
AcDbEntity
 67
     1
  8
0
  6
Continuous
 62
     7
370
    25
100
AcDbCircle
 10
0.0
 20
0.0
 30
0.0
 40
91.97968477356318
  0
CIRCLE
  5
B5
330
1B
100
AcDbEntity
 67
     1
  8
0
  6
Continuous
 62
     7
370
    25
100
AcDbCircle
 10
0.0
 20
0.0
 30
0.0
 40
90.87499999999994
  0
SPLINE
  5
B9
330
1B
100
AcDbEntity
 67
     1
  8
0
  6
Continuous
 62
     8
370
    25
100
AcDbSpline
210
0.0
220
0.0
230
1.0
 70
     8
 71
     3
 72
    15
 73
    11
 74
     0
 42
0.000000001
 43
0.00000001
 40
0.0
 40
0.0
 40
0.0
 40
0.0
 40
0.1352522704400404
 40
0.2609938772615601
 40
0.3902436364473794
 40
0.5173620771181539
 40
0.6479143597626235
 40
0.777172808472297
 40
0.9099257072095275
 40
1.0
 40
1.0
 40
1.0
 40
1.0
 10
-8.426057121942856
 20
102.5411778169097
 30
0.0
 10
-8.890247167519297
 20
102.602892857759
 30
0.0
 10
-9.785986362041168
 20
102.7219832637404
 30
0.0
 10
-10.75971612292727
 20
102.9650466015402
 30
0.0
 10
-11.42891668097374
 20
103.2498562975805
 30
0.0
 10
-11.7789911102744
 20
103.5871801773839
 30
0.0
 10
-11.80530444012038
 20
103.9660877951018
 30
0.0
 10
-11.48778153089749
 20
104.3819239455999
 30
0.0
 10
-10.94811242191826
 20
104.7724502937793
 30
0.0
 10
-10.3820833331504
 20
105.0168708957574
 30
0.0
 10
-10.15327521722861
 20
105.1156739759186
 30
0.0
  0
SPLINE
  5
BA
330
1B
100
AcDbEntity
 67
     1
  8
0
  6
Continuous
 62
     8
370
    25
100
AcDbSpline
210
0.0
220
0.0
230
1.0
 70
     8
 71
     3
 72
    25
 73
    21
 74
     0
 42
0.000000001
 43
0.00000001
 40
0.0
 40
0.0
 40
0.0
 40
0.0
 40
0.0084736975888284
 40
0.0680979179537091
 40
0.1293831735719837
 40
0.189498070632973
 40
0.2513399120524313
 40
0.3104432057269518
 40
0.3712730397397158
 40
0.4288851362592662
 40
0.4881838898437375
 40
0.5448137441906737
 40
0.6031159580933022
 40
0.6593781471820409
 40
0.7173262551705585
 40
0.7735976327851289
 40
0.8315637583407581
 40
0.8880631814963358
 40
0.9462437962298629
 40
1.0
 40
1.0
 40
1.0
 40
1.0
 10
10.14867759839763
 20
105.1235992494301
 30
0.0
 10
10.20225059374388
 20
105.1035955296755
 30
0.0
 10
10.63278394749885
 20
104.9428378849356
 30
0.0
 10
11.16141539728947
 20
104.6228117999552
 30
0.0
 10
11.68323223653515
 20
104.1902723161736
 30
0.0
 10
11.83555554412516
 20
103.7765242772302
 30
0.0
 10
11.64352129227603
 20
103.4072429246746
 30
0.0
 10
11.10086444331836
 20
103.0850998447136
 30
0.0
 10
10.24399037385263
 20
102.8224233711421
 30
0.0
 10
9.082784812057424
 20
102.6118669455561
 30
0.0
 10
7.683920312359101
 20
102.45431386425
 30
0.0
 10
6.054159720052688
 20
102.3393256028058
 30
0.0
 10
4.275805094497909
 20
102.2629404520289
 30
0.0
 10
2.358547667076207
 20
102.2174463971034
 30
0.0
 10
0.3936851683109132
 20
102.1996774218708
 30
0.0
 10
-1.601198116251582
 20
102.2075295516552
 30
0.0
 10
-3.534378073379287
 20
102.2413732764096
 30
0.0
 10
-5.379128484193938
 20
102.3062006652559
 30
0.0
 10
-7.04190969236575
 20
102.4001805297878
 30
0.0
 10
-7.976994691605237
 20
102.4954337125802
 30
0.0
 10
-8.426057121942856
 20
102.5411778169097
 30
0.0
  0
SPLINE
  5
BB
330
1B
100
AcDbEntity
 67
     1
  8
0
  6
Continuous
 62
     8
370
    25
100
AcDbSpline
210
0.0
220
0.0
230
1.0
 70
     8
 71
     3
 72
    23
 73
    19
 74
     0
 42
0.000000001
 43
0.00000001
 40
0.0
 40
0.0
 40
0.0
 40
0.0
 40
0.0660111577394545
 40
0.1365351869802397
 40
0.2070595227793327
 40
0.2073596390226019
 40
0.2780012170224508
 40
0.348642989322714
 40
0.4192406799322906
 40
0.4898380974700721
 40
0.5606019142119568
 40
0.6313655589938693
 40
0.7029850259847529
 40
0.7746069745357109
 40
0.8478687369117248
 40
0.9211388492094879
 40
0.9957278249388096
 40
1.0
 40
1.0
 40
1.0
 40
1.0
 10
-7.155836552888983
 20
104.4998244535056
 30
0.0
 10
-6.774400787136744
 20
104.4547169000809
 30
0.0
 10
-5.985452291437121
 20
104.3614180025617
 30
0.0
 10
-4.576039857078833
 20
104.269426046869
 30
0.0
 10
-3.537645725777444
 20
104.227023982302
 30
0.0
 10
-2.4684833606791
 20
104.1950413602729
 30
0.0
 10
-1.367143816976198
 20
104.1726211471511
 30
0.0
 10
0.3175800563285271
 20
104.1650393500317
 30
0.0
 10
1.993135235516557
 20
104.1820709615381
 30
0.0
 10
3.614035783414401
 20
104.2258855071233
 30
0.0
 10
5.131114298013783
 20
104.3007795231469
 30
0.0
 10
6.511224087064137
 20
104.4124190021274
 30
0.0
 10
7.705083312548547
 20
104.5687492438855
 30
0.0
 10
8.6893515265201
 20
104.7753763881646
 30
0.0
 10
9.42635876620782
 20
105.037552883201
 30
0.0
 10
9.863937960033041
 20
105.3590670654649
 30
0.0
 10
10.04230014491081
 20
105.605422656496
 30
0.0
 10
9.993608350402685
 20
105.7502337252465
 30
0.0
 10
9.990970551333094
 20
105.758078630251
 30
0.0
  0
SPLINE
  5
BC
330
1B
100
AcDbEntity
 67
     1
  8
0
  6
Continuous
 62
     8
370
    25
100
AcDbSpline
210
0.0
220
0.0
230
1.0
 70
     8
 71
     3
 72
    12
 73
     8
 74
     0
 42
0.000000001
 43
0.00000001
 40
0.0
 40
0.0
 40
0.0
 40
0.0
 40
0.1247016561505638
 40
0.341856587294496
 40
0.5567117307154522
 40
0.7715477564295274
 40
1.0
 40
1.0
 40
1.0
 40
1.0
 10
-9.965749603882143
 20
105.7651013262577
 30
0.0
 10
-9.970388725799129
 20
105.6918860556911
 30
0.0
 10
-9.983106394798396
 20
105.4911740258241
 30
0.0
 10
-9.701196321957086
 20
105.206745043895
 30
0.0
 10
-9.139977005728788
 20
104.9209549224554
 30
0.0
 10
-8.313994845217975
 20
104.678906888698
 30
0.0
 10
-7.549714628171023
 20
104.5607286022369
 30
0.0
 10
-7.155836552888983
 20
104.4998244535056
 30
0.0
  0
LINE
  5
BD
330
1B
100
AcDbEntity
 67
     1
  8
0
  6
Continuous
 62
     7
370
    25
100
AcDbLine
 10
-10.0
 20
123.9
 30
0.0
 11
-10.0
 21
105.76156141
 31
0.0
  0
LINE
  5
BE
330
1B
100
AcDbEntity
 67
     1
  8
0
  6
Continuous
 62
     7
370
    25
100
AcDbLine
 10
10.0
 20
105.7579356649
 30
0.0
 11
10.0
 21
123.9
 31
0.0
  0
LINE
  5
BF
330
1B
100
AcDbEntity
 67
     1
  8
0
  6
Continuous
 62
     7
370
    25
100
AcDbLine
 10
10.0
 20
123.9
 30
0.0
 11
-10.0
 21
123.9
 31
0.0
  0
ARC
  5
C0
330
1B
100
AcDbEntity
 67
     1
  8
0
  6
Continuous
 62
     7
370
    25
100
AcDbCircle
 10
0.0
 20
0.0
 30
0.0
 40
109.5
100
AcDbArc
 50
95.2397919714
 51
84.7602080286
  0
VIEWPORT
  5
EB
330
1B
100
AcDbEntity
 67
     1
  8
0
100
AcDbViewport
 10
0.0
 20
0.0
 30
0.0
 40
205.6
 41
156.0
 68
     1
 69
     1
 12
92.5
 22
7.2
 13
0.0
 23
0.0
 14
10.0
 24
10.0
 15
10.0
 25
10.0
 16
0.0
 26
0.0
 36
1.0
 17
0.0
 27
0.0
 37
0.0
 42
50.0
 43
0.0
 44
0.0
 45
238.068
 50
0.0
 51
0.0
 72
   100
 90
   557152
  1

281
     0
 71
     1
 74
     0
110
0.0
120
0.0
130
0.0
111
1.0
121
0.0
131
0.0
112
0.0
122
1.0
132
0.0
 79
     0
146
0.0
  0
ENDSEC
  0
SECTION
  2
OBJECTS
  0
DICTIONARY
  5
C
330
0
100
AcDbDictionary
281
     1
  3
ACAD_GROUP
350
D
  3
ACAD_LAYOUT
350
1A
  3
ACAD_MLINESTYLE
350
17
  3
ACAD_PLOTSETTINGS
350
19
  3
ACAD_PLOTSTYLENAME
350
E
  3
ACAD_SCALELIST
350
47
  0
DICTIONARY
  5
D
102
{ACAD_REACTORS
330
C
102
}
330
C
100
AcDbDictionary
281
     1
  0
DICTIONARY
  5
1A
102
{ACAD_REACTORS
330
C
102
}
330
C
100
AcDbDictionary
281
     1
  3
_Left
350
1E
  3
_Top
350
26
  3
Model
350
22
  0
DICTIONARY
  5
17
102
{ACAD_REACTORS
330
C
102
}
330
C
100
AcDbDictionary
281
     1
  3
Standard
350
18
  0
DICTIONARY
  5
19
102
{ACAD_REACTORS
330
C
102
}
330
C
100
AcDbDictionary
281
     1
  0
ACDBDICTIONARYWDFLT
  5
E
102
{ACAD_REACTORS
330
C
102
}
330
C
100
AcDbDictionary
281
     1
  3
Normal
350
F
100
AcDbDictionaryWithDefault
340
F
  0
DICTIONARY
  5
47
102
{ACAD_REACTORS
330
C
102
}
330
C
100
AcDbDictionary
281
     1
  3
A0
350
48
  3
A1
350
49
  3
A2
350
4A
  3
A3
350
4B
  3
A4
350
4C
  3
A5
350
4D
  3
A6
350
4E
  3
A7
350
4F
  3
A8
350
50
  3
A9
350
51
  3
B0
350
52
  3
B1
350
53
  3
B2
350
54
  3
B3
350
55
  3
B4
350
56
  3
B5
350
57
  3
B6
350
58
  3
B7
350
59
  3
B8
350
5A
  3
B9
350
5B
  3
C0
350
5C
  3
C1
350
5D
  3
C2
350
5E
  3
C3
350
5F
  3
C4
350
60
  3
C5
350
61
  3
C6
350
62
  3
C7
350
63
  3
C8
350
64
  3
C9
350
65
  3
D0
350
66
  3
D1
350
67
  3
D2
350
68
  0
LAYOUT
  5
1E
102
{ACAD_REACTORS
330
1A
102
}
330
1A
100
AcDbPlotSettings
  1

  2
none_device
  4
ISO_A4_(210.00_x_297.00_MM)
  6

 40
7.5
 41
20.0
 42
7.5
 43
20.0
 44
210.0
 45
297.0
 46
0.0
 47
0.0
 48
0.0
 49
0.0
140
0.0
141
0.0
142
1.0
143
1.1969230769
 70
   688
 72
     1
 73
     1
 74
     1
  7

 75
     0
147
0.8354755784
148
109.5
149
109.5
100
AcDbLayout
  1
_Left
 70
     1
 71
     1
 10
-133.4384615385
 20
-118.4769230769
 11
222.0476923077
 21
132.8769230769
 12
0.0
 22
0.0
 32
0.0
 14
-109.5
 24
-109.5
 34
0.0
 15
109.5
 25
123.9
 35
0.0
146
0.0
 13
0.0
 23
0.0
 33
0.0
 16
1.0
 26
0.0
 36
0.0
 17
0.0
 27
1.0
 37
0.0
 76
     0
330
1B
331
EB
  0
LAYOUT
  5
26
102
{ACAD_REACTORS
330
1A
102
}
330
1A
100
AcDbPlotSettings
  1

  2
none_device
  4
ISO_A4_(210.00_x_297.00_MM)
  6

 40
7.5
 41
20.0
 42
7.5
 43
20.0
 44
210.0
 45
297.0
 46
0.0
 47
0.0
 48
0.0
 49
0.0
140
0.0
141
0.0
142
1.0
143
1.1969230769
 70
   688
 72
     1
 73
     1
 74
     1
  7

 75
     0
147
0.8354755784
148
109.5
149
109.5
100
AcDbLayout
  1
_Top
 70
     1
 71
     2
 10
0.0
 20
0.0
 11
0.0
 21
0.0
 12
0.0
 22
0.0
 32
0.0
 14
0.0
 24
0.0
 34
0.0
 15
0.0
 25
0.0
 35
0.0
146
0.0
 13
0.0
 23
0.0
 33
0.0
 16
1.0
 26
0.0
 36
0.0
 17
0.0
 27
1.0
 37
0.0
 76
     0
330
23
331
ED
  0
LAYOUT
  5
22
102
{ACAD_REACTORS
330
1A
102
}
330
1A
100
AcDbPlotSettings
  1

  2
none_device
  4
ANSI_A_(11.00_x_8.50_Inches)
  6

 40
6.35
 41
19.05
 42
6.35000508
 43
19.05000254
 44
279.4
 45
215.9
 46
48.6411606991
 47
82.3064460308
 48
0.0
 49
0.0
140
0.0
141
0.0
142
0.0360539846
143
1.0
 70
  1696
 72
     0
 73
     0
 74
     0
  7

 75
     0
147
0.0179189148
148
-1300.4909072572
149
0.0
100
AcDbLayout
  1
Model
 70
     1
 71
     0
 10
0.0
 20
0.0
 11
420.0
 21
297.0
 12
0.0
 22
0.0
 32
0.0
 14
0.0
 24
-109.5
 34
0.0
 15
185.0
 25
123.9
 35
0.0
146
0.0
 13
0.0
 23
0.0
 33
0.0
 16
1.0
 26
0.0
 36
0.0
 17
0.0
 27
1.0
 37
0.0
 76
     0
330
1F
331
29
  0
MLINESTYLE
  5
18
102
{ACAD_REACTORS
330
17
102
}
330
17
100
AcDbMlineStyle
  2
Standard
 70
     0
  3

 62
   256
 51
90.0
 52
90.0
 71
     2
 49
0.5
 62
   256
  6
BYLAYER
 49
-0.5
 62
   256
  6
BYLAYER
  0
ACDBPLACEHOLDER
  5
F
102
{ACAD_REACTORS
330
E
102
}
330
E
  0
SCALE
  5
48
102
{ACAD_REACTORS
330
47
102
}
330
47
100
AcDbScale
 70
     0
300
1:1
140
1.0
141
1.0
290
     1
  0
SCALE
  5
49
102
{ACAD_REACTORS
330
47
102
}
330
47
100
AcDbScale
 70
     0
300
1:2
140
1.0
141
2.0
290
     0
  0
SCALE
  5
4A
102
{ACAD_REACTORS
330
47
102
}
330
47
100
AcDbScale
 70
     0
300
1:4
140
1.0
141
4.0
290
     0
  0
SCALE
  5
4B
102
{ACAD_REACTORS
330
47
102
}
330
47
100
AcDbScale
 70
     0
300
1:5
140
1.0
141
5.0
290
     0
  0
SCALE
  5
4C
102
{ACAD_REACTORS
330
47
102
}
330
47
100
AcDbScale
 70
     0
300
1:8
140
1.0
141
8.0
290
     0
  0
SCALE
  5
4D
102
{ACAD_REACTORS
330
47
102
}
330
47
100
AcDbScale
 70
     0
300
1:10
140
1.0
141
10.0
290
     0
  0
SCALE
  5
4E
102
{ACAD_REACTORS
330
47
102
}
330
47
100
AcDbScale
 70
     0
300
1:16
140
1.0
141
16.0
290
     0
  0
SCALE
  5
4F
102
{ACAD_REACTORS
330
47
102
}
330
47
100
AcDbScale
 70
     0
300
1:20
140
1.0
141
20.0
290
     0
  0
SCALE
  5
50
102
{ACAD_REACTORS
330
47
102
}
330
47
100
AcDbScale
 70
     0
300
1:30
140
1.0
141
30.0
290
     0
  0
SCALE
  5
51
102
{ACAD_REACTORS
330
47
102
}
330
47
100
AcDbScale
 70
     0
300
1:40
140
1.0
141
40.0
290
     0
  0
SCALE
  5
52
102
{ACAD_REACTORS
330
47
102
}
330
47
100
AcDbScale
 70
     0
300
1:50
140
1.0
141
50.0
290
     0
  0
SCALE
  5
53
102
{ACAD_REACTORS
330
47
102
}
330
47
100
AcDbScale
 70
     0
300
1:100
140
1.0
141
100.0
290
     0
  0
SCALE
  5
54
102
{ACAD_REACTORS
330
47
102
}
330
47
100
AcDbScale
 70
     0
300
2:1
140
2.0
141
1.0
290
     0
  0
SCALE
  5
55
102
{ACAD_REACTORS
330
47
102
}
330
47
100
AcDbScale
 70
     0
300
4:1
140
4.0
141
1.0
290
     0
  0
SCALE
  5
56
102
{ACAD_REACTORS
330
47
102
}
330
47
100
AcDbScale
 70
     0
300
8:1
140
8.0
141
1.0
290
     0
  0
SCALE
  5
57
102
{ACAD_REACTORS
330
47
102
}
330
47
100
AcDbScale
 70
     0
300
10:1
140
10.0
141
1.0
290
     0
  0
SCALE
  5
58
102
{ACAD_REACTORS
330
47
102
}
330
47
100
AcDbScale
 70
     0
300
100:1
140
100.0
141
1.0
290
     0
  0
SCALE
  5
59
102
{ACAD_REACTORS
330
47
102
}
330
47
100
AcDbScale
 70
     0
300
1/128" = 1'-0"
140
0.0078125
141
12.0
290
     0
  0
SCALE
  5
5A
102
{ACAD_REACTORS
330
47
102
}
330
47
100
AcDbScale
 70
     0
300
1/64" = 1'-0"
140
0.015625
141
12.0
290
     0
  0
SCALE
  5
5B
102
{ACAD_REACTORS
330
47
102
}
330
47
100
AcDbScale
 70
     0
300
1/32" = 1'-0"
140
0.03125
141
12.0
290
     0
  0
SCALE
  5
5C
102
{ACAD_REACTORS
330
47
102
}
330
47
100
AcDbScale
 70
     0
300
1/16" = 1'-0"
140
0.0625
141
12.0
290
     0
  0
SCALE
  5
5D
102
{ACAD_REACTORS
330
47
102
}
330
47
100
AcDbScale
 70
     0
300
3/32" = 1'-0"
140
0.09375
141
12.0
290
     0
  0
SCALE
  5
5E
102
{ACAD_REACTORS
330
47
102
}
330
47
100
AcDbScale
 70
     0
300
1/8" = 1'-0"
140
0.125
141
12.0
290
     0
  0
SCALE
  5
5F
102
{ACAD_REACTORS
330
47
102
}
330
47
100
AcDbScale
 70
     0
300
3/16" = 1'-0"
140
0.1875
141
12.0
290
     0
  0
SCALE
  5
60
102
{ACAD_REACTORS
330
47
102
}
330
47
100
AcDbScale
 70
     0
300
1/4" = 1'-0"
140
0.25
141
12.0
290
     0
  0
SCALE
  5
61
102
{ACAD_REACTORS
330
47
102
}
330
47
100
AcDbScale
 70
     0
300
3/8" = 1'-0"
140
0.375
141
12.0
290
     0
  0
SCALE
  5
62
102
{ACAD_REACTORS
330
47
102
}
330
47
100
AcDbScale
 70
     0
300
1/2" = 1'-0"
140
0.5
141
12.0
290
     0
  0
SCALE
  5
63
102
{ACAD_REACTORS
330
47
102
}
330
47
100
AcDbScale
 70
     0
300
3/4" = 1'-0"
140
0.75
141
12.0
290
     0
  0
SCALE
  5
64
102
{ACAD_REACTORS
330
47
102
}
330
47
100
AcDbScale
 70
     0
300
1" = 1'-0"
140
1.0
141
12.0
290
     0
  0
SCALE
  5
65
102
{ACAD_REACTORS
330
47
102
}
330
47
100
AcDbScale
 70
     0
300
1-1/2" = 1'-0"
140
1.5
141
12.0
290
     0
  0
SCALE
  5
66
102
{ACAD_REACTORS
330
47
102
}
330
47
100
AcDbScale
 70
     0
300
3" = 1'-0"
140
3.0
141
12.0
290
     0
  0
SCALE
  5
67
102
{ACAD_REACTORS
330
47
102
}
330
47
100
AcDbScale
 70
     0
300
6" = 1'-0"
140
6.0
141
12.0
290
     0
  0
SCALE
  5
68
102
{ACAD_REACTORS
330
47
102
}
330
47
100
AcDbScale
 70
     0
300
1'-0" = 1'-0"
140
12.0
141
12.0
290
     0
  0
ENDSEC
  0
EOF
