  0
SECTION
  2
HEADER
  9
$ACADVER
  1
AC1015
  9
$ACADMAINTVER
 70
     6
  9
$DWGCODEPAGE
  3
ANSI_1252
  9
$INSBASE
 10
0.0
 20
0.0
 30
0.0
  9
$EXTMIN
 10
5.5
 20
-75.5
 30
0.0
  9
$EXTMAX
 10
159.7
 20
91.1409926759
 30
0.0
  9
$LIMMIN
 10
0.0
 20
0.0
  9
$LIMMAX
 10
420.0
 20
297.0
  9
$ORTHOMODE
 70
     0
  9
$REGENMODE
 70
     1
  9
$FILLMODE
 70
     1
  9
$QTEXTMODE
 70
     0
  9
$MIRRTEXT
 70
     1
  9
$LTSCALE
 40
1.0
  9
$ATTMODE
 70
     1
  9
$TEXTSIZE
 40
6.35
  9
$TRACEWID
 40
1.0
  9
$TEXTSTYLE
  7
Standard
  9
$CLAYER
  8
0
  9
$CELTYPE
  6
ByLayer
  9
$CECOLOR
 62
   256
  9
$CELTSCALE
 40
1.0
  9
$DISPSILH
 70
     0
  9
$DIMSCALE
 40
1.0
  9
$DIMASZ
 40
5.9944
  9
$DIMEXO
 40
0.9906
  9
$DIMDLI
 40
3.75
  9
$DIMRND
 40
0.0
  9
$DIMDLE
 40
0.0
  9
$DIMEXE
 40
0.9906
  9
$DIMTP
 40
0.0
  9
$DIMTM
 40
0.0
  9
$DIMTXT
 40
6.35
  9
$DIMCEN
 40
2.5
  9
$DIMTSZ
 40
0.0
  9
$DIMTOL
 70
     0
  9
$DIMLIM
 70
     0
  9
$DIMTIH
 70
     1
  9
$DIMTOH
 70
     1
  9
$DIMSE1
 70
     0
  9
$DIMSE2
 70
     0
  9
$DIMTAD
 70
     1
  9
$DIMZIN
 70
     0
  9
$DIMBLK
  1

  9
$DIMASO
 70
     1
  9
$DIMSHO
 70
     1
  9
$DIMPOST
  1

  9
$DIMAPOST
  1

  9
$DIMALT
 70
     0
  9
$DIMALTD
 70
     3
  9
$DIMALTF
 40
0.0393700787
  9
$DIMLFAC
 40
1.0
  9
$DIMTOFL
 70
     1
  9
$DIMTVP
 40
0.0
  9
$DIMTIX
 70
     0
  9
$DIMSOXD
 70
     0
  9
$DIMSAH
 70
     0
  9
$DIMBLK1
  1

  9
$DIMBLK2
  1

  9
$DIMSTYLE
  2
ISO-25
  9
$DIMCLRD
 70
     0
  9
$DIMCLRE
 70
     0
  9
$DIMCLRT
 70
     0
  9
$DIMTFAC
 40
1.0
  9
$DIMGAP
 40
1.524
  9
$DIMJUST
 70
     0
  9
$DIMSD1
 70
     0
  9
$DIMSD2
 70
     0
  9
$DIMTOLJ
 70
     0
  9
$DIMTZIN
 70
     0
  9
$DIMALTZ
 70
     0
  9
$DIMALTTZ
 70
     0
  9
$DIMUPT
 70
     0
  9
$DIMDEC
 70
     2
  9
$DIMTDEC
 70
     2
  9
$DIMALTU
 70
     2
  9
$DIMALTTD
 70
     3
  9
$DIMTXSTY
  7
Standard
  9
$DIMAUNIT
 70
     0
  9
$DIMADEC
 70
     2
  9
$DIMALTRND
 40
0.0
  9
$DIMAZIN
 70
     0
  9
$DIMDSEP
 70
    44
  9
$DIMATFIT
 70
     3
  9
$DIMFRAC
 70
     0
  9
$DIMLDRBLK
  1

  9
$DIMLUNIT
 70
     2
  9
$DIMLWD
 70
    -2
  9
$DIMLWE
 70
    -2
  9
$DIMTMOVE
 70
     0
  9
$LUNITS
 70
     2
  9
$LUPREC
 70
     2
  9
$SKETCHINC
 40
1.0
  9
$FILLETRAD
 40
10.0
  9
$AUNITS
 70
     0
  9
$AUPREC
 70
     2
  9
$MENU
  1
.
  9
$ELEVATION
 40
0.0
  9
$PELEVATION
 40
0.0
  9
$THICKNESS
 40
0.0
  9
$LIMCHECK
 70
     0
  9
$CHAMFERA
 40
0.0
  9
$CHAMFERB
 40
0.0
  9
$CHAMFERC
 40
0.0
  9
$CHAMFERD
 40
0.0
  9
$SKPOLY
 70
     0
  9
$TDCREATE
 40
2458381.633722025
  9
$TDUCREATE
 40
2458381.592055359
  9
$TDUPDATE
 40
2458381.633753796
  9
$TDUUPDATE
 40
2458381.59208713
  9
$TDINDWG
 40
0.0000000116
  9
$TDUSRTIMER
 40
0.0000000116
  9
$USRTIMER
 70
     1
  9
$ANGBASE
 50
0.0
  9
$ANGDIR
 70
     0
  9
$PDMODE
 70
     0
  9
$PDSIZE
 40
-1.0
  9
$PLINEWID
 40
0.0
  9
$SPLFRAME
 70
     0
  9
$SPLINETYPE
 70
     6
  9
$SPLINESEGS
 70
     8
  9
$HANDSEED
  5
EF
  9
$SURFTAB1
 70
     6
  9
$SURFTAB2
 70
     6
  9
$SURFTYPE
 70
     6
  9
$SURFU
 70
     6
  9
$SURFV
 70
     6
  9
$UCSBASE
  2

  9
$UCSNAME
  2

  9
$UCSORG
 10
0.0
 20
0.0
 30
0.0
  9
$UCSXDIR
 10
1.0
 20
0.0
 30
0.0
  9
$UCSYDIR
 10
0.0
 20
1.0
 30
0.0
  9
$UCSORTHOREF
  2

  9
$UCSORTHOVIEW
 70
     0
  9
$UCSORGTOP
 10
0.0
 20
0.0
 30
0.0
  9
$UCSORGBOTTOM
 10
0.0
 20
0.0
 30
0.0
  9
$UCSORGLEFT
 10
0.0
 20
0.0
 30
0.0
  9
$UCSORGRIGHT
 10
0.0
 20
0.0
 30
0.0
  9
$UCSORGFRONT
 10
0.0
 20
0.0
 30
0.0
  9
$UCSORGBACK
 10
0.0
 20
0.0
 30
0.0
  9
$PUCSBASE
  2

  9
$PUCSNAME
  2

  9
$PUCSORG
 10
0.0
 20
0.0
 30
0.0
  9
$PUCSXDIR
 10
1.0
 20
0.0
 30
0.0
  9
$PUCSYDIR
 10
0.0
 20
1.0
 30
0.0
  9
$PUCSORTHOREF
  2

  9
$PUCSORTHOVIEW
 70
     0
  9
$PUCSORGTOP
 10
0.0
 20
0.0
 30
0.0
  9
$PUCSORGBOTTOM
 10
0.0
 20
0.0
 30
0.0
  9
$PUCSORGLEFT
 10
0.0
 20
0.0
 30
0.0
  9
$PUCSORGRIGHT
 10
0.0
 20
0.0
 30
0.0
  9
$PUCSORGFRONT
 10
0.0
 20
0.0
 30
0.0
  9
$PUCSORGBACK
 10
0.0
 20
0.0
 30
0.0
  9
$USERI1
 70
     0
  9
$USERI2
 70
     0
  9
$USERI3
 70
     0
  9
$USERI4
 70
     0
  9
$USERI5
 70
     0
  9
$USERR1
 40
0.0
  9
$USERR2
 40
0.0
  9
$USERR3
 40
0.0
  9
$USERR4
 40
0.0
  9
$USERR5
 40
0.0
  9
$WORLDVIEW
 70
     1
  9
$SHADEDGE
 70
     3
  9
$SHADEDIF
 70
    70
  9
$TILEMODE
 70
     1
  9
$MAXACTVP
 70
    64
  9
$PINSBASE
 10
0.0
 20
0.0
 30
0.0
  9
$PLIMCHECK
 70
     0
  9
$PEXTMIN
 10
-75.5
 20
-75.5
 30
0.0
  9
$PEXTMAX
 10
75.5
 20
91.1409926759
 30
0.0
  9
$PLIMMIN
 10
-92.5913838642
 20
-81.9092689491
  9
$PLIMMAX
 10
161.2156665191
 20
97.550261625
  9
$UNITMODE
 70
     0
  9
$VISRETAIN
 70
     1
  9
$PLINEGEN
 70
     0
  9
$PSLTSCALE
 70
     1
  9
$TREEDEPTH
 70
  3020
  9
$CMLSTYLE
  2
Standard
  9
$CMLJUST
 70
     0
  9
$CMLSCALE
 40
20.0
  9
$PROXYGRAPHICS
 70
     1
  9
$MEASUREMENT
 70
     1
  9
$CELWEIGHT
370
    -1
  9
$ENDCAPS
280
     0
  9
$JOINSTYLE
280
     0
  9
$LWDISPLAY
290
     1
  9
$INSUNITS
 70
     4
  9
$HYPERLINKBASE
  1

  9
$STYLESHEET
  1

  9
$XEDIT
290
     1
  9
$CEPSNTYPE
380
     0
  9
$PSTYLEMODE
290
     1
  9
$FINGERPRINTGUID
  2
{2244423E-9D8C-4CA8-8530-9000D9F6C8B6}
  9
$VERSIONGUID
  2
{FAEB1C32-E019-11D5-929B-00C0DF256EC4}
  9
$EXTNAMES
290
     1
  9
$PSVPSCALE
 40
0.0
  9
$OLESTARTUP
290
     0
  0
ENDSEC
  0
SECTION
  2
CLASSES
  0
CLASS
  1
ACDBDICTIONARYWDFLT
  2
AcDbDictionaryWithDefault
  3
ObjectDBX Classes
 90
        0
280
     0
281
     0
  0
CLASS
  1
VISUALSTYLE
  2
AcDbVisualStyle
  3
ObjectDBX Classes
 90
     4095
280
     0
281
     0
  0
CLASS
  1
MATERIAL
  2
AcDbMaterial
  3
ObjectDBX Classes
 90
     1153
280
     0
281
     0
  0
CLASS
  1
SCALE
  2
AcDbScale
  3
ObjectDBX Classes
 90
     1153
280
     0
281
     0
  0
CLASS
  1
TABLESTYLE
  2
AcDbTableStyle
  3
ObjectDBX Classes
 90
     4095
280
     0
281
     0
  0
CLASS
  1
MLEADERSTYLE
  2
AcDbMLeaderStyle
  3
ACDB_MLEADERSTYLE_CLASS
 90
     4095
280
     0
281
     0
  0
CLASS
  1
SUN
  2
AcDbSun
  3
SCENEOE
 90
     1153
280
     0
281
     0
  0
CLASS
  1
ACDBPLACEHOLDER
  2
AcDbPlaceHolder
  3
ObjectDBX Classes
 90
        0
280
     0
281
     0
  0
CLASS
  1
LAYOUT
  2
AcDbLayout
  3
ObjectDBX Classes
 90
        0
280
     0
281
     0
  0
ENDSEC
  0
SECTION
  2
TABLES
  0
TABLE
  2
VPORT
  5
8
330
0
100
AcDbSymbolTable
 70
     1
  0
VPORT
  5
29
330
8
100
AcDbSymbolTableRecord
100
AcDbViewportTableRecord
  2
*Active
 70
     0
 10
0.0
 20
0.0
 11
1.0
 21
1.0
 12
82.6
 22
7.820496338
 13
0.0
 23
0.0
 14
10.0
 24
10.0
 15
10.0
 25
10.0
 16
0.0
 26
0.0
 36
1.0
 17
0.0
 27
0.0
 37
0.0
 40
169.9738125294
 41
0.9253425434
 42
50.0
 43
0.0
 44
0.0
 50
0.0
 51
0.0
 71
     0
 72
   100
 73
     1
 74
     3
 75
     0
 76
     0
 77
     0
 78
     0
281
     0
 65
     1
110
0.0
120
0.0
130
0.0
111
1.0
121
0.0
131
0.0
112
0.0
122
1.0
132
0.0
 79
     0
146
0.0
  0
ENDTAB
  0
TABLE
  2
LTYPE
  5
5
330
0
100
AcDbSymbolTable
 70
     6
  0
LTYPE
  5
14
330
5
100
AcDbSymbolTableRecord
100
AcDbLinetypeTableRecord
  2
ByBlock
 70
     0
  3

 72
    65
 73
     0
 40
0.0
  0
LTYPE
  5
15
330
5
100
AcDbSymbolTableRecord
100
AcDbLinetypeTableRecord
  2
ByLayer
 70
     0
  3

 72
    65
 73
     0
 40
0.0
  0
LTYPE
  5
16
330
5
100
AcDbSymbolTableRecord
100
AcDbLinetypeTableRecord
  2
Continuous
 70
     0
  3
Solid line
 72
    65
 73
     0
 40
0.0
  0
LTYPE
  5
6E
330
5
100
AcDbSymbolTableRecord
100
AcDbLinetypeTableRecord
  2
HIDDEN
 70
     0
  3
Hidden __ __ __ __ __ __ __ __ __ __ __ __ __ __
 72
    65
 73
     2
 40
1.905
 49
1.27
 74
     0
 49
-0.635
 74
     0
  0
LTYPE
  5
6F
330
5
100
AcDbSymbolTableRecord
100
AcDbLinetypeTableRecord
  2
PHANTOM
 70
     0
  3
Phantom ______  __  __  ______  __  __  ______
 72
    65
 73
     6
 40
12.7
 49
6.35
 74
     0
 49
-1.27
 74
     0
 49
1.27
 74
     0
 49
-1.27
 74
     0
 49
1.27
 74
     0
 49
-1.27
 74
     0
  0
LTYPE
  5
70
330
5
100
AcDbSymbolTableRecord
100
AcDbLinetypeTableRecord
  2
CENTER
 70
     0
  3
Center ____ _ ____ _ ____ _ ____ _ ____ _ ____
 72
    65
 73
     4
 40
10.16
 49
6.35
 74
     0
 49
-1.27
 74
     0
 49
1.27
 74
     0
 49
-1.27
 74
     0
  0
LTYPE
  5
71
330
5
100
AcDbSymbolTableRecord
100
AcDbLinetypeTableRecord
  2
CENTERX2
 70
     0
  3
Center (2x) ________  __  ________  __  _____
 72
    65
 73
     4
 40
20.32
 49
12.7
 74
     0
 49
-2.54
 74
     0
 49
2.54
 74
     0
 49
-2.54
 74
     0
  0
LTYPE
  5
72
330
5
100
AcDbSymbolTableRecord
100
AcDbLinetypeTableRecord
  2
DOT2
 70
     0
  3
Dot (.5x) ........................................
 72
    65
 73
     2
 40
0.635
 49
0.0
 74
     0
 49
-0.635
 74
     0
  0
ENDTAB
  0
TABLE
  2
LAYER
  5
2
330
0
100
AcDbSymbolTable
 70
     1
  0
LAYER
  5
10
330
2
100
AcDbSymbolTableRecord
100
AcDbLayerTableRecord
  2
0
 70
     0
 62
     7
  6
Continuous
370
    -3
390
F
  0
ENDTAB
  0
TABLE
  2
STYLE
  5
3
330
0
100
AcDbSymbolTable
 70
     1
  0
STYLE
  5
11
330
3
100
AcDbSymbolTableRecord
100
AcDbTextStyleTableRecord
  2
Standard
 70
     0
 40
0.0
 41
1.0
 50
0.0
 71
     0
 42
6.35
  3
txt
  4

  0
ENDTAB
  0
TABLE
  2
VIEW
  5
6
330
0
100
AcDbSymbolTable
 70
     0
  0
ENDTAB
  0
TABLE
  2
UCS
  5
7
330
0
100
AcDbSymbolTable
 70
     0
  0
ENDTAB
  0
TABLE
  2
APPID
  5
9
330
0
100
AcDbSymbolTable
 70
     1
  0
APPID
  5
12
330
9
100
AcDbSymbolTableRecord
100
AcDbRegAppTableRecord
  2
ACAD
 70
     0
  0
ENDTAB
  0
TABLE
  2
DIMSTYLE
  5
A
330
0
100
AcDbSymbolTable
 70
     1
100
AcDbDimStyleTable
  0
DIMSTYLE
105
27
330
A
100
AcDbSymbolTableRecord
100
AcDbDimStyleTableRecord
  2
ISO-25
 70
     0
 41
2.5
 42
0.625
 43
3.75
 44
1.25
 73
     0
 74
     0
 77
     1
 78
     8
140
2.5
141
2.5
143
0.0393700787
147
0.625
171
     3
172
     1
178
     0
271
     2
272
     2
274
     3
278
    44
283
     0
284
     8
340
11
  0
ENDTAB
  0
TABLE
  2
BLOCK_RECORD
  5
1
330
0
100
AcDbSymbolTable
 70
     1
  0
BLOCK_RECORD
  5
1F
330
1
100
AcDbSymbolTableRecord
100
AcDbBlockTableRecord
  2
*Model_Space
340
22
  0
BLOCK_RECORD
  5
1B
330
1
100
AcDbSymbolTableRecord
100
AcDbBlockTableRecord
  2
*Paper_Space
340
1E
  0
BLOCK_RECORD
  5
23
330
1
100
AcDbSymbolTableRecord
100
AcDbBlockTableRecord
  2
*Paper_Space0
340
26
  0
ENDTAB
  0
ENDSEC
  0
SECTION
  2
BLOCKS
  0
BLOCK
  5
20
330
1F
100
AcDbEntity
  8
0
100
AcDbBlockBegin
  2
*Model_Space
 70
     0
 10
0.0
 20
0.0
 30
0.0
  3
*Model_Space
  1

  0
ENDBLK
  5
21
330
1F
100
AcDbEntity
  8
0
100
AcDbBlockEnd
  0
BLOCK
  5
1C
330
1B
100
AcDbEntity
 67
     1
  8
0
100
AcDbBlockBegin
  2
*Paper_Space
 70
     0
 10
0.0
 20
0.0
 30
0.0
  3
*Paper_Space
  1

  0
ENDBLK
  5
1D
330
1B
100
AcDbEntity
 67
     1
  8
0
100
AcDbBlockEnd
  0
BLOCK
  5
24
330
23
100
AcDbEntity
  8
0
100
AcDbBlockBegin
  2
*Paper_Space0
 70
     0
 10
0.0
 20
0.0
 30
0.0
  3
*Paper_Space0
  1

  0
CIRCLE
  5
C8
330
23
100
AcDbEntity
  8
0
  6
Continuous
 62
     7
370
    25
100
AcDbCircle
 10
21.2
 20
0.0
 30
0.0
 40
6.099999999999945
  0
CIRCLE
  5
C9
330
23
100
AcDbEntity
  8
0
  6
Continuous
 62
     7
370
    25
100
AcDbCircle
 10
21.2
 20
0.0
 30
0.0
 40
10.24999999999982
  0
CIRCLE
  5
CA
330
23
100
AcDbEntity
  8
0
  6
Continuous
 62
     7
370
    25
100
AcDbCircle
 10
144.2
 20
0.0
 30
0.0
 40
6.099999999999909
  0
CIRCLE
  5
CB
330
23
100
AcDbEntity
  8
0
  6
Continuous
 62
     7
370
    25
100
AcDbCircle
 10
144.2
 20
0.0
 30
0.0
 40
10.24999999999972
  0
CIRCLE
  5
CC
330
23
100
AcDbEntity
  8
0
  6
Continuous
 62
     7
370
    25
100
AcDbCircle
 10
144.2
 20
0.0
 30
0.0
 40
1.906987298107737
  0
CIRCLE
  5
CD
330
23
100
AcDbEntity
  8
0
  6
Continuous
 62
     7
370
    25
100
AcDbCircle
 10
144.2
 20
0.0
 30
0.0
 40
2.340000000000032
  0
CIRCLE
  5
CE
330
23
100
AcDbEntity
  8
0
  6
Continuous
 62
     7
370
    25
100
AcDbCircle
 10
21.2
 20
0.0
 30
0.0
 40
2.340000000000025
  0
CIRCLE
  5
CF
330
23
100
AcDbEntity
  8
0
  6
Continuous
 62
     7
370
    25
100
AcDbCircle
 10
21.2
 20
0.0
 30
0.0
 40
1.906987298107676
  0
SPLINE
  5
D0
330
23
100
AcDbEntity
  8
0
  6
Continuous
 62
     7
370
    25
100
AcDbSpline
210
0.0
220
0.0
230
1.0
 70
    11
 71
     3
 72
   100
 73
    96
 74
     0
 42
0.000000001
 43
0.00000001
 40
0.0
 40
0.0
 40
0.0
 40
0.0
 40
0.0312500000000013
 40
0.0312500000000013
 40
0.0625000000000026
 40
0.0625000000000026
 40
0.0781250000000038
 40
0.0781250000000038
 40
0.093750000000005
 40
0.093750000000005
 40
0.1250000000000075
 40
0.1250000000000075
 40
0.15625000000001
 40
0.15625000000001
 40
0.1718750000000106
 40
0.1718750000000106
 40
0.1875000000000113
 40
0.1875000000000113
 40
0.2187500000000126
 40
0.2187500000000126
 40
0.2500000000000139
 40
0.2500000000000139
 40
0.2812500000000153
 40
0.2812500000000153
 40
0.2968750000000157
 40
0.2968750000000157
 40
0.312500000000016
 40
0.312500000000016
 40
0.3281250000000164
 40
0.3281250000000164
 40
0.3437500000000167
 40
0.3437500000000167
 40
0.3750000000000174
 40
0.3750000000000174
 40
0.3906250000000178
 40
0.3906250000000178
 40
0.4062500000000182
 40
0.4062500000000182
 40
0.4375000000000189
 40
0.4375000000000189
 40
0.4531250000000195
 40
0.4531250000000195
 40
0.46875000000002
 40
0.46875000000002
 40
0.4843750000000207
 40
0.4843750000000207
 40
0.5000000000000212
 40
0.5000000000000212
 40
0.5312500000000215
 40
0.5312500000000215
 40
0.5468750000000218
 40
0.5468750000000218
 40
0.562500000000022
 40
0.562500000000022
 40
0.5781250000000222
 40
0.5781250000000222
 40
0.5937500000000223
 40
0.5937500000000223
 40
0.6250000000000228
 40
0.6250000000000228
 40
0.6562500000000231
 40
0.6562500000000231
 40
0.6875000000000235
 40
0.6875000000000235
 40
0.7031250000000232
 40
0.7031250000000232
 40
0.7187500000000228
 40
0.7187500000000228
 40
0.7500000000000211
 40
0.7500000000000211
 40
0.7656250000000198
 40
0.7656250000000198
 40
0.7812500000000183
 40
0.7812500000000183
 40
0.796875000000017
 40
0.796875000000017
 40
0.8125000000000157
 40
0.8125000000000157
 40
0.843750000000013
 40
0.843750000000013
 40
0.8593750000000117
 40
0.8593750000000117
 40
0.8750000000000103
 40
0.8750000000000103
 40
0.9062500000000075
 40
0.9062500000000075
 40
0.9218750000000062
 40
0.9218750000000062
 40
0.9375000000000049
 40
0.9375000000000049
 40
0.9531250000000036
 40
0.9531250000000036
 40
0.9687500000000021
 40
0.9687500000000021
 40
1.0
 40
1.0
 40
1.0
 40
1.0
 10
136.3691191296506
 20
8.136612837659808
 30
0.0
 10
136.9068334374706
 20
8.629016563314819
 30
0.0
 10
137.4915904627394
 20
9.066978371151214
 30
0.0
 10
138.718404235016
 20
9.815341278640544
 30
0.0
 10
139.3634524425364
 20
10.12910611257785
 30
0.0
 10
140.3798372107999
 20
10.50826309965491
 30
0.0
 10
140.7276139511922
 20
10.61930294361734
 30
0.0
 10
141.425564050571
 20
10.80591701771736
 30
0.0
 10
141.7774181714805
 20
10.88221018942922
 30
0.0
 10
142.8415943912289
 20
11.06081302567316
 30
0.0
 10
143.5624571535562
 20
11.11334793197633
 30
0.0
 10
145.0285700062591
 20
11.07771699226137
 30
0.0
 10
145.7499511963042
 20
10.99009148567585
 30
0.0
 10
146.8145997466063
 20
10.75665535235565
 30
0.0
 10
147.1665688933903
 20
10.66172428722075
 30
0.0
 10
147.8644523273487
 20
10.43662424387976
 30
0.0
 10
148.2120230309399
 20
10.30560712457567
 30
0.0
 10
149.2244839604688
 20
9.866285943862026
 30
0.0
 10
149.8642448328753
 20
9.511336700804497
 30
0.0
 10
151.0728986096932
 20
8.677520689197713
 30
0.0
 10
151.6454976031018
 20
8.193158063715757
 30
0.0
 10
152.668809953228
 20
7.136433891969205
 30
0.0
 10
153.125669216428
 20
6.561261507369465
 30
0.0
 10
153.7261634396875
 20
5.626342172214239
 30
0.0
 10
153.9120992831954
 20
5.302023554955769
 30
0.0
 10
154.2468015381327
 20
4.643596211855229
 30
0.0
 10
154.39678820557
 20
4.307745807985595
 30
0.0
 10
154.662492128974
 20
3.62295623112127
 30
0.0
 10
154.7782096315028
 20
3.27401713930235
 30
0.0
 10
154.9748168651423
 20
2.562844282422826
 30
0.0
 10
155.0560150983249
 20
2.198566389931147
 30
0.0
 10
155.2424252404692
 20
1.100944869759028
 30
0.0
 10
155.2912487068274
 20
0.3674186607224822
 30
0.0
 10
155.2541498865262
 20
-0.7354710387516389
 30
0.0
 10
155.2232586945287
 20
-1.103537553514439
 30
0.0
 10
155.1232144645329
 20
-1.840572474272133
 30
0.0
 10
155.0544153365996
 20
-2.205891794554683
 30
0.0
 10
154.7955765732822
 20
-3.280532992613617
 30
0.0
 10
154.552933799793
 20
-3.973864831381599
 30
0.0
 10
154.083260531942
 20
-4.978989588063709
 30
0.0
 10
153.9081095875144
 20
-5.309337297089096
 30
0.0
 10
153.528125170827
 20
-5.946154595698033
 30
0.0
 10
153.3228470518626
 20
-6.253902755996748
 30
0.0
 10
152.882047327356
 20
-6.848276997524237
 30
0.0
 10
152.6457331785666
 20
-7.135760827469167
 30
0.0
 10
152.145861731901
 20
-7.685305766050298
 30
0.0
 10
151.8842619353117
 20
-7.945405007558184
 30
0.0
 10
151.0658249127069
 20
-8.683252702358834
 30
0.0
 10
150.4756602615986
 20
-9.118941927880012
 30
0.0
 10
149.5230729434917
 20
-9.68697961325191
 30
0.0
 10
149.1950469708958
 20
-9.861226800375748
 30
0.0
 10
148.5308335193891
 20
-10.17372363375747
 30
0.0
 10
148.1929702803069
 20
-10.31301275381746
 30
0.0
 10
147.5060389760184
 20
-10.55837267059073
 30
0.0
 10
147.1569704943376
 20
-10.66444256084667
 30
0.0
 10
146.4476036276558
 20
-10.84312940506168
 30
0.0
 10
146.085335097937
 20
-10.91598032225893
 30
0.0
 10
144.9990990993757
 20
-11.08024682798419
 30
0.0
 10
144.2754902395343
 20
-11.11894822490961
 30
0.0
 10
142.8293903001655
 20
-11.05979416769691
 30
0.0
 10
142.100710932626
 20
-10.95958354967501
 30
0.0
 10
140.6971248889386
 20
-10.6279415306461
 30
0.0
 10
140.0171990677404
 20
-10.39748709019685
 30
0.0
 10
139.0297557186199
 20
-9.953957710742966
 30
0.0
 10
138.7045912500623
 20
-9.788742173916624
 30
0.0
 10
138.0769833506684
 20
-9.430802982603327
 30
0.0
 10
137.7735699704402
 20
-9.237832053989578
 30
0.0
 10
136.8938032491409
 20
-8.617496166869682
 30
0.0
 10
136.3476114780853
 20
-8.149145401613922
 30
0.0
 10
135.5914722855355
 20
-7.359195844060502
 30
0.0
 10
135.3523842071707
 20
-7.083455731792861
 30
0.0
 10
134.9050374325356
 20
-6.513607454241686
 30
0.0
 10
134.6958821763833
 20
-6.218573894113463
 30
0.0
 10
134.3065873255601
 20
-5.608165867505106
 30
0.0
 10
134.1264455841094
 20
-5.292793127651635
 30
0.0
 10
133.7960420724348
 20
-4.640974489650582
 30
0.0
 10
133.6450079272849
 20
-4.302356123449384
 30
0.0
 10
133.2464425384693
 20
-3.271755853277162
 30
0.0
 10
133.0521134161541
 20
-2.566333455644646
 30
0.0
 10
132.8669895443647
 20
-1.480675606777756
 30
0.0
 10
132.8231376411683
 20
-1.114170570617962
 30
0.0
 10
132.7726790202529
 20
-0.3715121161201705
 30
0.0
 10
132.7665110958255
 20
-0.0000929869151118
 30
0.0
 10
132.8036318354923
 20
1.104410090111043
 30
0.0
 10
132.9016972926206
 20
1.832152354049686
 30
0.0
 10
133.1597478142136
 20
2.910802782598088
 30
0.0
 10
133.2647145467494
 20
3.268231639153962
 30
0.0
 10
133.5068264848498
 20
3.962050134251798
 30
0.0
 10
133.6444216628999
 20
4.300635750915254
 30
0.0
 10
133.9518498746669
 20
4.961656217051315
 30
0.0
 10
134.1216845538067
 20
5.284090106697205
 30
0.0
 10
134.4937389046011
 20
5.912821325269912
 30
0.0
 10
134.6969823183803
 20
6.2203579478133
 30
0.0
 10
135.3457613090771
 20
7.103712005669398
 30
0.0
 10
135.8314048218307
 20
7.644209112004849
 30
0.0
 10
136.3691191296506
 20
8.136612837659808
 30
0.0
  0
CIRCLE
  5
D1
330
23
100
AcDbEntity
  8
0
  6
Continuous
 62
     7
370
    25
100
AcDbCircle
 10
21.2
 20
0.0
 30
0.0
 40
3.75000000000006
  0
CIRCLE
  5
D2
330
23
100
AcDbEntity
  8
0
  6
Continuous
 62
     7
370
    25
100
AcDbCircle
 10
21.2
 20
0.0
 30
0.0
 40
4.625555630283412
  0
CIRCLE
  5
D3
330
23
100
AcDbEntity
  8
0
  6
Continuous
 62
     7
370
    25
100
AcDbCircle
 10
144.2
 20
0.0
 30
0.0
 40
3.750000000000085
  0
CIRCLE
  5
D4
330
23
100
AcDbEntity
  8
0
  6
Continuous
 62
     7
370
    25
100
AcDbCircle
 10
144.2
 20
0.0
 30
0.0
 40
4.625555630283372
  0
LINE
  5
DB
330
23
100
AcDbEntity
  8
0
  6
Continuous
 62
     7
370
    25
100
AcDbLine
 10
126.2
 20
-75.5
 30
0.0
 11
158.8778318188
 21
-69.6129904933
 31
0.0
  0
LINE
  5
DC
330
23
100
AcDbEntity
  8
0
  6
Continuous
 62
     7
370
    25
100
AcDbLine
 10
158.8778318188
 20
69.6129904933
 30
0.0
 11
126.2
 21
75.5
 31
0.0
  0
LINE
  5
DD
330
23
100
AcDbEntity
  8
0
  6
Continuous
 62
     7
370
    25
100
AcDbLine
 10
39.0
 20
75.5
 30
0.0
 11
6.5346422611
 21
69.6129904933
 31
0.0
  0
LINE
  5
DE
330
23
100
AcDbEntity
  8
0
  6
Continuous
 62
     7
370
    25
100
AcDbLine
 10
6.5346422611
 20
-69.6129904933
 30
0.0
 11
39.0
 21
-75.5
 31
0.0
  0
LINE
  5
DF
330
23
100
AcDbEntity
  8
0
  6
Continuous
 62
     7
370
    25
100
AcDbLine
 10
39.0
 20
-75.5
 30
0.0
 11
126.2
 21
-75.5
 31
0.0
  0
LINE
  5
E0
330
23
100
AcDbEntity
  8
0
  6
Continuous
 62
     7
370
    25
100
AcDbLine
 10
126.2
 20
75.5
 30
0.0
 11
39.0
 21
75.5
 31
0.0
  0
LINE
  5
E1
330
23
100
AcDbEntity
  8
0
  6
Continuous
 62
     7
370
    25
100
AcDbLine
 10
126.2
 20
-75.5
 30
0.0
 11
126.2
 21
75.5
 31
0.0
  0
LINE
  5
E2
330
23
100
AcDbEntity
  8
0
  6
Continuous
 62
     7
370
    25
100
AcDbLine
 10
39.0
 20
-75.5
 30
0.0
 11
39.0
 21
75.5
 31
0.0
  0
LINE
  5
E3
330
23
100
AcDbEntity
  8
0
  6
Continuous
 62
     7
370
    25
100
AcDbLine
 10
6.5346422611
 20
-69.6129904933
 30
0.0
 11
6.5346422611
 21
69.6129904933
 31
0.0
  0
LINE
  5
E4
330
23
100
AcDbEntity
  8
0
  6
Continuous
 62
     7
370
    25
100
AcDbLine
 10
5.5
 20
-68.6135907166
 30
0.0
 11
5.5
 21
68.613590714
 31
0.0
  0
LINE
  5
E5
330
23
100
AcDbEntity
  8
0
  6
Continuous
 62
     7
370
    25
100
AcDbLine
 10
159.7
 20
-68.6289295987
 30
0.0
 11
159.7
 21
68.6289295962
 31
0.0
  0
LINE
  5
E6
330
23
100
AcDbEntity
  8
0
  6
Continuous
 62
     8
370
    25
100
AcDbLine
 10
158.8778318188
 20
-69.6129904933
 30
0.0
 11
158.8778318188
 21
69.6129904933
 31
0.0
  0
ARC
  5
E7
330
23
100
AcDbEntity
  8
0
  6
Continuous
 62
     7
370
    25
100
AcDbCircle
 10
6.5
 20
-68.6135907166
 30
0.0
 40
1.000000000000138
100
AcDbArc
 50
180.0
 51
271.9852525659
  0
ARC
  5
E8
330
23
100
AcDbEntity
  8
0
  6
Continuous
 62
     7
370
    25
100
AcDbCircle
 10
6.5
 20
68.6135907166
 30
0.0
 40
1.000000000000125
100
AcDbArc
 50
88.0147474341
 51
180.0
  0
ARC
  5
E9
330
23
100
AcDbEntity
  8
0
  6
Continuous
 62
     7
370
    25
100
AcDbCircle
 10
158.7
 20
-68.6289295987
 30
0.0
 40
0.9999999999999217
100
AcDbArc
 50
280.2434947797
 51
0.0
  0
ARC
  5
EA
330
23
100
AcDbEntity
  8
0
  6
Continuous
 62
     7
370
    25
100
AcDbCircle
 10
158.7
 20
68.6289295987
 30
0.0
 40
0.9999999999999166
100
AcDbArc
 50
0.0
 51
79.7565052203
  0
VIEWPORT
  5
ED
330
23
100
AcDbEntity
  8
0
100
AcDbViewport
 10
0.0
 20
0.0
 30
0.0
 40
205.6
 41
156.0
 68
     1
 69
     1
 12
82.6
 22
7.820496338
 13
0.0
 23
0.0
 14
10.0
 24
10.0
 15
10.0
 25
10.0
 16
0.0
 26
0.0
 36
1.0
 17
0.0
 27
0.0
 37
0.0
 42
50.0
 43
0.0
 44
0.0
 45
169.9738125294
 50
0.0
 51
0.0
 72
   100
 90
   557152
  1

281
     0
 71
     1
 74
     0
110
0.0
120
0.0
130
0.0
111
1.0
121
0.0
131
0.0
112
0.0
122
1.0
132
0.0
 79
     0
146
0.0
  0
ENDBLK
  5
25
330
23
100
AcDbEntity
  8
0
100
AcDbBlockEnd
  0
ENDSEC
  0
SECTION
  2
ENTITIES
  0
SPLINE
  5
7F
330
1F
100
AcDbEntity
  8
0
  6
Continuous
 62
     7
370
    25
100
AcDbSpline
210
0.0
220
0.0
230
1.0
 70
     8
 71
     3
 72
    11
 73
     7
 74
     0
 42
0.000000001
 43
0.00000001
 40
0.0
 40
0.0
 40
0.0
 40
0.0
 40
0.1525158072641323
 40
0.413130699700121
 40
0.698744549265278
 40
1.0
 40
1.0
 40
1.0
 40
1.0
 10
155.0743311075065
 20
70.32143190478507
 30
0.0
 10
155.0192929238876
 20
70.34637075849191
 30
0.0
 10
154.8702069785251
 20
70.41392445188569
 30
0.0
 10
154.6628004405293
 20
70.60344502105872
 30
0.0
 10
154.4842038292108
 20
70.89699929600879
 30
0.0
 10
154.461177344144
 20
71.13029600499657
 30
0.0
 10
154.4493572435967
 20
71.25005334310426
 30
0.0
  0
SPLINE
  5
80
330
1F
100
AcDbEntity
  8
0
  6
Continuous
 62
     7
370
    25
100
AcDbSpline
210
0.0
220
0.0
230
1.0
 70
     8
 71
     3
 72
    13
 73
     9
 74
     0
 42
0.000000001
 43
0.00000001
 40
0.0
 40
0.0
 40
0.0
 40
0.0
 40
0.1013696332168669
 40
0.3403740673416866
 40
0.555891294443128
 40
0.731129367212987
 40
0.8792438232922956
 40
1.0
 40
1.0
 40
1.0
 40
1.0
 10
133.934756027522
 20
75.28828680818886
 30
0.0
 10
133.9377980660351
 20
75.23698093856254
 30
0.0
 10
133.9480124762965
 20
75.0647085630095
 30
0.0
 10
133.8326701983241
 20
74.79537599748595
 30
0.0
 10
133.6313778780365
 20
74.5464492447918
 30
0.0
 10
133.4006334500774
 20
74.39650463292972
 30
0.0
 10
133.187877313563
 20
74.31932185108766
 30
0.0
 10
133.0525441036316
 20
74.30675644980285
 30
0.0
 10
132.9917627499988
 20
74.30111303013209
 30
0.0
  0
SPLINE
  5
85
330
1F
100
AcDbEntity
  8
0
  6
Continuous
 62
     7
370
    25
100
AcDbSpline
210
0.0
220
0.0
230
1.0
 70
     8
 71
     3
 72
    27
 73
    23
 74
     0
 42
0.000000001
 43
0.00000001
 40
0.0
 40
0.0
 40
0.0
 40
0.0
 40
0.006145760417025
 40
0.0564068671219209
 40
0.1081270400092941
 40
0.1584666399753019
 40
0.2101717708030935
 40
0.2623090152946876
 40
0.3158460916000232
 40
0.3700368286560488
 40
0.4257558267872367
 40
0.4806322210980246
 40
0.5371519497341565
 40
0.5910886915229846
 40
0.6466643244512135
 40
0.6993549618959785
 40
0.7536052583208963
 40
0.805781657390503
 40
0.8594680815441702
 40
0.9117070200121056
 40
0.9654534641663206
 40
1.0
 40
1.0
 40
1.0
 40
1.0
 10
31.43496332977394
 20
74.12614714091305
 30
0.0
 10
31.43987072590534
 20
74.12771223771819
 30
0.0
 10
31.48491166839502
 20
74.14207697072605
 30
0.0
 10
31.30981162494854
 20
74.08608744251106
 30
0.0
 10
30.90675168517323
 20
73.958573539594
 30
0.0
 10
30.22192015443455
 20
73.74663682985755
 30
0.0
 10
29.31456840419483
 20
73.47510865222914
 30
0.0
 10
28.17690200550219
 20
73.14970186561385
 30
0.0
 10
26.83710862988137
 20
72.78827246606697
 30
0.0
 10
25.31107058655871
 20
72.4057633193269
 30
0.0
 10
23.65202482195951
 20
72.02591656690552
 30
0.0
 10
21.89247848514235
 20
71.66458403103616
 30
0.0
 10
20.12271509369519
 20
71.34518246756183
 30
0.0
 10
18.37072674033217
 20
71.07285911649629
 30
0.0
 10
16.73371127357326
 20
70.85839724306096
 30
0.0
 10
15.21985815459162
 20
70.69462456466113
 30
0.0
 10
13.90290104850502
 20
70.57939899438105
 30
0.0
 10
12.78514966579848
 20
70.50149209271616
 30
0.0
 10
11.91258903114026
 20
70.45354761240863
 30
0.0
 10
11.30536541019532
 20
70.42670830270238
 30
0.0
 10
10.97962368267105
 20
70.41468001492734
 30
0.0
 10
10.98111811733943
 20
70.41475248606118
 30
0.0
 10
10.98170284718802
 20
70.41478084195789
 30
0.0
  0
SPLINE
  5
8C
330
1F
100
AcDbEntity
  8
0
  6
Continuous
 62
     7
370
    25
100
AcDbSpline
210
0.0
220
0.0
230
1.0
 70
     8
 71
     3
 72
    26
 73
    22
 74
     0
 42
0.000000001
 43
0.00000001
 40
0.0
 40
0.0
 40
0.0
 40
0.0
 40
0.0454488257973505
 40
0.0975451715844591
 40
0.1511904558472418
 40
0.225157168781134
 40
0.2773801480418284
 40
0.3311132255003779
 40
0.3835465619504447
 40
0.4374601232548343
 40
0.4901809395960505
 40
0.5443317523530687
 40
0.5980865340314516
 40
0.653294308876197
 40
0.7081452688353966
 40
0.7645708317200616
 40
0.8191104609734651
 40
0.8753617845173424
 40
0.9277302277392124
 40
0.9817923898602894
 40
1.0
 40
1.0
 40
1.0
 40
1.0
 10
155.2516780398493
 20
70.26299442907711
 30
0.0
 10
155.2373142769985
 20
70.26332076754275
 30
0.0
 10
155.2064858521208
 20
70.26402117599264
 30
0.0
 10
154.7706701405234
 20
70.27572060960019
 30
0.0
 10
153.9450142119211
 20
70.30494043087072
 30
0.0
 10
152.7198860245499
 20
70.3658817663141
 30
0.0
 10
151.181828402396
 20
70.47658643629191
 30
0.0
 10
149.6322432774363
 20
70.62029212301108
 30
0.0
 10
147.9176045434896
 20
70.81915445617918
 30
0.0
 10
146.1145090947961
 20
71.07292007083248
 30
0.0
 10
144.2444391542696
 20
71.38402871373518
 30
0.0
 10
142.3781478376805
 20
71.74236994766528
 30
0.0
 10
140.5352863467285
 20
72.14253393759675
 30
0.0
 10
138.7839009703654
 20
72.56484616793898
 30
0.0
 10
137.1527392461373
 20
72.99430552455426
 30
0.0
 10
135.7210339138467
 20
73.39973205269835
 30
0.0
 10
134.5177678648185
 20
73.76046078645774
 30
0.0
 10
133.6095560541589
 20
74.04493579435962
 30
0.0
 10
133.0258977801258
 20
74.23295944739036
 30
0.0
 10
132.76257888827
 20
74.31922082802147
 30
0.0
 10
132.7972325858098
 20
74.30787799823598
 30
0.0
 10
132.8059632209698
 20
74.30502029139457
 30
0.0
  0
SPLINE
  5
95
330
1F
100
AcDbEntity
  8
0
  6
Continuous
 62
     8
370
    25
100
AcDbSpline
210
0.0
220
0.0
230
1.0
 70
     8
 71
     3
 72
    26
 73
    22
 74
     0
 42
0.000000001
 43
0.00000001
 40
0.0
 40
0.0
 40
0.0
 40
0.0
 40
0.0179365973092931
 40
0.0714042306237804
 40
0.1248821959592137
 40
0.1804820384956551
 40
0.2360985201707641
 40
0.2918119380944667
 40
0.3475319650658549
 40
0.4019039031445093
 40
0.4562712011532991
 40
0.5094505596229084
 40
0.5626222142730051
 40
0.6155219940062436
 40
0.6684178353701622
 40
0.7212658839766075
 40
0.7741143997824823
 40
0.8481722275350576
 40
0.9012698411783393
 40
0.9543679680724808
 40
1.0
 40
1.0
 40
1.0
 40
1.0
 10
133.980839477763
 20
75.28887624821104
 30
0.0
 10
133.9727444736396
 20
75.29182111348328
 30
0.0
 10
133.9405188774821
 20
75.30354439830866
 30
0.0
 10
134.1813140939846
 20
75.2161702521477
 30
0.0
 10
134.7039271678303
 20
75.03055669124856
 30
0.0
 10
135.5361424766971
 20
74.74270287278574
 30
0.0
 10
136.6223776631625
 20
74.38315204427238
 30
0.0
 10
137.9335328294198
 20
73.97378727093148
 30
0.0
 10
139.4100759355974
 20
73.54449463669586
 30
0.0
 10
141.0137885810726
 20
73.11896027109583
 30
0.0
 10
142.6844854188371
 20
72.7186671865086
 30
0.0
 10
144.3933021493802
 20
72.35874502621331
 30
0.0
 10
146.0906645191572
 20
72.04784290532946
 30
0.0
 10
147.7411735805752
 20
71.79437439194744
 30
0.0
 10
149.299202310221
 20
71.59646363718875
 30
0.0
 10
150.716901143
 20
71.45431756659315
 30
0.0
 10
152.122024112711
 20
71.34499099266527
 30
0.0
 10
153.2373858958731
 20
71.28665218293729
 30
0.0
 10
153.988875278321
 20
71.25866294788447
 30
0.0
 10
154.3893200410221
 20
71.24813678572205
 30
0.0
 10
154.4182715279041
 20
71.24731111957361
 30
0.0
 10
154.4316525979796
 20
71.24692950543972
 30
0.0
  0
LINE
  5
96
330
1F
100
AcDbEntity
  8
0
  6
Continuous
 62
     7
370
    25
100
AcDbLine
 10
10.9808945341
 20
70.4192384827
 30
0.0
 11
6.5346422611
 21
69.6129904933
 31
0.0
  0
LINE
  5
97
330
1F
100
AcDbEntity
  8
0
  6
Continuous
 62
     7
370
    25
100
AcDbLine
 10
39.0
 20
75.5
 30
0.0
 11
31.4346000382
 21
74.1281506012
 31
0.0
  0
LINE
  5
98
330
1F
100
AcDbEntity
  8
0
  6
Continuous
 62
     7
370
    25
100
AcDbLine
 10
6.5346422611
 20
-69.6129904933
 30
0.0
 11
39.0
 21
-75.5
 31
0.0
  0
LINE
  5
99
330
1F
100
AcDbEntity
  8
0
  6
Continuous
 62
     7
370
    25
100
AcDbLine
 10
126.2
 20
-75.5
 30
0.0
 11
158.8778318188
 21
-69.6129904933
 31
0.0
  0
LINE
  5
9A
330
1F
100
AcDbEntity
  8
0
  6
Continuous
 62
     7
370
    25
100
AcDbLine
 10
132.8068174542
 20
74.3097620008
 30
0.0
 11
126.2
 21
75.5
 31
0.0
  0
LINE
  5
9B
330
1F
100
AcDbEntity
  8
0
  6
Continuous
 62
     7
370
    25
100
AcDbLine
 10
158.8778318188
 20
69.6129904933
 30
0.0
 11
155.2522466246
 21
70.2661505507
 31
0.0
  0
LINE
  5
9C
330
1F
100
AcDbEntity
  8
0
  6
Continuous
 62
     7
370
    25
100
AcDbLine
 10
39.0
 20
-75.5
 30
0.0
 11
126.2
 21
-75.5
 31
0.0
  0
LINE
  5
9D
330
1F
100
AcDbEntity
  8
0
  6
Continuous
 62
     7
370
    25
100
AcDbLine
 10
126.2
 20
75.5
 30
0.0
 11
39.0
 21
75.5
 31
0.0
  0
LINE
  5
9E
330
1F
100
AcDbEntity
  8
0
  6
Continuous
 62
     7
370
    25
100
AcDbLine
 10
133.95
 20
91.1409926759
 30
0.0
 11
133.95
 21
75.2887819679
 31
0.0
  0
LINE
  5
9F
330
1F
100
AcDbEntity
  8
0
  6
Continuous
 62
     7
370
    25
100
AcDbLine
 10
154.45
 20
71.2469234367
 30
0.0
 11
154.45
 21
91.1409926759
 31
0.0
  0
LINE
  5
A0
330
1F
100
AcDbEntity
  8
0
  6
Continuous
 62
     7
370
    25
100
AcDbLine
 10
10.95
 20
91.1409926759
 30
0.0
 11
10.95
 21
70.4147800451
 31
0.0
  0
LINE
  5
A1
330
1F
100
AcDbEntity
  8
0
  6
Continuous
 62
     7
370
    25
100
AcDbLine
 10
31.45
 20
74.1261674462
 30
0.0
 11
31.45
 21
91.1409926759
 31
0.0
  0
LINE
  5
A2
330
1F
100
AcDbEntity
  8
0
  6
Continuous
 62
     7
370
    25
100
AcDbLine
 10
39.0
 20
-75.5
 30
0.0
 11
39.0
 21
75.5
 31
0.0
  0
LINE
  5
A3
330
1F
100
AcDbEntity
  8
0
  6
Continuous
 62
     7
370
    25
100
AcDbLine
 10
6.5346422611
 20
-69.6129904933
 30
0.0
 11
6.5346422611
 21
69.6129904933
 31
0.0
  0
LINE
  5
A4
330
1F
100
AcDbEntity
  8
0
  6
Continuous
 62
     7
370
    25
100
AcDbLine
 10
126.2
 20
-75.5
 30
0.0
 11
126.2
 21
75.5
 31
0.0
  0
LINE
  5
A5
330
1F
100
AcDbEntity
  8
0
  6
Continuous
 62
     7
370
    25
100
AcDbLine
 10
5.5
 20
-68.6135907166
 30
0.0
 11
5.5
 21
68.6135907166
 31
0.0
  0
LINE
  5
A6
330
1F
100
AcDbEntity
  8
0
  6
Continuous
 62
     7
370
    25
100
AcDbLine
 10
159.7
 20
-68.6289295987
 30
0.0
 11
159.7
 21
68.6289295987
 31
0.0
  0
LINE
  5
A7
330
1F
100
AcDbEntity
  8
0
  6
Continuous
 62
     7
370
    25
100
AcDbLine
 10
133.95
 20
91.1409926759
 30
0.0
 11
154.45
 21
91.1409926759
 31
0.0
  0
LINE
  5
A8
330
1F
100
AcDbEntity
  8
0
  6
Continuous
 62
     7
370
    25
100
AcDbLine
 10
31.45
 20
91.1409926759
 30
0.0
 11
10.95
 21
91.1409926759
 31
0.0
  0
LINE
  5
A9
330
1F
100
AcDbEntity
  8
0
  6
Continuous
 62
     8
370
    25
100
AcDbLine
 10
158.8778318188
 20
-69.6129904933
 30
0.0
 11
158.8778318188
 21
69.6129904933
 31
0.0
  0
ARC
  5
AA
330
1F
100
AcDbEntity
  8
0
  6
Continuous
 62
     7
370
    25
100
AcDbCircle
 10
6.5
 20
-68.6135907166
 30
0.0
 40
1.000000000000138
100
AcDbArc
 50
180.0
 51
271.9852525659
  0
ARC
  5
AB
330
1F
100
AcDbEntity
  8
0
  6
Continuous
 62
     7
370
    25
100
AcDbCircle
 10
6.5
 20
68.6135907166
 30
0.0
 40
1.000000000000125
100
AcDbArc
 50
88.0147474341
 51
180.0
  0
ARC
  5
AC
330
1F
100
AcDbEntity
  8
0
  6
Continuous
 62
     7
370
    25
100
AcDbCircle
 10
158.7
 20
-68.6289295987
 30
0.0
 40
0.9999999999999217
100
AcDbArc
 50
280.2434947797
 51
0.0
  0
ARC
  5
AD
330
1F
100
AcDbEntity
  8
0
  6
Continuous
 62
     7
370
    25
100
AcDbCircle
 10
158.7
 20
68.6289295987
 30
0.0
 40
0.9999999999999166
100
AcDbArc
 50
0.0
 51
79.7565052203
  0
CIRCLE
  5
AE
330
1B
100
AcDbEntity
 67
     1
  8
0
  6
Continuous
 62
     7
370
    25
100
AcDbCircle
 10
0.0
 20
0.0
 30
0.0
 40
69.61359071657236
  0
CIRCLE
  5
B1
330
1B
100
AcDbEntity
 67
     1
  8
0
  6
Continuous
 62
     7
370
    25
100
AcDbCircle
 10
0.0
 20
0.0
 30
0.0
 40
68.61359071657216
  0
CIRCLE
  5
B2
330
1B
100
AcDbEntity
 67
     1
  8
0
  6
Continuous
 62
     7
370
    25
100
AcDbCircle
 10
0.0
 20
0.0
 30
0.0
 40
62.75229164986475
  0
CIRCLE
  5
B3
330
1B
100
AcDbEntity
 67
     1
  8
0
  6
Continuous
 62
     7
370
    25
100
AcDbCircle
 10
0.0
 20
0.0
 30
0.0
 40
63.79471795502233
  0
CIRCLE
  5
B4
330
1B
100
AcDbEntity
 67
     1
  8
0
  6
Continuous
 62
     7
370
    25
100
AcDbCircle
 10
0.0
 20
0.0
 30
0.0
 40
62.5
  0
SPLINE
  5
B5
330
1B
100
AcDbEntity
 67
     1
  8
0
  6
Continuous
 62
     7
370
    25
100
AcDbSpline
210
0.0
220
0.0
230
1.0
 70
     8
 71
     3
 72
    12
 73
     8
 74
     0
 42
0.000000001
 43
0.00000001
 40
0.0
 40
0.0
 40
0.0
 40
0.0
 40
0.2118159270798773
 40
0.4298061296873797
 40
0.641614763969733
 40
0.8594879948499548
 40
1.0
 40
1.0
 40
1.0
 40
1.0
 10
-7.310337969773434
 20
70.59194251751217
 30
0.0
 10
-7.687159737636222
 20
70.6280292530351
 30
0.0
 10
-8.451787345483604
 20
70.70125462537604
 30
0.0
 10
-9.30361564522773
 20
70.86511682860915
 30
0.0
 10
-9.903947183355282
 20
71.07858931764807
 30
0.0
 10
-10.2213318095609
 20
71.30544757191635
 30
0.0
 10
-10.21955187597423
 20
71.47850065774502
 30
0.0
 10
-10.21885401788145
 20
71.54634953555187
 30
0.0
  0
SPLINE
  5
B6
330
1B
100
AcDbEntity
 67
     1
  8
0
  6
Continuous
 62
     7
370
    25
100
AcDbSpline
210
0.0
220
0.0
230
1.0
 70
     8
 71
     3
 72
    21
 73
    17
 74
     0
 42
0.000000001
 43
0.00000001
 40
0.0
 40
0.0
 40
0.0
 40
0.0
 40
0.0461026569089782
 40
0.1182355237193811
 40
0.1925601787682724
 40
0.2630265548767697
 40
0.3355787572653466
 40
0.4053574112943508
 40
0.4771555131924041
 40
0.5470178049410855
 40
0.6188961752157942
 40
0.6889274391005886
 40
0.7609872313909177
 40
0.83105539219477
 40
0.9031594885841392
 40
1.0
 40
1.0
 40
1.0
 40
1.0
 10
10.21207993722665
 20
71.54730257397195
 30
0.0
 10
10.21566066112329
 20
71.47946318469472
 30
0.0
 10
10.22484383609841
 20
71.30548133076746
 30
0.0
 10
9.896217870356278
 20
71.07401766494016
 30
0.0
 10
9.28333034031978
 20
70.85810160179516
 30
0.0
 10
8.384273656618747
 20
70.69470343980211
 30
0.0
 10
7.267630572924872
 20
70.5793831503572
 30
0.0
 10
5.935839817439007
 20
70.5014798204758
 30
0.0
 10
4.453572820516511
 20
70.45361452358625
 30
0.0
 10
2.830933366111199
 20
70.42645828645254
 30
0.0
 10
1.141304902789764
 20
70.41410977146867
 30
0.0
 10
-0.5972441676873141
 20
70.41257488632398
 30
0.0
 10
-2.306219508153786
 20
70.42108950162171
 30
0.0
 10
-3.960902364829823
 20
70.44380775315125
 30
0.0
 10
-5.7004769515152
 20
70.48679360913543
 30
0.0
 10
-6.723774791317601
 20
70.55363083892061
 30
0.0
 10
-7.310337969773435
 20
70.59194251751218
 30
0.0
  0
LINE
  5
BA
330
1B
100
AcDbEntity
 67
     1
  8
0
  6
Continuous
 62
     7
370
    25
100
AcDbLine
 10
-10.25
 20
91.1409926759
 30
0.0
 11
-10.25
 21
71.5463495356
 31
0.0
  0
LINE
  5
BB
330
1B
100
AcDbEntity
 67
     1
  8
0
  6
Continuous
 62
     7
370
    25
100
AcDbLine
 10
10.25
 20
71.547302574
 30
0.0
 11
10.25
 21
91.1409926759
 31
0.0
  0
LINE
  5
BC
330
1B
100
AcDbEntity
 67
     1
  8
0
  6
Continuous
 62
     7
370
    25
100
AcDbLine
 10
10.25
 20
91.1409926759
 30
0.0
 11
-10.25
 21
91.1409926759
 31
0.0
  0
ARC
  5
BD
330
1B
100
AcDbEntity
 67
     1
  8
0
  6
Continuous
 62
     7
370
    25
100
AcDbCircle
 10
0.0
 20
0.0
 30
0.0
 40
75.50000000000014
100
AcDbArc
 50
97.8026612085
 51
82.1973387915
  0
VIEWPORT
  5
EB
330
1B
100
AcDbEntity
 67
     1
  8
0
100
AcDbViewport
 10
0.0
 20
0.0
 30
0.0
 40
205.6
 41
156.0
 68
     1
 69
     1
 12
82.6
 22
7.820496338
 13
0.0
 23
0.0
 14
10.0
 24
10.0
 15
10.0
 25
10.0
 16
0.0
 26
0.0
 36
1.0
 17
0.0
 27
0.0
 37
0.0
 42
50.0
 43
0.0
 44
0.0
 45
169.9738125294
 50
0.0
 51
0.0
 72
   100
 90
   557152
  1

281
     0
 71
     1
 74
     0
110
0.0
120
0.0
130
0.0
111
1.0
121
0.0
131
0.0
112
0.0
122
1.0
132
0.0
 79
     0
146
0.0
  0
ENDSEC
  0
SECTION
  2
OBJECTS
  0
DICTIONARY
  5
C
330
0
100
AcDbDictionary
281
     1
  3
ACAD_GROUP
350
D
  3
ACAD_LAYOUT
350
1A
  3
ACAD_MLINESTYLE
350
17
  3
ACAD_PLOTSETTINGS
350
19
  3
ACAD_PLOTSTYLENAME
350
E
  3
ACAD_SCALELIST
350
47
  0
DICTIONARY
  5
D
102
{ACAD_REACTORS
330
C
102
}
330
C
100
AcDbDictionary
281
     1
  0
DICTIONARY
  5
1A
102
{ACAD_REACTORS
330
C
102
}
330
C
100
AcDbDictionary
281
     1
  3
_Left
350
1E
  3
_Top
350
26
  3
Model
350
22
  0
DICTIONARY
  5
17
102
{ACAD_REACTORS
330
C
102
}
330
C
100
AcDbDictionary
281
     1
  3
Standard
350
18
  0
DICTIONARY
  5
19
102
{ACAD_REACTORS
330
C
102
}
330
C
100
AcDbDictionary
281
     1
  0
ACDBDICTIONARYWDFLT
  5
E
102
{ACAD_REACTORS
330
C
102
}
330
C
100
AcDbDictionary
281
     1
  3
Normal
350
F
100
AcDbDictionaryWithDefault
340
F
  0
DICTIONARY
  5
47
102
{ACAD_REACTORS
330
C
102
}
330
C
100
AcDbDictionary
281
     1
  3
A0
350
48
  3
A1
350
49
  3
A2
350
4A
  3
A3
350
4B
  3
A4
350
4C
  3
A5
350
4D
  3
A6
350
4E
  3
A7
350
4F
  3
A8
350
50
  3
A9
350
51
  3
B0
350
52
  3
B1
350
53
  3
B2
350
54
  3
B3
350
55
  3
B4
350
56
  3
B5
350
57
  3
B6
350
58
  3
B7
350
59
  3
B8
350
5A
  3
B9
350
5B
  3
C0
350
5C
  3
C1
350
5D
  3
C2
350
5E
  3
C3
350
5F
  3
C4
350
60
  3
C5
350
61
  3
C6
350
62
  3
C7
350
63
  3
C8
350
64
  3
C9
350
65
  3
D0
350
66
  3
D1
350
67
  3
D2
350
68
  0
LAYOUT
  5
1E
102
{ACAD_REACTORS
330
1A
102
}
330
1A
100
AcDbPlotSettings
  1

  2
none_device
  4
ISO_A4_(210.00_x_297.00_MM)
  6

 40
7.5
 41
20.0
 42
7.5
 43
20.0
 44
210.0
 45
297.0
 46
0.0
 47
0.0
 48
0.0
 49
0.0
140
0.0
141
0.0
142
1.0
143
0.8545691932
 70
   688
 72
     1
 73
     1
 74
     1
  7

 75
     0
147
1.1701802592
148
75.5
149
75.5
100
AcDbLayout
  1
_Left
 70
     1
 71
     1
 10
-92.5913838642
 20
-81.9092689491
 11
161.2156665191
 21
97.550261625
 12
0.0
 22
0.0
 32
0.0
 14
-75.5
 24
-75.5
 34
0.0
 15
75.5
 25
91.1409926759
 35
0.0
146
0.0
 13
0.0
 23
0.0
 33
0.0
 16
1.0
 26
0.0
 36
0.0
 17
0.0
 27
1.0
 37
0.0
 76
     0
330
1B
331
EB
  0
LAYOUT
  5
26
102
{ACAD_REACTORS
330
1A
102
}
330
1A
100
AcDbPlotSettings
  1

  2
none_device
  4
ISO_A4_(210.00_x_297.00_MM)
  6

 40
7.5
 41
20.0
 42
7.5
 43
20.0
 44
210.0
 45
297.0
 46
0.0
 47
0.0
 48
0.0
 49
0.0
140
0.0
141
0.0
142
1.0
143
0.8545691932
 70
   688
 72
     1
 73
     1
 74
     1
  7

 75
     0
147
1.1701802592
148
75.5
149
75.5
100
AcDbLayout
  1
_Top
 70
     1
 71
     2
 10
0.0
 20
0.0
 11
0.0
 21
0.0
 12
0.0
 22
0.0
 32
0.0
 14
0.0
 24
0.0
 34
0.0
 15
0.0
 25
0.0
 35
0.0
146
0.0
 13
0.0
 23
0.0
 33
0.0
 16
1.0
 26
0.0
 36
0.0
 17
0.0
 27
1.0
 37
0.0
 76
     0
330
23
331
ED
  0
LAYOUT
  5
22
102
{ACAD_REACTORS
330
1A
102
}
330
1A
100
AcDbPlotSettings
  1

  2
none_device
  4
ANSI_A_(11.00_x_8.50_Inches)
  6

 40
6.35
 41
19.05
 42
6.35000508
 43
19.05000254
 44
279.4
 45
215.9
 46
27.4036374648
 47
78.8690892825
 48
0.0
 49
0.0
140
0.0
141
0.0
142
0.0504977789
143
1.0
 70
  1696
 72
     0
 73
     0
 74
     0
  7

 75
     0
147
0.0179189148
148
-1300.4909072572
149
0.0
100
AcDbLayout
  1
Model
 70
     1
 71
     0
 10
0.0
 20
0.0
 11
420.0
 21
297.0
 12
0.0
 22
0.0
 32
0.0
 14
5.5
 24
-75.5
 34
0.0
 15
159.7
 25
91.1409926759
 35
0.0
146
0.0
 13
0.0
 23
0.0
 33
0.0
 16
1.0
 26
0.0
 36
0.0
 17
0.0
 27
1.0
 37
0.0
 76
     0
330
1F
331
29
  0
MLINESTYLE
  5
18
102
{ACAD_REACTORS
330
17
102
}
330
17
100
AcDbMlineStyle
  2
Standard
 70
     0
  3

 62
   256
 51
90.0
 52
90.0
 71
     2
 49
0.5
 62
   256
  6
BYLAYER
 49
-0.5
 62
   256
  6
BYLAYER
  0
ACDBPLACEHOLDER
  5
F
102
{ACAD_REACTORS
330
E
102
}
330
E
  0
SCALE
  5
48
102
{ACAD_REACTORS
330
47
102
}
330
47
100
AcDbScale
 70
     0
300
1:1
140
1.0
141
1.0
290
     1
  0
SCALE
  5
49
102
{ACAD_REACTORS
330
47
102
}
330
47
100
AcDbScale
 70
     0
300
1:2
140
1.0
141
2.0
290
     0
  0
SCALE
  5
4A
102
{ACAD_REACTORS
330
47
102
}
330
47
100
AcDbScale
 70
     0
300
1:4
140
1.0
141
4.0
290
     0
  0
SCALE
  5
4B
102
{ACAD_REACTORS
330
47
102
}
330
47
100
AcDbScale
 70
     0
300
1:5
140
1.0
141
5.0
290
     0
  0
SCALE
  5
4C
102
{ACAD_REACTORS
330
47
102
}
330
47
100
AcDbScale
 70
     0
300
1:8
140
1.0
141
8.0
290
     0
  0
SCALE
  5
4D
102
{ACAD_REACTORS
330
47
102
}
330
47
100
AcDbScale
 70
     0
300
1:10
140
1.0
141
10.0
290
     0
  0
SCALE
  5
4E
102
{ACAD_REACTORS
330
47
102
}
330
47
100
AcDbScale
 70
     0
300
1:16
140
1.0
141
16.0
290
     0
  0
SCALE
  5
4F
102
{ACAD_REACTORS
330
47
102
}
330
47
100
AcDbScale
 70
     0
300
1:20
140
1.0
141
20.0
290
     0
  0
SCALE
  5
50
102
{ACAD_REACTORS
330
47
102
}
330
47
100
AcDbScale
 70
     0
300
1:30
140
1.0
141
30.0
290
     0
  0
SCALE
  5
51
102
{ACAD_REACTORS
330
47
102
}
330
47
100
AcDbScale
 70
     0
300
1:40
140
1.0
141
40.0
290
     0
  0
SCALE
  5
52
102
{ACAD_REACTORS
330
47
102
}
330
47
100
AcDbScale
 70
     0
300
1:50
140
1.0
141
50.0
290
     0
  0
SCALE
  5
53
102
{ACAD_REACTORS
330
47
102
}
330
47
100
AcDbScale
 70
     0
300
1:100
140
1.0
141
100.0
290
     0
  0
SCALE
  5
54
102
{ACAD_REACTORS
330
47
102
}
330
47
100
AcDbScale
 70
     0
300
2:1
140
2.0
141
1.0
290
     0
  0
SCALE
  5
55
102
{ACAD_REACTORS
330
47
102
}
330
47
100
AcDbScale
 70
     0
300
4:1
140
4.0
141
1.0
290
     0
  0
SCALE
  5
56
102
{ACAD_REACTORS
330
47
102
}
330
47
100
AcDbScale
 70
     0
300
8:1
140
8.0
141
1.0
290
     0
  0
SCALE
  5
57
102
{ACAD_REACTORS
330
47
102
}
330
47
100
AcDbScale
 70
     0
300
10:1
140
10.0
141
1.0
290
     0
  0
SCALE
  5
58
102
{ACAD_REACTORS
330
47
102
}
330
47
100
AcDbScale
 70
     0
300
100:1
140
100.0
141
1.0
290
     0
  0
SCALE
  5
59
102
{ACAD_REACTORS
330
47
102
}
330
47
100
AcDbScale
 70
     0
300
1/128" = 1'-0"
140
0.0078125
141
12.0
290
     0
  0
SCALE
  5
5A
102
{ACAD_REACTORS
330
47
102
}
330
47
100
AcDbScale
 70
     0
300
1/64" = 1'-0"
140
0.015625
141
12.0
290
     0
  0
SCALE
  5
5B
102
{ACAD_REACTORS
330
47
102
}
330
47
100
AcDbScale
 70
     0
300
1/32" = 1'-0"
140
0.03125
141
12.0
290
     0
  0
SCALE
  5
5C
102
{ACAD_REACTORS
330
47
102
}
330
47
100
AcDbScale
 70
     0
300
1/16" = 1'-0"
140
0.0625
141
12.0
290
     0
  0
SCALE
  5
5D
102
{ACAD_REACTORS
330
47
102
}
330
47
100
AcDbScale
 70
     0
300
3/32" = 1'-0"
140
0.09375
141
12.0
290
     0
  0
SCALE
  5
5E
102
{ACAD_REACTORS
330
47
102
}
330
47
100
AcDbScale
 70
     0
300
1/8" = 1'-0"
140
0.125
141
12.0
290
     0
  0
SCALE
  5
5F
102
{ACAD_REACTORS
330
47
102
}
330
47
100
AcDbScale
 70
     0
300
3/16" = 1'-0"
140
0.1875
141
12.0
290
     0
  0
SCALE
  5
60
102
{ACAD_REACTORS
330
47
102
}
330
47
100
AcDbScale
 70
     0
300
1/4" = 1'-0"
140
0.25
141
12.0
290
     0
  0
SCALE
  5
61
102
{ACAD_REACTORS
330
47
102
}
330
47
100
AcDbScale
 70
     0
300
3/8" = 1'-0"
140
0.375
141
12.0
290
     0
  0
SCALE
  5
62
102
{ACAD_REACTORS
330
47
102
}
330
47
100
AcDbScale
 70
     0
300
1/2" = 1'-0"
140
0.5
141
12.0
290
     0
  0
SCALE
  5
63
102
{ACAD_REACTORS
330
47
102
}
330
47
100
AcDbScale
 70
     0
300
3/4" = 1'-0"
140
0.75
141
12.0
290
     0
  0
SCALE
  5
64
102
{ACAD_REACTORS
330
47
102
}
330
47
100
AcDbScale
 70
     0
300
1" = 1'-0"
140
1.0
141
12.0
290
     0
  0
SCALE
  5
65
102
{ACAD_REACTORS
330
47
102
}
330
47
100
AcDbScale
 70
     0
300
1-1/2" = 1'-0"
140
1.5
141
12.0
290
     0
  0
SCALE
  5
66
102
{ACAD_REACTORS
330
47
102
}
330
47
100
AcDbScale
 70
     0
300
3" = 1'-0"
140
3.0
141
12.0
290
     0
  0
SCALE
  5
67
102
{ACAD_REACTORS
330
47
102
}
330
47
100
AcDbScale
 70
     0
300
6" = 1'-0"
140
6.0
141
12.0
290
     0
  0
SCALE
  5
68
102
{ACAD_REACTORS
330
47
102
}
330
47
100
AcDbScale
 70
     0
300
1'-0" = 1'-0"
140
12.0
141
12.0
290
     0
  0
ENDSEC
  0
EOF
