  0
SECTION
  2
HEADER
  9
$ACADVER
  1
AC1015
  9
$ACADMAINTVER
 70
     6
  9
$DWGCODEPAGE
  3
ANSI_1252
  9
$INSBASE
 10
0.0
 20
0.0
 30
0.0
  9
$EXTMIN
 10
-222.0
 20
-135.0
 30
0.0
  9
$EXTMAX
 10
0.0
 20
149.7
 30
0.0
  9
$LIMMIN
 10
0.0
 20
0.0
  9
$LIMMAX
 10
420.0
 20
297.0
  9
$ORTHOMODE
 70
     0
  9
$REGENMODE
 70
     1
  9
$FILLMODE
 70
     1
  9
$QTEXTMODE
 70
     0
  9
$MIRRTEXT
 70
     1
  9
$LTSCALE
 40
1.0
  9
$ATTMODE
 70
     1
  9
$TEXTSIZE
 40
6.35
  9
$TRACEWID
 40
1.0
  9
$TEXTSTYLE
  7
Standard
  9
$CLAYER
  8
0
  9
$CELTYPE
  6
ByLayer
  9
$CECOLOR
 62
   256
  9
$CELTSCALE
 40
1.0
  9
$DISPSILH
 70
     0
  9
$DIMSCALE
 40
1.0
  9
$DIMASZ
 40
5.9944
  9
$DIMEXO
 40
0.9906
  9
$DIMDLI
 40
3.75
  9
$DIMRND
 40
0.0
  9
$DIMDLE
 40
0.0
  9
$DIMEXE
 40
0.9906
  9
$DIMTP
 40
0.0
  9
$DIMTM
 40
0.0
  9
$DIMTXT
 40
6.35
  9
$DIMCEN
 40
2.5
  9
$DIMTSZ
 40
0.0
  9
$DIMTOL
 70
     0
  9
$DIMLIM
 70
     0
  9
$DIMTIH
 70
     1
  9
$DIMTOH
 70
     1
  9
$DIMSE1
 70
     0
  9
$DIMSE2
 70
     0
  9
$DIMTAD
 70
     1
  9
$DIMZIN
 70
     0
  9
$DIMBLK
  1

  9
$DIMASO
 70
     1
  9
$DIMSHO
 70
     1
  9
$DIMPOST
  1

  9
$DIMAPOST
  1

  9
$DIMALT
 70
     0
  9
$DIMALTD
 70
     3
  9
$DIMALTF
 40
0.0393700787
  9
$DIMLFAC
 40
1.0
  9
$DIMTOFL
 70
     1
  9
$DIMTVP
 40
0.0
  9
$DIMTIX
 70
     0
  9
$DIMSOXD
 70
     0
  9
$DIMSAH
 70
     0
  9
$DIMBLK1
  1

  9
$DIMBLK2
  1

  9
$DIMSTYLE
  2
ISO-25
  9
$DIMCLRD
 70
     0
  9
$DIMCLRE
 70
     0
  9
$DIMCLRT
 70
     0
  9
$DIMTFAC
 40
1.0
  9
$DIMGAP
 40
1.524
  9
$DIMJUST
 70
     0
  9
$DIMSD1
 70
     0
  9
$DIMSD2
 70
     0
  9
$DIMTOLJ
 70
     0
  9
$DIMTZIN
 70
     0
  9
$DIMALTZ
 70
     0
  9
$DIMALTTZ
 70
     0
  9
$DIMUPT
 70
     0
  9
$DIMDEC
 70
     2
  9
$DIMTDEC
 70
     2
  9
$DIMALTU
 70
     2
  9
$DIMALTTD
 70
     3
  9
$DIMTXSTY
  7
Standard
  9
$DIMAUNIT
 70
     0
  9
$DIMADEC
 70
     2
  9
$DIMALTRND
 40
0.0
  9
$DIMAZIN
 70
     0
  9
$DIMDSEP
 70
    44
  9
$DIMATFIT
 70
     3
  9
$DIMFRAC
 70
     0
  9
$DIMLDRBLK
  1

  9
$DIMLUNIT
 70
     2
  9
$DIMLWD
 70
    -2
  9
$DIMLWE
 70
    -2
  9
$DIMTMOVE
 70
     0
  9
$LUNITS
 70
     2
  9
$LUPREC
 70
     2
  9
$SKETCHINC
 40
1.0
  9
$FILLETRAD
 40
10.0
  9
$AUNITS
 70
     0
  9
$AUPREC
 70
     2
  9
$MENU
  1
.
  9
$ELEVATION
 40
0.0
  9
$PELEVATION
 40
0.0
  9
$THICKNESS
 40
0.0
  9
$LIMCHECK
 70
     0
  9
$CHAMFERA
 40
0.0
  9
$CHAMFERB
 40
0.0
  9
$CHAMFERC
 40
0.0
  9
$CHAMFERD
 40
0.0
  9
$SKPOLY
 70
     0
  9
$TDCREATE
 40
2458381.649391088
  9
$TDUCREATE
 40
2458381.607724421
  9
$TDUPDATE
 40
2458381.64942647
  9
$TDUUPDATE
 40
2458381.607759803
  9
$TDINDWG
 40
0.0000000116
  9
$TDUSRTIMER
 40
0.0000000116
  9
$USRTIMER
 70
     1
  9
$ANGBASE
 50
0.0
  9
$ANGDIR
 70
     0
  9
$PDMODE
 70
     0
  9
$PDSIZE
 40
-1.0
  9
$PLINEWID
 40
0.0
  9
$SPLFRAME
 70
     0
  9
$SPLINETYPE
 70
     6
  9
$SPLINESEGS
 70
     8
  9
$HANDSEED
  5
DA
  9
$SURFTAB1
 70
     6
  9
$SURFTAB2
 70
     6
  9
$SURFTYPE
 70
     6
  9
$SURFU
 70
     6
  9
$SURFV
 70
     6
  9
$UCSBASE
  2

  9
$UCSNAME
  2

  9
$UCSORG
 10
0.0
 20
0.0
 30
0.0
  9
$UCSXDIR
 10
1.0
 20
0.0
 30
0.0
  9
$UCSYDIR
 10
0.0
 20
1.0
 30
0.0
  9
$UCSORTHOREF
  2

  9
$UCSORTHOVIEW
 70
     0
  9
$UCSORGTOP
 10
0.0
 20
0.0
 30
0.0
  9
$UCSORGBOTTOM
 10
0.0
 20
0.0
 30
0.0
  9
$UCSORGLEFT
 10
0.0
 20
0.0
 30
0.0
  9
$UCSORGRIGHT
 10
0.0
 20
0.0
 30
0.0
  9
$UCSORGFRONT
 10
0.0
 20
0.0
 30
0.0
  9
$UCSORGBACK
 10
0.0
 20
0.0
 30
0.0
  9
$PUCSBASE
  2

  9
$PUCSNAME
  2

  9
$PUCSORG
 10
0.0
 20
0.0
 30
0.0
  9
$PUCSXDIR
 10
1.0
 20
0.0
 30
0.0
  9
$PUCSYDIR
 10
0.0
 20
1.0
 30
0.0
  9
$PUCSORTHOREF
  2

  9
$PUCSORTHOVIEW
 70
     0
  9
$PUCSORGTOP
 10
0.0
 20
0.0
 30
0.0
  9
$PUCSORGBOTTOM
 10
0.0
 20
0.0
 30
0.0
  9
$PUCSORGLEFT
 10
0.0
 20
0.0
 30
0.0
  9
$PUCSORGRIGHT
 10
0.0
 20
0.0
 30
0.0
  9
$PUCSORGFRONT
 10
0.0
 20
0.0
 30
0.0
  9
$PUCSORGBACK
 10
0.0
 20
0.0
 30
0.0
  9
$USERI1
 70
     0
  9
$USERI2
 70
     0
  9
$USERI3
 70
     0
  9
$USERI4
 70
     0
  9
$USERI5
 70
     0
  9
$USERR1
 40
0.0
  9
$USERR2
 40
0.0
  9
$USERR3
 40
0.0
  9
$USERR4
 40
0.0
  9
$USERR5
 40
0.0
  9
$WORLDVIEW
 70
     1
  9
$SHADEDGE
 70
     3
  9
$SHADEDIF
 70
    70
  9
$TILEMODE
 70
     1
  9
$MAXACTVP
 70
    64
  9
$PINSBASE
 10
0.0
 20
0.0
 30
0.0
  9
$PLIMCHECK
 70
     0
  9
$PEXTMIN
 10
-135.0
 20
-135.0
 30
0.0
  9
$PEXTMAX
 10
135.0
 20
149.7
 30
0.0
  9
$PLIMMIN
 10
-164.2
 20
-145.95
  9
$PLIMMAX
 10
269.42
 20
160.65
  9
$UNITMODE
 70
     0
  9
$VISRETAIN
 70
     1
  9
$PLINEGEN
 70
     0
  9
$PSLTSCALE
 70
     1
  9
$TREEDEPTH
 70
  3020
  9
$CMLSTYLE
  2
Standard
  9
$CMLJUST
 70
     0
  9
$CMLSCALE
 40
20.0
  9
$PROXYGRAPHICS
 70
     1
  9
$MEASUREMENT
 70
     1
  9
$CELWEIGHT
370
    -1
  9
$ENDCAPS
280
     0
  9
$JOINSTYLE
280
     0
  9
$LWDISPLAY
290
     1
  9
$INSUNITS
 70
     4
  9
$HYPERLINKBASE
  1

  9
$STYLESHEET
  1

  9
$XEDIT
290
     1
  9
$CEPSNTYPE
380
     0
  9
$PSTYLEMODE
290
     1
  9
$FINGERPRINTGUID
  2
{12F0A36A-DA5D-4FC3-81B0-0FFD92A4A836}
  9
$VERSIONGUID
  2
{FAEB1C32-E019-11D5-929B-00C0DF256EC4}
  9
$EXTNAMES
290
     1
  9
$PSVPSCALE
 40
0.0
  9
$OLESTARTUP
290
     0
  0
ENDSEC
  0
SECTION
  2
CLASSES
  0
CLASS
  1
ACDBDICTIONARYWDFLT
  2
AcDbDictionaryWithDefault
  3
ObjectDBX Classes
 90
        0
280
     0
281
     0
  0
CLASS
  1
VISUALSTYLE
  2
AcDbVisualStyle
  3
ObjectDBX Classes
 90
     4095
280
     0
281
     0
  0
CLASS
  1
MATERIAL
  2
AcDbMaterial
  3
ObjectDBX Classes
 90
     1153
280
     0
281
     0
  0
CLASS
  1
SCALE
  2
AcDbScale
  3
ObjectDBX Classes
 90
     1153
280
     0
281
     0
  0
CLASS
  1
TABLESTYLE
  2
AcDbTableStyle
  3
ObjectDBX Classes
 90
     4095
280
     0
281
     0
  0
CLASS
  1
MLEADERSTYLE
  2
AcDbMLeaderStyle
  3
ACDB_MLEADERSTYLE_CLASS
 90
     4095
280
     0
281
     0
  0
CLASS
  1
SUN
  2
AcDbSun
  3
SCENEOE
 90
     1153
280
     0
281
     0
  0
CLASS
  1
ACDBPLACEHOLDER
  2
AcDbPlaceHolder
  3
ObjectDBX Classes
 90
        0
280
     0
281
     0
  0
CLASS
  1
LAYOUT
  2
AcDbLayout
  3
ObjectDBX Classes
 90
        0
280
     0
281
     0
  0
ENDSEC
  0
SECTION
  2
TABLES
  0
TABLE
  2
VPORT
  5
8
330
0
100
AcDbSymbolTable
 70
     1
  0
VPORT
  5
29
330
8
100
AcDbSymbolTableRecord
100
AcDbViewportTableRecord
  2
*Active
 70
     0
 10
0.0
 20
0.0
 11
1.0
 21
1.0
 12
-111.0
 22
7.35
 13
0.0
 23
0.0
 14
10.0
 24
10.0
 15
10.0
 25
10.0
 16
0.0
 26
0.0
 36
1.0
 17
0.0
 27
0.0
 37
0.0
 40
290.394
 41
0.779768177
 42
50.0
 43
0.0
 44
0.0
 50
0.0
 51
0.0
 71
     0
 72
   100
 73
     1
 74
     3
 75
     0
 76
     0
 77
     0
 78
     0
281
     0
 65
     1
110
0.0
120
0.0
130
0.0
111
1.0
121
0.0
131
0.0
112
0.0
122
1.0
132
0.0
 79
     0
146
0.0
  0
ENDTAB
  0
TABLE
  2
LTYPE
  5
5
330
0
100
AcDbSymbolTable
 70
     6
  0
LTYPE
  5
14
330
5
100
AcDbSymbolTableRecord
100
AcDbLinetypeTableRecord
  2
ByBlock
 70
     0
  3

 72
    65
 73
     0
 40
0.0
  0
LTYPE
  5
15
330
5
100
AcDbSymbolTableRecord
100
AcDbLinetypeTableRecord
  2
ByLayer
 70
     0
  3

 72
    65
 73
     0
 40
0.0
  0
LTYPE
  5
16
330
5
100
AcDbSymbolTableRecord
100
AcDbLinetypeTableRecord
  2
Continuous
 70
     0
  3
Solid line
 72
    65
 73
     0
 40
0.0
  0
LTYPE
  5
6E
330
5
100
AcDbSymbolTableRecord
100
AcDbLinetypeTableRecord
  2
HIDDEN
 70
     0
  3
Hidden __ __ __ __ __ __ __ __ __ __ __ __ __ __
 72
    65
 73
     2
 40
1.905
 49
1.27
 74
     0
 49
-0.635
 74
     0
  0
LTYPE
  5
6F
330
5
100
AcDbSymbolTableRecord
100
AcDbLinetypeTableRecord
  2
PHANTOM
 70
     0
  3
Phantom ______  __  __  ______  __  __  ______
 72
    65
 73
     6
 40
12.7
 49
6.35
 74
     0
 49
-1.27
 74
     0
 49
1.27
 74
     0
 49
-1.27
 74
     0
 49
1.27
 74
     0
 49
-1.27
 74
     0
  0
LTYPE
  5
70
330
5
100
AcDbSymbolTableRecord
100
AcDbLinetypeTableRecord
  2
CENTER
 70
     0
  3
Center ____ _ ____ _ ____ _ ____ _ ____ _ ____
 72
    65
 73
     4
 40
10.16
 49
6.35
 74
     0
 49
-1.27
 74
     0
 49
1.27
 74
     0
 49
-1.27
 74
     0
  0
LTYPE
  5
71
330
5
100
AcDbSymbolTableRecord
100
AcDbLinetypeTableRecord
  2
CENTERX2
 70
     0
  3
Center (2x) ________  __  ________  __  _____
 72
    65
 73
     4
 40
20.32
 49
12.7
 74
     0
 49
-2.54
 74
     0
 49
2.54
 74
     0
 49
-2.54
 74
     0
  0
LTYPE
  5
72
330
5
100
AcDbSymbolTableRecord
100
AcDbLinetypeTableRecord
  2
DOT2
 70
     0
  3
Dot (.5x) ........................................
 72
    65
 73
     2
 40
0.635
 49
0.0
 74
     0
 49
-0.635
 74
     0
  0
ENDTAB
  0
TABLE
  2
LAYER
  5
2
330
0
100
AcDbSymbolTable
 70
     1
  0
LAYER
  5
10
330
2
100
AcDbSymbolTableRecord
100
AcDbLayerTableRecord
  2
0
 70
     0
 62
     7
  6
Continuous
370
    -3
390
F
  0
ENDTAB
  0
TABLE
  2
STYLE
  5
3
330
0
100
AcDbSymbolTable
 70
     1
  0
STYLE
  5
11
330
3
100
AcDbSymbolTableRecord
100
AcDbTextStyleTableRecord
  2
Standard
 70
     0
 40
0.0
 41
1.0
 50
0.0
 71
     0
 42
6.35
  3
txt
  4

  0
ENDTAB
  0
TABLE
  2
VIEW
  5
6
330
0
100
AcDbSymbolTable
 70
     0
  0
ENDTAB
  0
TABLE
  2
UCS
  5
7
330
0
100
AcDbSymbolTable
 70
     0
  0
ENDTAB
  0
TABLE
  2
APPID
  5
9
330
0
100
AcDbSymbolTable
 70
     1
  0
APPID
  5
12
330
9
100
AcDbSymbolTableRecord
100
AcDbRegAppTableRecord
  2
ACAD
 70
     0
  0
ENDTAB
  0
TABLE
  2
DIMSTYLE
  5
A
330
0
100
AcDbSymbolTable
 70
     1
100
AcDbDimStyleTable
  0
DIMSTYLE
105
27
330
A
100
AcDbSymbolTableRecord
100
AcDbDimStyleTableRecord
  2
ISO-25
 70
     0
 41
2.5
 42
0.625
 43
3.75
 44
1.25
 73
     0
 74
     0
 77
     1
 78
     8
140
2.5
141
2.5
143
0.0393700787
147
0.625
171
     3
172
     1
178
     0
271
     2
272
     2
274
     3
278
    44
283
     0
284
     8
340
11
  0
ENDTAB
  0
TABLE
  2
BLOCK_RECORD
  5
1
330
0
100
AcDbSymbolTable
 70
     1
  0
BLOCK_RECORD
  5
1F
330
1
100
AcDbSymbolTableRecord
100
AcDbBlockTableRecord
  2
*Model_Space
340
22
  0
BLOCK_RECORD
  5
1B
330
1
100
AcDbSymbolTableRecord
100
AcDbBlockTableRecord
  2
*Paper_Space
340
1E
  0
BLOCK_RECORD
  5
23
330
1
100
AcDbSymbolTableRecord
100
AcDbBlockTableRecord
  2
*Paper_Space0
340
26
  0
ENDTAB
  0
ENDSEC
  0
SECTION
  2
BLOCKS
  0
BLOCK
  5
20
330
1F
100
AcDbEntity
  8
0
100
AcDbBlockBegin
  2
*Model_Space
 70
     0
 10
0.0
 20
0.0
 30
0.0
  3
*Model_Space
  1

  0
ENDBLK
  5
21
330
1F
100
AcDbEntity
  8
0
100
AcDbBlockEnd
  0
BLOCK
  5
1C
330
1B
100
AcDbEntity
 67
     1
  8
0
100
AcDbBlockBegin
  2
*Paper_Space
 70
     0
 10
0.0
 20
0.0
 30
0.0
  3
*Paper_Space
  1

  0
ENDBLK
  5
1D
330
1B
100
AcDbEntity
 67
     1
  8
0
100
AcDbBlockEnd
  0
BLOCK
  5
24
330
23
100
AcDbEntity
  8
0
100
AcDbBlockBegin
  2
*Paper_Space0
 70
     0
 10
0.0
 20
0.0
 30
0.0
  3
*Paper_Space0
  1

  0
CIRCLE
  5
BA
330
23
100
AcDbEntity
  8
0
  6
Continuous
 62
     7
370
    25
100
AcDbCircle
 10
-24.4999999991
 20
0.0
 30
0.0
 40
10.25000000000009
  0
CIRCLE
  5
BB
330
23
100
AcDbEntity
  8
0
  6
Continuous
 62
     7
370
    25
100
AcDbCircle
 10
-24.4999999991
 20
0.0
 30
0.0
 40
6.100000000004424
  0
CIRCLE
  5
BC
330
23
100
AcDbEntity
  8
0
  6
Continuous
 62
     7
370
    25
100
AcDbCircle
 10
-197.5000000009
 20
0.0
 30
0.0
 40
10.2500000000001
  0
CIRCLE
  5
BD
330
23
100
AcDbEntity
  8
0
  6
Continuous
 62
     7
370
    25
100
AcDbCircle
 10
-197.5000000009
 20
0.0
 30
0.0
 40
6.100000000004422
  0
CIRCLE
  5
BE
330
23
100
AcDbEntity
  8
0
  6
Continuous
 62
     7
370
    25
100
AcDbCircle
 10
-197.5000000009
 20
0.0
 30
0.0
 40
2.349999999998077
  0
CIRCLE
  5
BF
330
23
100
AcDbEntity
  8
0
  6
Continuous
 62
     7
370
    25
100
AcDbCircle
 10
-197.5000000009
 20
0.0
 30
0.0
 40
1.772649730810393
  0
CIRCLE
  5
C0
330
23
100
AcDbEntity
  8
0
  6
Continuous
 62
     7
370
    25
100
AcDbCircle
 10
-24.4999999991
 20
0.0
 30
0.0
 40
2.349999999998071
  0
CIRCLE
  5
C1
330
23
100
AcDbEntity
  8
0
  6
Continuous
 62
     7
370
    25
100
AcDbCircle
 10
-24.4999999991
 20
0.0
 30
0.0
 40
1.772649730810372
  0
SPLINE
  5
C2
330
23
100
AcDbEntity
  8
0
  6
Continuous
 62
     7
370
    25
100
AcDbSpline
210
0.0
220
0.0
230
1.0
 70
    11
 71
     3
 72
   101
 73
    97
 74
     0
 42
0.000000001
 43
0.00000001
 40
0.0
 40
0.0
 40
0.0
 40
0.0
 40
0.0312499999999997
 40
0.0312499999999997
 40
0.0624999999999995
 40
0.0624999999999995
 40
0.0781249999999995
 40
0.0781249999999995
 40
0.0937499999999994
 40
0.0937499999999994
 40
0.1093749999999994
 40
0.1093749999999994
 40
0.1249999999999994
 40
0.1249999999999994
 40
0.1562500000000004
 40
0.1562500000000004
 40
0.1718750000000015
 40
0.1718750000000015
 40
0.1875000000000026
 40
0.1875000000000026
 40
0.2187500000000049
 40
0.2187500000000049
 40
0.2343750000000055
 40
0.2343750000000055
 40
0.2500000000000062
 40
0.2500000000000062
 40
0.2812500000000077
 40
0.2812500000000077
 40
0.2968750000000082
 40
0.2968750000000082
 40
0.3125000000000088
 40
0.3125000000000088
 40
0.3281250000000093
 40
0.3281250000000093
 40
0.3437500000000098
 40
0.3437500000000098
 40
0.3750000000000106
 40
0.3750000000000106
 40
0.390625000000011
 40
0.390625000000011
 40
0.4062500000000114
 40
0.4062500000000114
 40
0.4375000000000123
 40
0.4375000000000123
 40
0.4531250000000125
 40
0.4531250000000125
 40
0.4687500000000128
 40
0.4687500000000128
 40
0.484375000000013
 40
0.484375000000013
 40
0.5000000000000133
 40
0.5000000000000133
 40
0.5156250000000135
 40
0.5156250000000135
 40
0.5312500000000139
 40
0.5312500000000139
 40
0.5625000000000152
 40
0.5625000000000152
 40
0.5781250000000153
 40
0.5781250000000153
 40
0.5937500000000154
 40
0.5937500000000154
 40
0.6250000000000157
 40
0.6250000000000157
 40
0.6562500000000158
 40
0.6562500000000158
 40
0.687500000000016
 40
0.687500000000016
 40
0.7031250000000155
 40
0.7031250000000155
 40
0.7187500000000151
 40
0.7187500000000151
 40
0.7500000000000132
 40
0.7500000000000132
 40
0.7812500000000114
 40
0.7812500000000114
 40
0.7968750000000105
 40
0.7968750000000105
 40
0.8125000000000097
 40
0.8125000000000097
 40
0.843750000000008
 40
0.843750000000008
 40
0.8593750000000071
 40
0.8593750000000071
 40
0.8750000000000063
 40
0.8750000000000063
 40
0.9062500000000047
 40
0.9062500000000047
 40
0.9218750000000039
 40
0.9218750000000039
 40
0.9375000000000031
 40
0.9531250000000022
 40
0.9531250000000022
 40
0.9687500000000014
 40
0.9687500000000014
 40
1.0
 40
1.0
 40
1.0
 40
1.0
 10
-206.1577168159203
 20
8.106496412194396
 30
0.0
 10
-205.6099509179182
 20
8.701449664878611
 30
0.0
 10
-205.0034094576061
 20
9.239683522068988
 30
0.0
 10
-203.7158369279861
 20
10.17627079326848
 30
0.0
 10
-203.0315477025037
 20
10.57894449049059
 30
0.0
 10
-201.9444520539349
 20
11.08396173437077
 30
0.0
 10
-201.5724963274067
 20
11.235138557523
 30
0.0
 10
-200.824012021244
 20
11.49824681794867
 30
0.0
 10
-200.4455900508362
 20
11.61110514861925
 30
0.0
 10
-199.6806199733079
 20
11.8002537019457
 30
0.0
 10
-199.2940715124867
 20
11.87654270809464
 30
0.0
 10
-198.5128368448503
 20
11.99235269724218
 30
0.0
 10
-198.1161449148437
 20
12.03193409339862
 30
0.0
 10
-196.9298652521326
 20
12.09309139836421
 30
0.0
 10
-196.1468631394335
 20
12.05841410149821
 30
0.0
 10
-194.9836721758316
 20
11.89692162043513
 30
0.0
 10
-194.597838187004
 20
11.82471597547578
 30
0.0
 10
-193.8300182326639
 20
11.64259970126197
 30
0.0
 10
-193.4495623617341
 20
11.53284443719075
 30
0.0
 10
-192.336411354642
 20
11.15364095189279
 30
0.0
 10
-191.6245740927748
 20
10.83315402409368
 30
0.0
 10
-190.6021889708143
 20
10.24972481673074
 30
0.0
 10
-190.2675233519915
 20
10.03693576636022
 30
0.0
 10
-189.6213401491246
 20
9.58038277827878
 30
0.0
 10
-189.3113226761333
 20
9.33792205902728
 30
0.0
 10
-188.4196388557656
 20
8.568709145797628
 30
0.0
 10
-187.8759537469972
 20
8.000553245122806
 30
0.0
 10
-187.1400104215334
 20
7.060698567074295
 30
0.0
 10
-186.9079892524217
 20
6.732082471339893
 30
0.0
 10
-186.4819012953933
 20
6.060034979592047
 30
0.0
 10
-186.2863277777466
 20
5.714830328207836
 30
0.0
 10
-185.9298989619036
 20
5.006115110310932
 30
0.0
 10
-185.7690422253093
 20
4.642605395137071
 30
0.0
 10
-185.4828664382104
 20
3.896794576506843
 30
0.0
 10
-185.3571004929283
 20
3.512816576637276
 30
0.0
 10
-185.0390956366114
 20
2.34253763755702
 30
0.0
 10
-184.9086999891836
 20
1.552431416409036
 30
0.0
 10
-184.8326574728906
 20
0.3527065806428096
 30
0.0
 10
-184.8273828942714
 20
-0.0496468433520434
 30
0.0
 10
-184.8583416337599
 20
-0.8594103384716294
 30
0.0
 10
-184.8947122659717
 20
-1.264192824454579
 30
0.0
 10
-185.0630512140303
 20
-2.457712388048736
 30
0.0
 10
-185.2538887468833
 20
-3.234085117615176
 30
0.0
 10
-185.6576567912973
 20
-4.369878607677542
 30
0.0
 10
-185.8126935611587
 20
-4.744630395141125
 30
0.0
 10
-186.155236219553
 20
-5.467749325529486
 30
0.0
 10
-186.343354910005
 20
-5.818216841777261
 30
0.0
 10
-186.7523119437653
 20
-6.497682808579846
 30
0.0
 10
-186.9731526590818
 20
-6.826679577370579
 30
0.0
 10
-187.447579046047
 20
-7.463268813085963
 30
0.0
 10
-187.7023646710358
 20
-7.772111068184954
 30
0.0
 10
-188.2389422638138
 20
-8.360695794270194
 30
0.0
 10
-188.5203537216487
 20
-8.64034227504806
 30
0.0
 10
-189.1089920321092
 20
-9.170968858537984
 30
0.0
 10
-189.4174916041417
 20
-9.422853328964237
 30
0.0
 10
-190.3725370841487
 20
-10.12819961328003
 30
0.0
 10
-191.0443290059676
 20
-10.52977267965353
 30
0.0
 10
-192.1028135973206
 20
-11.033991815964
 30
0.0
 10
-192.4641696592046
 20
-11.18558445336885
 30
0.0
 10
-193.2043612873508
 20
-11.45516419369145
 30
0.0
 10
-193.5834273611547
 20
-11.57295221743823
 30
0.0
 10
-194.7235810166009
 20
-11.86857898028623
 30
0.0
 10
-195.4952693918532
 20
-11.99228707435601
 30
0.0
 10
-197.0620251800364
 20
-12.09355723336436
 30
0.0
 10
-197.8626571854978
 20
-12.06913464316293
 30
0.0
 10
-199.4243908775035
 20
-11.87122403573267
 30
0.0
 10
-200.1926049996594
 20
-11.69919794742816
 30
0.0
 10
-201.3251146586258
 20
-11.32810049067727
 30
0.0
 10
-201.7009271780986
 20
-11.18455759399481
 30
0.0
 10
-202.4306025307768
 20
-10.86440392627737
 30
0.0
 10
-202.7859337040191
 20
-10.68749500631632
 30
0.0
 10
-203.8236694351926
 20
-10.10691205255646
 30
0.0
 10
-204.4781063343288
 20
-9.653881086989966
 30
0.0
 10
-205.706991525415
 20
-8.607847226315933
 30
0.0
 10
-206.2618269801009
 20
-8.031265571040562
 30
0.0
 10
-207.0035435831221
 20
-7.091160075318194
 30
0.0
 10
-207.2357698600565
 20
-6.765005252172188
 30
0.0
 10
-207.6692445762104
 20
-6.08637531109938
 30
0.0
 10
-207.8709796711486
 20
-5.732482418705624
 30
0.0
 10
-208.4153680432963
 20
-4.654345914898667
 30
0.0
 10
-208.702677097603
 20
-3.907251811750303
 30
0.0
 10
-209.0200818919445
 20
-2.744162406781791
 30
0.0
 10
-209.1071051388822
 20
-2.347510680033753
 30
0.0
 10
-209.2399071327508
 20
-1.547884273237997
 30
0.0
 10
-209.2854133424468
 20
-1.147817239312399
 30
0.0
 10
-209.3611032462534
 20
0.05312253149502
 30
0.0
 10
-209.3310626428672
 20
0.8547265142516529
 30
0.0
 10
-209.1615475129329
 20
2.058644050808344
 30
0.0
 10
-209.0843149910423
 20
2.457453120065334
 30
0.0
 10
-208.8918305063013
 20
3.23799615004383
 30
0.0
 10
-208.6608319482992
 20
4.005230353129524
 30
0.0
 10
-208.3539521901459
 20
4.746216638611971
 30
0.0
 10
-208.0085752860714
 20
5.473869077252914
 30
0.0
 10
-207.8156283702636
 20
5.832443726853235
 30
0.0
 10
-207.1887998358263
 20
6.868328467214694
 30
0.0
 10
-206.7054827139222
 20
7.511543159510203
 30
0.0
 10
-206.1577168159203
 20
8.106496412194396
 30
0.0
  0
SPLINE
  5
C3
330
23
100
AcDbEntity
  8
0
  6
Continuous
 62
     7
370
    25
100
AcDbSpline
210
0.0
220
0.0
230
1.0
 70
    11
 71
     3
 72
   100
 73
    96
 74
     0
 42
0.000000001
 43
0.00000001
 40
0.0
 40
0.0
 40
0.0
 40
0.0
 40
0.0312500000000004
 40
0.0312500000000004
 40
0.0625000000000008
 40
0.0625000000000008
 40
0.0937500000000013
 40
0.0937500000000013
 40
0.1093750000000015
 40
0.1093750000000015
 40
0.1250000000000017
 40
0.1250000000000017
 40
0.1562500000000021
 40
0.1562500000000021
 40
0.1875000000000026
 40
0.1875000000000026
 40
0.2031250000000027
 40
0.2031250000000027
 40
0.2187500000000029
 40
0.2187500000000029
 40
0.2500000000000031
 40
0.2500000000000031
 40
0.2656250000000033
 40
0.2656250000000033
 40
0.2812500000000035
 40
0.2812500000000035
 40
0.3125000000000037
 40
0.3125000000000037
 40
0.3281250000000038
 40
0.3281250000000038
 40
0.3437500000000039
 40
0.3593750000000041
 40
0.3593750000000041
 40
0.3750000000000041
 40
0.3750000000000041
 40
0.4062500000000044
 40
0.4062500000000044
 40
0.4218750000000045
 40
0.4218750000000045
 40
0.4375000000000046
 40
0.4375000000000046
 40
0.4687500000000048
 40
0.4687500000000048
 40
0.484375000000005
 40
0.484375000000005
 40
0.5000000000000051
 40
0.5000000000000051
 40
0.5156250000000053
 40
0.5156250000000053
 40
0.5312500000000056
 40
0.5312500000000056
 40
0.5625000000000059
 40
0.5625000000000059
 40
0.578125000000006
 40
0.578125000000006
 40
0.593750000000006
 40
0.6093750000000061
 40
0.6093750000000061
 40
0.6250000000000062
 40
0.6250000000000062
 40
0.6562500000000062
 40
0.6562500000000062
 40
0.6718750000000061
 40
0.6718750000000061
 40
0.687500000000006
 40
0.687500000000006
 40
0.718750000000006
 40
0.718750000000006
 40
0.7343750000000059
 40
0.7343750000000059
 40
0.7500000000000057
 40
0.7500000000000057
 40
0.7812500000000052
 40
0.7812500000000052
 40
0.7968750000000049
 40
0.7968750000000049
 40
0.8125000000000046
 40
0.8125000000000046
 40
0.8281250000000042
 40
0.8281250000000042
 40
0.8437500000000039
 40
0.8437500000000039
 40
0.8750000000000031
 40
0.8750000000000031
 40
0.9062500000000023
 40
0.9062500000000023
 40
0.9375000000000014
 40
0.9375000000000014
 40
0.9531250000000011
 40
0.9531250000000011
 40
0.9687500000000008
 40
0.9687500000000008
 40
0.9843750000000004
 40
0.9843750000000004
 40
1.0
 40
1.0
 40
1.0
 40
1.0
 10
-33.26586354215962
 20
8.832401042796068
 30
0.0
 10
-32.67919456045007
 20
9.370837072903196
 30
0.0
 10
-32.04969512702446
 20
9.843606337280942
 30
0.0
 10
-30.70826877663298
 20
10.66422369163037
 30
0.0
 10
-29.9911872079981
 20
11.01269553599125
 30
0.0
 10
-28.52492772774789
 20
11.55997094772397
 30
0.0
 10
-27.77057922109973
 20
11.76294214927997
 30
0.0
 10
-26.60647129875269
 20
11.96009800093856
 30
0.0
 10
-26.21143608256238
 20
12.0077687547558
 30
0.0
 10
-25.42562137362514
 20
12.0647483599071
 30
0.0
 10
-25.03327520568997
 20
12.07446386540358
 30
0.0
 10
-23.85788002209253
 20
12.04818068346499
 30
0.0
 10
-23.0764480704227
 20
11.95728840341363
 30
0.0
 10
-21.51830943527858
 20
11.62097289986716
 30
0.0
 10
-20.76232435409352
 20
11.37954790993904
 30
0.0
 10
-19.67236053947986
 20
10.91290295108448
 30
0.0
 10
-19.31586421527915
 20
10.73969610553077
 30
0.0
 10
-18.61696180684627
 20
10.35701019913169
 30
0.0
 10
-18.27271420773494
 20
10.14617964324981
 30
0.0
 10
-17.27995241763772
 20
9.46874754504435
 30
0.0
 10
-16.66941731272129
 20
8.95797010343125
 30
0.0
 10
-15.83064822173951
 20
8.103527601652328
 30
0.0
 10
-15.5639852275688
 20
7.803900103264469
 30
0.0
 10
-15.05767190139051
 20
7.173786205152105
 30
0.0
 10
-14.82088101383436
 20
6.846650647945602
 30
0.0
 10
-14.16525373408489
 20
5.838992399137928
 30
0.0
 10
-13.79758795249979
 20
5.128726259151722
 30
0.0
 10
-13.35292942052405
 20
4.004283537257783
 30
0.0
 10
-13.22234954621111
 20
3.617821221243067
 30
0.0
 10
-13.00344363827369
 20
2.841777666517666
 30
0.0
 10
-12.82508269991817
 20
2.059221809928321
 30
0.0
 10
-12.72638801072509
 20
1.263879516251701
 30
0.0
 10
-12.66800976069944
 20
0.4620691399945302
 30
0.0
 10
-12.65904195578496
 20
0.0562015055677851
 30
0.0
 10
-12.69476937674779
 20
-1.159575558044994
 30
0.0
 10
-12.8003261716438
 20
-1.954703745249546
 30
0.0
 10
-13.076894449987
 20
-3.125114977544003
 30
0.0
 10
-13.18893888147513
 20
-3.511510096326632
 30
0.0
 10
-13.45381609079843
 20
-4.276606060439004
 30
0.0
 10
-13.60608165869376
 20
-4.652979360729462
 30
0.0
 10
-14.11335013368997
 20
-5.745748065252648
 30
0.0
 10
-14.52083645148639
 20
-6.433618659312215
 30
0.0
 10
-15.23529550642006
 20
-7.404664184020429
 30
0.0
 10
-15.49199144071771
 20
-7.719328601812319
 30
0.0
 10
-16.03214015870424
 20
-8.317684274610958
 30
0.0
 10
-16.31607587201819
 20
-8.602320076166462
 30
0.0
 10
-16.91128847189908
 20
-9.142823270611482
 30
0.0
 10
-17.22407397019488
 20
-9.399731077751325
 30
0.0
 10
-17.8682530081828
 20
-9.877780586311278
 30
0.0
 10
-18.19960272703236
 20
-10.09919459154393
 30
0.0
 10
-19.22037835450491
 20
-10.71238121643758
 30
0.0
 10
-19.93628497133954
 20
-11.05356088232679
 30
0.0
 10
-21.06368371859026
 20
-11.46228251137504
 30
0.0
 10
-21.44508990330993
 20
-11.57986720097426
 30
0.0
 10
-22.21109393397039
 20
-11.77664031890715
 30
0.0
 10
-22.98268366195999
 20
-11.93589317018547
 30
0.0
 10
-23.76518032009398
 20
-12.02140892591946
 30
0.0
 10
-24.55316841183927
 20
-12.0696813188646
 30
0.0
 10
-24.95184815043946
 20
-12.07503383739892
 30
0.0
 10
-26.13545741790411
 20
-12.03436603873089
 30
0.0
 10
-26.91146961617138
 20
-11.93315166473819
 30
0.0
 10
-28.05652780114504
 20
-11.67267367495023
 30
0.0
 10
-28.43503400743483
 20
-11.56761231102008
 30
0.0
 10
-29.18554603052408
 20
-11.31986038184277
 30
0.0
 10
-29.55403101872579
 20
-11.17821171740958
 30
0.0
 10
-30.62986674062016
 20
-10.70490468359809
 30
0.0
 10
-31.3121383689545
 20
-10.32396385858432
 30
0.0
 10
-32.28256016204439
 20
-9.652219589933294
 30
0.0
 10
-32.59877895857085
 20
-9.410001394259226
 30
0.0
 10
-33.20302913557963
 20
-8.89833277965354
 30
0.0
 10
-33.49101904913262
 20
-8.629271034622022
 30
0.0
 10
-34.31331762728234
 20
-7.782907463493714
 30
0.0
 10
-34.80638867960029
 20
-7.166837524982697
 30
0.0
 10
-35.45871830202479
 20
-6.159939145967934
 30
0.0
 10
-35.66055253009506
 20
-5.811372663852428
 30
0.0
 10
-36.02518030414387
 20
-5.102345300699615
 30
0.0
 10
-36.18923612055966
 20
-4.7400126411579
 30
0.0
 10
-36.48095232894389
 20
-3.999716971865101
 30
0.0
 10
-36.60861477147484
 20
-3.621754903163785
 30
0.0
 10
-36.8265667678562
 20
-2.849744488527759
 30
0.0
 10
-36.91723578012412
 20
-2.453172106859143
 30
0.0
 10
-37.12655665580903
 20
-1.259134066116253
 30
0.0
 10
-37.1840095857934
 20
-0.4598475112743208
 30
0.0
 10
-37.13776695309605
 20
1.14513363145864
 30
0.0
 10
-37.0308951406497
 20
1.958152116767156
 30
0.0
 10
-36.66220701133416
 20
3.518262232127785
 30
0.0
 10
-36.40158279399579
 20
4.273152710147737
 30
0.0
 10
-35.89576090472024
 20
5.367758373705457
 30
0.0
 10
-35.70825589749811
 20
5.724848299996098
 30
0.0
 10
-35.30344218593648
 20
6.410896187734399
 30
0.0
 10
-35.08526175084896
 20
6.741819225398883
 30
0.0
 10
-34.61809034751007
 20
7.380121213302205
 30
0.0
 10
-34.36909795983989
 20
7.68749891583866
 30
0.0
 10
-33.84010936251622
 20
8.278662190500143
 30
0.0
 10
-33.55919803301438
 20
8.563183027742516
 30
0.0
 10
-33.26586354215962
 20
8.832401042796068
 30
0.0
  0
CIRCLE
  5
C8
330
23
100
AcDbEntity
  8
0
  6
Continuous
 62
     7
370
    25
100
AcDbCircle
 10
-197.5000000009
 20
0.0
 30
0.0
 40
3.749999999999279
  0
CIRCLE
  5
C9
330
23
100
AcDbEntity
  8
0
  6
Continuous
 62
     7
370
    25
100
AcDbCircle
 10
-197.5000000009
 20
0.0
 30
0.0
 40
4.625555630288362
  0
CIRCLE
  5
CA
330
23
100
AcDbEntity
  8
0
  6
Continuous
 62
     7
370
    25
100
AcDbCircle
 10
-24.4999999991
 20
0.0
 30
0.0
 40
4.625555630288326
  0
CIRCLE
  5
CB
330
23
100
AcDbEntity
  8
0
  6
Continuous
 62
     7
370
    25
100
AcDbCircle
 10
-24.4999999991
 20
0.0
 30
0.0
 40
3.749999999999256
  0
LINE
  5
CC
330
23
100
AcDbEntity
  8
0
  6
Continuous
 62
     7
370
    25
100
AcDbLine
 10
-47.0
 20
-135.0
 30
0.0
 11
0.0
 21
-125.0098416015
 31
0.0
  0
LINE
  5
CD
330
23
100
AcDbEntity
  8
0
  6
Continuous
 62
     7
370
    25
100
AcDbLine
 10
0.0
 20
125.0098416015
 30
0.0
 11
-47.0
 21
135.0
 31
0.0
  0
LINE
  5
CE
330
23
100
AcDbEntity
  8
0
  6
Continuous
 62
     7
370
    25
100
AcDbLine
 10
-47.0
 20
135.0
 30
0.0
 11
-175.0
 21
135.0
 31
0.0
  0
LINE
  5
CF
330
23
100
AcDbEntity
  8
0
  6
Continuous
 62
     7
370
    25
100
AcDbLine
 10
-175.0
 20
-135.0
 30
0.0
 11
-47.0
 21
-135.0
 31
0.0
  0
LINE
  5
D0
330
23
100
AcDbEntity
  8
0
  6
Continuous
 62
     7
370
    25
100
AcDbLine
 10
-175.0
 20
135.0
 30
0.0
 11
-222.0
 21
125.0098416015
 31
0.0
  0
LINE
  5
D1
330
23
100
AcDbEntity
  8
0
  6
Continuous
 62
     7
370
    25
100
AcDbLine
 10
-222.0
 20
-125.0098416015
 30
0.0
 11
-175.0
 21
-135.0
 31
0.0
  0
LINE
  5
D2
330
23
100
AcDbEntity
  8
0
  6
Continuous
 62
     7
370
    25
100
AcDbLine
 10
0.0
 20
125.0098416015
 30
0.0
 11
0.0
 21
-125.0098416015
 31
0.0
  0
LINE
  5
D3
330
23
100
AcDbEntity
  8
0
  6
Continuous
 62
     7
370
    25
100
AcDbLine
 10
-47.0
 20
135.0
 30
0.0
 11
-47.0
 21
-135.0
 31
0.0
  0
LINE
  5
D4
330
23
100
AcDbEntity
  8
0
  6
Continuous
 62
     7
370
    25
100
AcDbLine
 10
-175.0
 20
135.0
 30
0.0
 11
-175.0
 21
-135.0
 31
0.0
  0
LINE
  5
D5
330
23
100
AcDbEntity
  8
0
  6
Continuous
 62
     7
370
    25
100
AcDbLine
 10
-222.0
 20
125.0098416015
 30
0.0
 11
-222.0
 21
-125.0098416015
 31
0.0
  0
VIEWPORT
  5
D8
330
23
100
AcDbEntity
  8
0
100
AcDbViewport
 10
0.0
 20
0.0
 30
0.0
 40
205.6
 41
156.0
 68
     1
 69
     1
 12
-111.0
 22
7.35
 13
0.0
 23
0.0
 14
10.0
 24
10.0
 15
10.0
 25
10.0
 16
0.0
 26
0.0
 36
1.0
 17
0.0
 27
0.0
 37
0.0
 42
50.0
 43
0.0
 44
0.0
 45
290.394
 50
0.0
 51
0.0
 72
   100
 90
   557152
  1

281
     0
 71
     1
 74
     0
110
0.0
120
0.0
130
0.0
111
1.0
121
0.0
131
0.0
112
0.0
122
1.0
132
0.0
 79
     0
146
0.0
  0
ENDBLK
  5
25
330
23
100
AcDbEntity
  8
0
100
AcDbBlockEnd
  0
ENDSEC
  0
SECTION
  2
ENTITIES
  0
SPLINE
  5
7B
330
1F
100
AcDbEntity
  8
0
  6
Continuous
 62
     7
370
    25
100
AcDbSpline
210
0.0
220
0.0
230
1.0
 70
     8
 71
     3
 72
    16
 73
    12
 74
     0
 42
0.000000001
 43
0.00000001
 40
0.0
 40
0.0
 40
0.0
 40
0.0
 40
0.0620469108180224
 40
0.2673981770790428
 40
0.4553122259449313
 40
0.6086865214100292
 40
0.7388660248707927
 40
0.8475810674443139
 40
0.9341521318758154
 40
0.9970237754886959
 40
1.0
 40
1.0
 40
1.0
 40
1.0
 10
-34.77459150175971
 20
134.8123095235867
 30
0.0
 10
-34.76945087445371
 20
134.7405267960815
 30
0.0
 10
-34.74729675988868
 20
134.4311710162758
 30
0.0
 10
-34.95197412902601
 20
133.9194441319922
 30
0.0
 10
-35.33198711067764
 20
133.4101968116862
 30
0.0
 10
-35.78359521605162
 20
133.0908079083297
 30
0.0
 10
-36.2087622913994
 20
132.9249850854898
 30
0.0
 10
-36.58212915009282
 20
132.8623084264329
 30
0.0
 10
-36.88093075564822
 20
132.8656023590111
 30
0.0
 10
-37.05669095882076
 20
132.8857064986638
 30
0.0
 10
-37.13074294326743
 20
132.9025466444848
 30
0.0
 10
-37.13408998148596
 20
132.9033077937247
 30
0.0
  0
SPLINE
  5
7C
330
1F
100
AcDbEntity
  8
0
  6
Continuous
 62
     7
370
    25
100
AcDbSpline
210
0.0
220
0.0
230
1.0
 70
     8
 71
     3
 72
    11
 73
     7
 74
     0
 42
0.000000001
 43
0.00000001
 40
0.0
 40
0.0
 40
0.0
 40
0.0
 40
0.2487846536749603
 40
0.5609726337299212
 40
0.8427579264250185
 40
1.0
 40
1.0
 40
1.0
 40
1.0
 10
-12.96820315266267
 20
127.8087831536329
 30
0.0
 10
-13.15087267466378
 20
127.8914122897411
 30
0.0
 10
-13.56276545561087
 20
128.0777287824216
 30
0.0
 10
-13.99520942919688
 20
128.6164292602701
 30
0.0
 10
-14.23977717276341
 20
129.1833435279451
 30
0.0
 10
-14.22427152047839
 20
129.535594586811
 30
0.0
 10
-14.21871801492328
 20
129.661756851787
 30
0.0
  0
SPLINE
  5
7D
330
1F
100
AcDbEntity
  8
0
  6
Continuous
 62
     7
370
    25
100
AcDbSpline
210
0.0
220
0.0
230
1.0
 70
     8
 71
     3
 72
    14
 73
    10
 74
     0
 42
0.000000001
 43
0.00000001
 40
0.0
 40
0.0
 40
0.0
 40
0.0
 40
0.1884252114524256
 40
0.4029753777775936
 40
0.5829986613938762
 40
0.7352952048498965
 40
0.8601429812766472
 40
0.9560231633126469
 40
0.9999999999999999
 40
0.9999999999999999
 40
0.9999999999999999
 40
0.9999999999999999
 10
-207.7791770347232
 20
129.6883460756956
 30
0.0
 10
-207.7771608622145
 20
129.5151293594463
 30
0.0
 10
-207.7728489770261
 20
129.144679613736
 30
0.0
 10
-207.9985365646004
 20
128.6474647343064
 30
0.0
 10
-208.3029951671229
 20
128.250755983521
 30
0.0
 10
-208.6293870457495
 20
127.986217416429
 30
0.0
 10
-208.9301904070076
 20
127.8260899109009
 30
0.0
 10
-209.1573704839507
 20
127.7425492749647
 30
0.0
 10
-209.2817480898077
 20
127.7150888343481
 30
0.0
 10
-209.3208575582511
 20
127.7064541349716
 30
0.0
  0
SPLINE
  5
7E
330
1F
100
AcDbEntity
  8
0
  6
Continuous
 62
     7
370
    25
100
AcDbSpline
210
0.0
220
0.0
230
1.0
 70
     8
 71
     3
 72
    13
 73
     9
 74
     0
 42
0.000000001
 43
0.00000001
 40
0.0
 40
0.0
 40
0.0
 40
0.0
 40
0.0685997133176075
 40
0.2209786560271396
 40
0.4187439909775179
 40
0.6191427353525537
 40
0.8401097048269602
 40
1.0
 40
1.0
 40
1.0
 40
1.0
 10
-185.1803795617261
 20
132.8834850644163
 30
0.0
 10
-185.2532850655317
 20
132.8769486522076
 30
0.0
 10
-185.4881338640006
 20
132.8558930600591
 30
0.0
 10
-185.9296291467305
 20
132.9626308151349
 30
0.0
 10
-186.4604287076453
 20
133.2277881100835
 30
0.0
 10
-186.9228217114038
 20
133.7085763943224
 30
0.0
 10
-187.2147326299026
 20
134.279017745668
 30
0.0
 10
-187.2205116577938
 20
134.6877379255536
 30
0.0
 10
-187.2229377910492
 20
134.8593255418895
 30
0.0
  0
SPLINE
  5
85
330
1F
100
AcDbEntity
  8
0
  6
Continuous
 62
     7
370
    25
100
AcDbSpline
210
0.0
220
0.0
230
1.0
 70
     8
 71
     3
 72
    27
 73
    23
 74
     0
 42
0.000000001
 43
0.00000001
 40
0.0
 40
0.0
 40
0.0
 40
0.0
 40
0.0178042126220161
 40
0.0677011596648151
 40
0.1190741138154128
 40
0.1694100531308298
 40
0.221138935398632
 40
0.2860795603727686
 40
0.341207288163213
 40
0.3979177213734986
 40
0.4532129848317274
 40
0.5100687996396739
 40
0.5652953657023404
 40
0.6221343929474953
 40
0.6761466325444493
 40
0.7317584040683558
 40
0.7844413583799833
 40
0.838689573234498
 40
0.8905517572994468
 40
0.9439624200242923
 40
0.9955269253693521
 40
1.0
 40
1.0
 40
1.0
 40
1.0
 10
-184.8733713725856
 20
132.8978495968357
 30
0.0
 10
-184.8624883855095
 20
132.9011344244256
 30
0.0
 10
-184.8211054352321
 20
132.9136250996302
 30
0.0
 10
-185.086832708165
 20
132.8333710137032
 30
0.0
 10
-185.6510259593674
 20
132.6646637078762
 30
0.0
 10
-186.5399350425744
 20
132.4033887877826
 30
0.0
 10
-187.7895423166196
 20
132.0451359046797
 30
0.0
 10
-189.3736067138223
 20
131.6070477294697
 30
0.0
 10
-191.2474377772218
 20
131.1135269699028
 30
0.0
 10
-193.1855791281143
 20
130.6294136957821
 30
0.0
 10
-195.2563093611689
 20
130.1429168451695
 30
0.0
 10
-197.366656437648
 20
129.6801061058337
 30
0.0
 10
-199.4945501801031
 20
129.2475296019252
 30
0.0
 10
-201.5265906854173
 20
128.8668473935799
 30
0.0
 10
-203.4411185324817
 20
128.5372363786049
 30
0.0
 10
-205.134505985686
 20
128.2694511154584
 30
0.0
 10
-206.6042466077105
 20
128.0551237809186
 30
0.0
 10
-207.7741573414778
 20
127.8966204044922
 30
0.0
 10
-208.6575209751073
 20
127.78409095091
 30
0.0
 10
-209.1663185862784
 20
127.7220486699145
 30
0.0
 10
-209.3812197110786
 20
127.6963977491703
 30
0.0
 10
-209.3250143993895
 20
127.703145201043
 30
0.0
 10
-209.3205279359496
 20
127.7036838013146
 30
0.0
  0
SPLINE
  5
88
330
1F
100
AcDbEntity
  8
0
  6
Continuous
 62
     7
370
    25
100
AcDbSpline
210
0.0
220
0.0
230
1.0
 70
     8
 71
     3
 72
    27
 73
    23
 74
     0
 42
0.000000001
 43
0.00000001
 40
0.0
 40
0.0
 40
0.0
 40
0.0
 40
0.0041659954486689
 40
0.0557272901282505
 40
0.1088291642256416
 40
0.1605743056823988
 40
0.2138415369111593
 40
0.2798200361900425
 40
0.3331346071082913
 40
0.3879921009176557
 40
0.4414644418130562
 40
0.4964032959817117
 40
0.5506635676196792
 40
0.6063982236510748
 40
0.6614724684073539
 40
0.7181129965594603
 40
0.7728948797816435
 40
0.8293523081837856
 40
0.8823812059524245
 40
0.9371064397468162
 40
0.9879483527731467
 40
1.0
 40
1.0
 40
1.0
 40
1.0
 10
-12.67863432419891
 20
127.7035833931008
 30
0.0
 10
-12.67441639115828
 20
127.7030769825841
 30
0.0
 10
-12.61799434720914
 20
127.6963028787393
 30
0.0
 10
-12.831250526475
 20
127.7217583671141
 30
0.0
 10
-13.33536952261574
 20
127.7832148907578
 30
0.0
 10
-14.20712152150712
 20
127.8941975187123
 30
0.0
 10
-15.45904705360991
 20
128.0635653918841
 30
0.0
 10
-17.04906845444173
 20
128.2965216526355
 30
0.0
 10
-18.90487032956373
 20
128.5948568383034
 30
0.0
 10
-20.78946255248253
 20
128.9242066965298
 30
0.0
 10
-22.7985233370446
 20
129.305432330309
 30
0.0
 10
-24.85094562799387
 20
129.7265678190394
 30
0.0
 10
-26.9265065440382
 20
130.1847825362476
 30
0.0
 10
-28.9447753355189
 20
130.6612201300892
 30
0.0
 10
-30.87690839383313
 20
131.1455120908787
 30
0.0
 10
-32.63078739850459
 20
131.6088863933831
 30
0.0
 10
-34.17869666626669
 20
132.0363065245229
 30
0.0
 10
-35.42788553363985
 20
132.3938543579465
 30
0.0
 10
-36.38009154037142
 20
132.6738355152129
 30
0.0
 10
-36.94689961715711
 20
132.8435231045371
 30
0.0
 10
-37.19348796610282
 20
132.9180288729474
 30
0.0
 10
-37.14466625320004
 20
132.9032960758202
 30
0.0
 10
-37.1353110496061
 20
132.9004729811674
 30
0.0
  0
SPLINE
  5
8D
330
1F
100
AcDbEntity
  8
0
  6
Continuous
 62
     8
370
    25
100
AcDbSpline
210
0.0
220
0.0
230
1.0
 70
     8
 71
     3
 72
    22
 73
    18
 74
     0
 42
0.000000001
 43
0.00000001
 40
0.0
 40
0.0
 40
0.0
 40
0.0
 40
0.0631626632795053
 40
0.1164260950994257
 40
0.1714248800068342
 40
0.226461602402183
 40
0.2832040132026458
 40
0.3384582850152669
 40
0.3952908465829438
 40
0.5049576023545027
 40
0.6127607253586748
 40
0.6659341090706725
 40
0.7206596819153093
 40
0.7865816005155162
 40
0.8914069205042562
 40
0.9961482767343487
 40
1.0
 40
1.0
 40
1.0
 40
1.0
 10
-34.6173537128013
 20
134.8179872964856
 30
0.0
 10
-34.63464909070617
 20
134.8241685451136
 30
0.0
 10
-34.66652921114729
 20
134.8355622800075
 30
0.0
 10
-34.08374064652839
 20
134.6259021646233
 30
0.0
 10
-33.31896351946087
 20
134.3561018975991
 30
0.0
 10
-32.26179169700519
 20
133.992870580378
 30
0.0
 10
-30.98347953720559
 20
133.5692806048167
 30
0.0
 10
-29.50361970075258
 20
133.1003776318451
 30
0.0
 10
-27.37230175921662
 20
132.4596587710308
 30
0.0
 10
-24.47682274074919
 20
131.6652096683489
 30
0.0
 10
-21.59535267999957
 20
130.9872100976074
 30
0.0
 10
-19.48450197744942
 20
130.5474293145795
 30
0.0
 10
-17.93027857435059
 20
130.249790220408
 30
0.0
 10
-16.17661680030293
 20
129.9453434072796
 30
0.0
 10
-14.76785280619544
 20
129.7303573652266
 30
0.0
 10
-14.07541716795506
 20
129.6331940176286
 30
0.0
 10
-14.26357355322402
 20
129.6602947173966
 30
0.0
 10
-14.27024733326679
 20
129.6612559609335
 30
0.0
  0
SPLINE
  5
8E
330
1F
100
AcDbEntity
  8
0
  6
Continuous
 62
     8
370
    25
100
AcDbSpline
210
0.0
220
0.0
230
1.0
 70
     8
 71
     3
 72
    22
 73
    18
 74
     0
 42
0.000000001
 43
0.00000001
 40
0.0
 40
0.0
 40
0.0
 40
0.0
 40
0.0561852698567475
 40
0.1614456799404067
 40
0.2680211539470483
 40
0.3218949567686626
 40
0.3774058187543126
 40
0.4324919816665709
 40
0.4892353251914128
 40
0.5445440147590631
 40
0.6014348279127942
 40
0.6567614053117496
 40
0.7136583622154639
 40
0.7789190751684368
 40
0.8811641350571162
 40
0.982538429789825
 40
1.0
 40
1.0
 40
1.0
 40
1.0
 10
-207.6070549904973
 20
129.678630982209
 30
0.0
 10
-207.6306488742856
 20
129.6752483943836
 30
0.0
 10
-207.6984447684826
 20
129.6655286903966
 30
0.0
 10
-206.5444868363436
 20
129.8307875653423
 30
0.0
 10
-204.7236680219769
 20
130.1295649857988
 30
0.0
 10
-202.8343542705525
 20
130.4841847779634
 30
0.0
 10
-201.2495089600318
 20
130.8087262371753
 30
0.0
 10
-199.5333494561891
 20
131.191751358627
 30
0.0
 10
-197.768172573056
 20
131.6198654586038
 30
0.0
 10
-195.9854300111743
 20
132.086908303968
 30
0.0
 10
-194.2671139166888
 20
132.5697083308325
 30
0.0
 10
-192.6297452466046
 20
133.0592053169439
 30
0.0
 10
-191.0600432899103
 20
133.5544121760106
 30
0.0
 10
-189.3339102393764
 20
134.1270621159757
 30
0.0
 10
-187.8483244003886
 20
134.6482964769495
 30
0.0
 10
-187.221875846728
 20
134.8761896458277
 30
0.0
 10
-187.2733639484239
 20
134.857513009269
 30
0.0
 10
-187.2809295356579
 20
134.8547686912913
 30
0.0
  0
LINE
  5
8F
330
1F
100
AcDbEntity
  8
0
  6
Continuous
 62
     7
370
    25
100
AcDbLine
 10
-209.3207847466
 20
127.7048920004
 30
0.0
 11
-222.0
 21
125.0098416015
 31
0.0
  0
LINE
  5
90
330
1F
100
AcDbEntity
  8
0
  6
Continuous
 62
     7
370
    25
100
AcDbLine
 10
-175.0
 20
135.0
 30
0.0
 11
-184.8740832699
 21
132.9011988105
 31
0.0
  0
LINE
  5
91
330
1F
100
AcDbEntity
  8
0
  6
Continuous
 62
     7
370
    25
100
AcDbLine
 10
-222.0
 20
-125.0098416015
 30
0.0
 11
-175.0
 21
-135.0
 31
0.0
  0
LINE
  5
92
330
1F
100
AcDbEntity
  8
0
  6
Continuous
 62
     7
370
    25
100
AcDbLine
 10
-47.0
 20
-135.0
 30
0.0
 11
0.0
 21
-125.0098416015
 31
0.0
  0
LINE
  5
93
330
1F
100
AcDbEntity
  8
0
  6
Continuous
 62
     7
370
    25
100
AcDbLine
 10
-37.1347573481
 20
132.9030779419
 30
0.0
 11
-47.0
 21
135.0
 31
0.0
  0
LINE
  5
94
330
1F
100
AcDbEntity
  8
0
  6
Continuous
 62
     7
370
    25
100
AcDbLine
 10
0.0
 20
125.0098416015
 30
0.0
 11
-12.6783933069
 21
127.7047172903
 31
0.0
  0
LINE
  5
95
330
1F
100
AcDbEntity
  8
0
  6
Continuous
 62
     7
370
    25
100
AcDbLine
 10
-47.0
 20
135.0
 30
0.0
 11
-175.0
 21
135.0
 31
0.0
  0
LINE
  5
96
330
1F
100
AcDbEntity
  8
0
  6
Continuous
 62
     7
370
    25
100
AcDbLine
 10
-175.0
 20
-135.0
 30
0.0
 11
-47.0
 21
-135.0
 31
0.0
  0
LINE
  5
97
330
1F
100
AcDbEntity
  8
0
  6
Continuous
 62
     7
370
    25
100
AcDbLine
 10
-34.7499999991
 20
149.7
 30
0.0
 11
-34.7499999991
 21
134.8178886056
 31
0.0
  0
LINE
  5
98
330
1F
100
AcDbEntity
  8
0
  6
Continuous
 62
     7
370
    25
100
AcDbLine
 10
-14.2499999991
 20
129.6614516367
 30
0.0
 11
-14.2499999991
 21
149.7
 31
0.0
  0
LINE
  5
99
330
1F
100
AcDbEntity
  8
0
  6
Continuous
 62
     7
370
    25
100
AcDbLine
 10
-207.7500000009
 20
149.7
 30
0.0
 11
-207.7500000009
 21
129.6786350535
 31
0.0
  0
LINE
  5
9A
330
1F
100
AcDbEntity
  8
0
  6
Continuous
 62
     7
370
    25
100
AcDbLine
 10
-187.2500000009
 20
134.8546508068
 30
0.0
 11
-187.2500000009
 21
149.7
 31
0.0
  0
LINE
  5
9B
330
1F
100
AcDbEntity
  8
0
  6
Continuous
 62
     7
370
    25
100
AcDbLine
 10
-175.0
 20
135.0
 30
0.0
 11
-175.0
 21
-135.0
 31
0.0
  0
LINE
  5
9C
330
1F
100
AcDbEntity
  8
0
  6
Continuous
 62
     7
370
    25
100
AcDbLine
 10
-222.0
 20
125.0098416015
 30
0.0
 11
-222.0
 21
-125.0098416015
 31
0.0
  0
LINE
  5
9D
330
1F
100
AcDbEntity
  8
0
  6
Continuous
 62
     7
370
    25
100
AcDbLine
 10
0.0
 20
125.0098416015
 30
0.0
 11
0.0
 21
-125.0098416015
 31
0.0
  0
LINE
  5
9E
330
1F
100
AcDbEntity
  8
0
  6
Continuous
 62
     7
370
    25
100
AcDbLine
 10
-47.0
 20
135.0
 30
0.0
 11
-47.0
 21
-135.0
 31
0.0
  0
LINE
  5
9F
330
1F
100
AcDbEntity
  8
0
  6
Continuous
 62
     7
370
    25
100
AcDbLine
 10
-34.7499999991
 20
149.7
 30
0.0
 11
-14.2499999991
 21
149.7
 31
0.0
  0
LINE
  5
A0
330
1F
100
AcDbEntity
  8
0
  6
Continuous
 62
     7
370
    25
100
AcDbLine
 10
-187.2500000009
 20
149.7
 30
0.0
 11
-207.7500000009
 21
149.7
 31
0.0
  0
SPLINE
  5
A1
330
1B
100
AcDbEntity
 67
     1
  8
0
  6
Continuous
 62
     7
370
    25
100
AcDbSpline
210
0.0
220
0.0
230
1.0
 70
     8
 71
     3
 72
    11
 73
     7
 74
     0
 42
0.000000001
 43
0.00000001
 40
0.0
 40
0.0
 40
0.0
 40
0.0
 40
0.2203297878443606
 40
0.6082514270832288
 40
0.9639728188136629
 40
1.0
 40
1.0
 40
1.0
 40
1.0
 10
-10.27762743173268
 20
131.7117813779714
 30
0.0
 10
-10.27373072546234
 20
131.6000765179512
 30
0.0
 10
-10.26297331869929
 20
131.2916995109917
 30
0.0
 10
-10.4318876421555
 20
130.9903540934453
 30
0.0
 10
-10.53412158744572
 20
130.8888175655985
 30
0.0
 10
-10.50596690657363
 20
130.9112082880943
 30
0.0
 10
-10.5033776596455
 20
130.9132674522419
 30
0.0
  0
SPLINE
  5
A2
330
1B
100
AcDbEntity
 67
     1
  8
0
  6
Continuous
 62
     7
370
    25
100
AcDbSpline
210
0.0
220
0.0
230
1.0
 70
     8
 71
     3
 72
    11
 73
     7
 74
     0
 42
0.000000001
 43
0.00000001
 40
0.0
 40
0.0
 40
0.0
 40
0.0
 40
0.0835262396678935
 40
0.4450509369292179
 40
0.8082446182532008
 40
1.0
 40
1.0
 40
1.0
 40
1.0
 10
10.4943304015691
 20
130.9211529737517
 30
0.0
 10
10.49903327330143
 20
130.9171861440595
 30
0.0
 10
10.52409147631712
 20
130.896049776875
 30
0.0
 10
10.4167119547278
 20
131.0165105915822
 30
0.0
 10
10.25712027576174
 20
131.320840813862
 30
0.0
 10
10.27475015994337
 20
131.6017044808017
 30
0.0
 10
10.28084193556092
 20
131.6987532430337
 30
0.0
  0
CIRCLE
  5
A7
330
1B
100
AcDbEntity
 67
     1
  8
0
  6
Continuous
 62
     7
370
    25
100
AcDbCircle
 10
0.0
 20
0.0
 30
0.0
 40
125.009841601509
  0
CIRCLE
  5
A8
330
1B
100
AcDbEntity
 67
     1
  8
0
  6
Continuous
 62
     7
370
    25
100
AcDbCircle
 10
0.0
 20
0.0
 30
0.0
 40
114.6499999987924
  0
CIRCLE
  5
A9
330
1B
100
AcDbEntity
 67
     1
  8
0
  6
Continuous
 62
     7
370
    25
100
AcDbCircle
 10
0.0
 20
0.0
 30
0.0
 40
112.9697005924789
  0
CIRCLE
  5
AA
330
1B
100
AcDbEntity
 67
     1
  8
0
  6
Continuous
 62
     7
370
    25
100
AcDbCircle
 10
0.0
 20
0.0
 30
0.0
 40
112.4999999999999
  0
SPLINE
  5
AC
330
1B
100
AcDbEntity
 67
     1
  8
0
  6
Continuous
 62
     8
370
    25
100
AcDbSpline
210
0.0
220
0.0
230
1.0
 70
     8
 71
     3
 72
    16
 73
    12
 74
     0
 42
0.000000001
 43
0.00000001
 40
0.0
 40
0.0
 40
0.0
 40
0.0
 40
0.0631809168482234
 40
0.1819650510215138
 40
0.3040939349997876
 40
0.4244740812691797
 40
0.5481387338839472
 40
0.6707896634914726
 40
0.7967609997409985
 40
0.9215275065233303
 40
1.0
 40
1.0
 40
1.0
 40
1.0
 10
-8.106496412194398
 20
128.1210211522209
 30
0.0
 10
-8.362261566989762
 20
128.1572568245515
 30
0.0
 10
-9.098881447857675
 20
128.2616178609745
 30
0.0
 10
-10.14007106237403
 20
128.4751132451358
 30
0.0
 10
-11.10141373429789
 20
128.777476429164
 30
0.0
 10
-11.7581954709477
 20
129.1341455835962
 30
0.0
 10
-12.08628224423513
 20
129.5352603571619
 30
0.0
 10
-12.08063697473085
 20
129.9787205922002
 30
0.0
 10
-11.7186641340947
 20
130.446742370064
 30
0.0
 10
-11.14767390793158
 20
130.8699899158257
 30
0.0
 10
-10.57173104022708
 20
131.1217708398735
 30
0.0
 10
-10.34935407088911
 20
131.2189858276205
 30
0.0
  0
SPLINE
  5
AD
330
1B
100
AcDbEntity
 67
     1
  8
0
  6
Continuous
 62
     8
370
    25
100
AcDbSpline
210
0.0
220
0.0
230
1.0
 70
     8
 71
     3
 72
    24
 73
    20
 74
     0
 42
0.000000001
 43
0.00000001
 40
0.0
 40
0.0
 40
0.0
 40
0.0
 40
0.0147028338415069
 40
0.077517835738192
 40
0.13876533258109
 40
0.2017413656111285
 40
0.2629127701586893
 40
0.3258702085364054
 40
0.3856965710003678
 40
0.4472946462751416
 40
0.5056486331462496
 40
0.565736372316616
 40
0.623181237502642
 40
0.6823412666268047
 40
0.7394564096030728
 40
0.7982824530294113
 40
0.8554520346820014
 40
0.9143214848172377
 40
1.0
 40
1.0
 40
1.0
 40
1.0
 10
10.34599211092262
 20
131.2254821680195
 30
0.0
 10
10.43867378083198
 20
131.1888314393837
 30
0.0
 10
10.92731988412209
 20
130.9955975912221
 30
0.0
 10
11.49012695161208
 20
130.6281410737522
 30
0.0
 10
11.99923396165066
 20
130.1432651487891
 30
0.0
 10
12.12475141987297
 20
129.6800146881262
 30
0.0
 10
11.89452314284273
 20
129.2475549062584
 30
0.0
 10
11.31052799828316
 20
128.8668398414758
 30
0.0
 10
10.38464288856554
 20
128.5372422234274
 30
0.0
 10
9.172782734932921
 20
128.2694351602927
 30
0.0
 10
7.6856173289959
 20
128.0551790450741
 30
0.0
 10
6.00619605817404
 20
127.8964113449209
 30
0.0
 10
4.142096117140388
 20
127.7848416733979
 30
0.0
 10
2.187154877155507
 20
127.7191918867923
 30
0.0
 10
0.1534929608045157
 20
127.6953718643475
 30
0.0
 10
-1.863898371870147
 20
127.7123687114772
 30
0.0
 10
-3.840764086672609
 20
127.772583372857
 30
0.0
 10
-6.014306800952651
 20
127.8875026316675
 30
0.0
 10
-7.327890497783083
 20
128.0341175081867
 30
0.0
 10
-8.106496412194398
 20
128.1210211522209
 30
0.0
  0
SPLINE
  5
AE
330
1B
100
AcDbEntity
 67
     1
  8
0
  6
Continuous
 62
     8
370
    25
100
AcDbSpline
210
0.0
220
0.0
230
1.0
 70
     8
 71
     3
 72
    17
 73
    13
 74
     0
 42
0.000000001
 43
0.00000001
 40
0.0
 40
0.0
 40
0.0
 40
0.0
 40
0.1063481156821105
 40
0.2502466459983561
 40
0.3942060816415301
 40
0.538774737764595
 40
0.685149552764586
 40
0.7591418853801402
 40
0.8353826174000907
 40
0.9110400515376923
 40
0.9889735206434648
 40
0.9999999999999999
 40
0.9999999999999999
 40
0.9999999999999999
 40
0.9999999999999999
 10
-6.886350336275698
 20
130.0734121865055
 30
0.0
 10
-6.223407683979117
 20
129.9877299098679
 30
0.0
 10
-4.663444217185122
 20
129.7861118349959
 30
0.0
 10
-1.612846931622099
 20
129.6507049988218
 30
0.0
 10
1.867465262892581
 20
129.6538633104812
 30
0.0
 10
5.166422633293155
 20
129.8257135451958
 30
0.0
 10
7.437185476776264
 20
130.1301435416325
 30
0.0
 10
8.80983592621616
 20
130.4841723045347
 30
0.0
 10
9.599462965140335
 20
130.8083131942111
 30
0.0
 10
10.08123100421559
 20
131.1934177223138
 30
0.0
 10
10.28524867138664
 20
131.4946460726095
 30
0.0
 10
10.23744914819549
 20
131.6734555186521
 30
0.0
 10
10.23152445438856
 20
131.6956187359158
 30
0.0
  0
SPLINE
  5
AF
330
1B
100
AcDbEntity
 67
     1
  8
0
  6
Continuous
 62
     8
370
    25
100
AcDbSpline
210
0.0
220
0.0
230
1.0
 70
     8
 71
     3
 72
    11
 73
     7
 74
     0
 42
0.000000001
 43
0.00000001
 40
0.0
 40
0.0
 40
0.0
 40
0.0
 40
0.0933314032266447
 40
0.4967324922700666
 40
0.8950282726082628
 40
0.9999999999999999
 40
0.9999999999999999
 40
0.9999999999999999
 40
0.9999999999999999
 10
-10.14805775899861
 20
131.6961770497293
 30
0.0
 10
-10.1786842235059
 20
131.6267714244903
 30
0.0
 10
-10.34168573766058
 20
131.2573777583644
 30
0.0
 10
-9.509155823244374
 20
130.7124484530415
 30
0.0
 10
-8.1466012768746
 20
130.2817723938919
 30
0.0
 10
-7.103848173545707
 20
130.1093716077762
 30
0.0
 10
-6.886350336275698
 20
130.0734121865055
 30
0.0
  0
LINE
  5
B0
330
1B
100
AcDbEntity
 67
     1
  8
0
  6
Continuous
 62
     7
370
    25
100
AcDbLine
 10
-10.25
 20
149.7
 30
0.0
 11
-10.25
 21
131.7026384487
 31
0.0
  0
LINE
  5
B1
330
1B
100
AcDbEntity
 67
     1
  8
0
  6
Continuous
 62
     7
370
    25
100
AcDbLine
 10
10.25
 20
131.6953927489
 30
0.0
 11
10.25
 21
149.7
 31
0.0
  0
LINE
  5
B2
330
1B
100
AcDbEntity
 67
     1
  8
0
  6
Continuous
 62
     7
370
    25
100
AcDbLine
 10
10.25
 20
149.7
 30
0.0
 11
-10.25
 21
149.7
 31
0.0
  0
ARC
  5
B3
330
1B
100
AcDbEntity
 67
     1
  8
0
  6
Continuous
 62
     7
370
    25
100
AcDbCircle
 10
0.0
 20
0.0
 30
0.0
 40
135.0
100
AcDbArc
 50
94.3544256581
 51
85.6455743419
  0
VIEWPORT
  5
D6
330
1B
100
AcDbEntity
 67
     1
  8
0
100
AcDbViewport
 10
0.0
 20
0.0
 30
0.0
 40
205.6
 41
156.0
 68
     1
 69
     1
 12
-111.0
 22
7.35
 13
0.0
 23
0.0
 14
10.0
 24
10.0
 15
10.0
 25
10.0
 16
0.0
 26
0.0
 36
1.0
 17
0.0
 27
0.0
 37
0.0
 42
50.0
 43
0.0
 44
0.0
 45
290.394
 50
0.0
 51
0.0
 72
   100
 90
   557152
  1

281
     0
 71
     1
 74
     0
110
0.0
120
0.0
130
0.0
111
1.0
121
0.0
131
0.0
112
0.0
122
1.0
132
0.0
 79
     0
146
0.0
  0
ENDSEC
  0
SECTION
  2
OBJECTS
  0
DICTIONARY
  5
C
330
0
100
AcDbDictionary
281
     1
  3
ACAD_GROUP
350
D
  3
ACAD_LAYOUT
350
1A
  3
ACAD_MLINESTYLE
350
17
  3
ACAD_PLOTSETTINGS
350
19
  3
ACAD_PLOTSTYLENAME
350
E
  3
ACAD_SCALELIST
350
47
  0
DICTIONARY
  5
D
102
{ACAD_REACTORS
330
C
102
}
330
C
100
AcDbDictionary
281
     1
  0
DICTIONARY
  5
1A
102
{ACAD_REACTORS
330
C
102
}
330
C
100
AcDbDictionary
281
     1
  3
_Left
350
1E
  3
_Top
350
26
  3
Model
350
22
  0
DICTIONARY
  5
17
102
{ACAD_REACTORS
330
C
102
}
330
C
100
AcDbDictionary
281
     1
  3
Standard
350
18
  0
DICTIONARY
  5
19
102
{ACAD_REACTORS
330
C
102
}
330
C
100
AcDbDictionary
281
     1
  0
ACDBDICTIONARYWDFLT
  5
E
102
{ACAD_REACTORS
330
C
102
}
330
C
100
AcDbDictionary
281
     1
  3
Normal
350
F
100
AcDbDictionaryWithDefault
340
F
  0
DICTIONARY
  5
47
102
{ACAD_REACTORS
330
C
102
}
330
C
100
AcDbDictionary
281
     1
  3
A0
350
48
  3
A1
350
49
  3
A2
350
4A
  3
A3
350
4B
  3
A4
350
4C
  3
A5
350
4D
  3
A6
350
4E
  3
A7
350
4F
  3
A8
350
50
  3
A9
350
51
  3
B0
350
52
  3
B1
350
53
  3
B2
350
54
  3
B3
350
55
  3
B4
350
56
  3
B5
350
57
  3
B6
350
58
  3
B7
350
59
  3
B8
350
5A
  3
B9
350
5B
  3
C0
350
5C
  3
C1
350
5D
  3
C2
350
5E
  3
C3
350
5F
  3
C4
350
60
  3
C5
350
61
  3
C6
350
62
  3
C7
350
63
  3
C8
350
64
  3
C9
350
65
  3
D0
350
66
  3
D1
350
67
  3
D2
350
68
  0
LAYOUT
  5
1E
102
{ACAD_REACTORS
330
1A
102
}
330
1A
100
AcDbPlotSettings
  1

  2
none_device
  4
ISO_A4_(210.00_x_297.00_MM)
  6

 40
7.5
 41
20.0
 42
7.5
 43
20.0
 44
210.0
 45
297.0
 46
0.0
 47
0.0
 48
0.0
 49
0.0
140
0.0
141
0.0
142
1.0
143
1.46
 70
   688
 72
     1
 73
     1
 74
     1
  7

 75
     0
147
0.6849315068
148
135.0
149
135.0
100
AcDbLayout
  1
_Left
 70
     1
 71
     1
 10
-164.2
 20
-145.95
 11
269.42
 21
160.65
 12
0.0
 22
0.0
 32
0.0
 14
-135.0
 24
-135.0
 34
0.0
 15
135.0
 25
149.7
 35
0.0
146
0.0
 13
0.0
 23
0.0
 33
0.0
 16
1.0
 26
0.0
 36
0.0
 17
0.0
 27
1.0
 37
0.0
 76
     0
330
1B
331
D6
  0
LAYOUT
  5
26
102
{ACAD_REACTORS
330
1A
102
}
330
1A
100
AcDbPlotSettings
  1

  2
none_device
  4
ISO_A4_(210.00_x_297.00_MM)
  6

 40
7.5
 41
20.0
 42
7.5
 43
20.0
 44
210.0
 45
297.0
 46
0.0
 47
0.0
 48
0.0
 49
0.0
140
0.0
141
0.0
142
1.0
143
1.46
 70
   688
 72
     1
 73
     1
 74
     1
  7

 75
     0
147
0.6849315068
148
135.0
149
135.0
100
AcDbLayout
  1
_Top
 70
     1
 71
     2
 10
0.0
 20
0.0
 11
0.0
 21
0.0
 12
0.0
 22
0.0
 32
0.0
 14
0.0
 24
0.0
 34
0.0
 15
0.0
 25
0.0
 35
0.0
146
0.0
 13
0.0
 23
0.0
 33
0.0
 16
1.0
 26
0.0
 36
0.0
 17
0.0
 27
1.0
 37
0.0
 76
     0
330
23
331
D8
  0
LAYOUT
  5
22
102
{ACAD_REACTORS
330
1A
102
}
330
1A
100
AcDbPlotSettings
  1

  2
none_device
  4
ANSI_A_(11.00_x_8.50_Inches)
  6

 40
6.35
 41
19.05
 42
6.35000508
 43
19.05000254
 44
279.4
 45
215.9
 46
216.6842124231
 47
83.3819223338
 48
0.0
 49
0.0
140
0.0
141
0.0
142
0.0295574289
143
1.0
 70
  1696
 72
     0
 73
     0
 74
     0
  7

 75
     0
147
0.0179189148
148
-1300.4909072572
149
0.0
100
AcDbLayout
  1
Model
 70
     1
 71
     0
 10
0.0
 20
0.0
 11
420.0
 21
297.0
 12
0.0
 22
0.0
 32
0.0
 14
-222.0
 24
-135.0
 34
0.0
 15
0.0
 25
149.7
 35
0.0
146
0.0
 13
0.0
 23
0.0
 33
0.0
 16
1.0
 26
0.0
 36
0.0
 17
0.0
 27
1.0
 37
0.0
 76
     0
330
1F
331
29
  0
MLINESTYLE
  5
18
102
{ACAD_REACTORS
330
17
102
}
330
17
100
AcDbMlineStyle
  2
Standard
 70
     0
  3

 62
   256
 51
90.0
 52
90.0
 71
     2
 49
0.5
 62
   256
  6
BYLAYER
 49
-0.5
 62
   256
  6
BYLAYER
  0
ACDBPLACEHOLDER
  5
F
102
{ACAD_REACTORS
330
E
102
}
330
E
  0
SCALE
  5
48
102
{ACAD_REACTORS
330
47
102
}
330
47
100
AcDbScale
 70
     0
300
1:1
140
1.0
141
1.0
290
     1
  0
SCALE
  5
49
102
{ACAD_REACTORS
330
47
102
}
330
47
100
AcDbScale
 70
     0
300
1:2
140
1.0
141
2.0
290
     0
  0
SCALE
  5
4A
102
{ACAD_REACTORS
330
47
102
}
330
47
100
AcDbScale
 70
     0
300
1:4
140
1.0
141
4.0
290
     0
  0
SCALE
  5
4B
102
{ACAD_REACTORS
330
47
102
}
330
47
100
AcDbScale
 70
     0
300
1:5
140
1.0
141
5.0
290
     0
  0
SCALE
  5
4C
102
{ACAD_REACTORS
330
47
102
}
330
47
100
AcDbScale
 70
     0
300
1:8
140
1.0
141
8.0
290
     0
  0
SCALE
  5
4D
102
{ACAD_REACTORS
330
47
102
}
330
47
100
AcDbScale
 70
     0
300
1:10
140
1.0
141
10.0
290
     0
  0
SCALE
  5
4E
102
{ACAD_REACTORS
330
47
102
}
330
47
100
AcDbScale
 70
     0
300
1:16
140
1.0
141
16.0
290
     0
  0
SCALE
  5
4F
102
{ACAD_REACTORS
330
47
102
}
330
47
100
AcDbScale
 70
     0
300
1:20
140
1.0
141
20.0
290
     0
  0
SCALE
  5
50
102
{ACAD_REACTORS
330
47
102
}
330
47
100
AcDbScale
 70
     0
300
1:30
140
1.0
141
30.0
290
     0
  0
SCALE
  5
51
102
{ACAD_REACTORS
330
47
102
}
330
47
100
AcDbScale
 70
     0
300
1:40
140
1.0
141
40.0
290
     0
  0
SCALE
  5
52
102
{ACAD_REACTORS
330
47
102
}
330
47
100
AcDbScale
 70
     0
300
1:50
140
1.0
141
50.0
290
     0
  0
SCALE
  5
53
102
{ACAD_REACTORS
330
47
102
}
330
47
100
AcDbScale
 70
     0
300
1:100
140
1.0
141
100.0
290
     0
  0
SCALE
  5
54
102
{ACAD_REACTORS
330
47
102
}
330
47
100
AcDbScale
 70
     0
300
2:1
140
2.0
141
1.0
290
     0
  0
SCALE
  5
55
102
{ACAD_REACTORS
330
47
102
}
330
47
100
AcDbScale
 70
     0
300
4:1
140
4.0
141
1.0
290
     0
  0
SCALE
  5
56
102
{ACAD_REACTORS
330
47
102
}
330
47
100
AcDbScale
 70
     0
300
8:1
140
8.0
141
1.0
290
     0
  0
SCALE
  5
57
102
{ACAD_REACTORS
330
47
102
}
330
47
100
AcDbScale
 70
     0
300
10:1
140
10.0
141
1.0
290
     0
  0
SCALE
  5
58
102
{ACAD_REACTORS
330
47
102
}
330
47
100
AcDbScale
 70
     0
300
100:1
140
100.0
141
1.0
290
     0
  0
SCALE
  5
59
102
{ACAD_REACTORS
330
47
102
}
330
47
100
AcDbScale
 70
     0
300
1/128" = 1'-0"
140
0.0078125
141
12.0
290
     0
  0
SCALE
  5
5A
102
{ACAD_REACTORS
330
47
102
}
330
47
100
AcDbScale
 70
     0
300
1/64" = 1'-0"
140
0.015625
141
12.0
290
     0
  0
SCALE
  5
5B
102
{ACAD_REACTORS
330
47
102
}
330
47
100
AcDbScale
 70
     0
300
1/32" = 1'-0"
140
0.03125
141
12.0
290
     0
  0
SCALE
  5
5C
102
{ACAD_REACTORS
330
47
102
}
330
47
100
AcDbScale
 70
     0
300
1/16" = 1'-0"
140
0.0625
141
12.0
290
     0
  0
SCALE
  5
5D
102
{ACAD_REACTORS
330
47
102
}
330
47
100
AcDbScale
 70
     0
300
3/32" = 1'-0"
140
0.09375
141
12.0
290
     0
  0
SCALE
  5
5E
102
{ACAD_REACTORS
330
47
102
}
330
47
100
AcDbScale
 70
     0
300
1/8" = 1'-0"
140
0.125
141
12.0
290
     0
  0
SCALE
  5
5F
102
{ACAD_REACTORS
330
47
102
}
330
47
100
AcDbScale
 70
     0
300
3/16" = 1'-0"
140
0.1875
141
12.0
290
     0
  0
SCALE
  5
60
102
{ACAD_REACTORS
330
47
102
}
330
47
100
AcDbScale
 70
     0
300
1/4" = 1'-0"
140
0.25
141
12.0
290
     0
  0
SCALE
  5
61
102
{ACAD_REACTORS
330
47
102
}
330
47
100
AcDbScale
 70
     0
300
3/8" = 1'-0"
140
0.375
141
12.0
290
     0
  0
SCALE
  5
62
102
{ACAD_REACTORS
330
47
102
}
330
47
100
AcDbScale
 70
     0
300
1/2" = 1'-0"
140
0.5
141
12.0
290
     0
  0
SCALE
  5
63
102
{ACAD_REACTORS
330
47
102
}
330
47
100
AcDbScale
 70
     0
300
3/4" = 1'-0"
140
0.75
141
12.0
290
     0
  0
SCALE
  5
64
102
{ACAD_REACTORS
330
47
102
}
330
47
100
AcDbScale
 70
     0
300
1" = 1'-0"
140
1.0
141
12.0
290
     0
  0
SCALE
  5
65
102
{ACAD_REACTORS
330
47
102
}
330
47
100
AcDbScale
 70
     0
300
1-1/2" = 1'-0"
140
1.5
141
12.0
290
     0
  0
SCALE
  5
66
102
{ACAD_REACTORS
330
47
102
}
330
47
100
AcDbScale
 70
     0
300
3" = 1'-0"
140
3.0
141
12.0
290
     0
  0
SCALE
  5
67
102
{ACAD_REACTORS
330
47
102
}
330
47
100
AcDbScale
 70
     0
300
6" = 1'-0"
140
6.0
141
12.0
290
     0
  0
SCALE
  5
68
102
{ACAD_REACTORS
330
47
102
}
330
47
100
AcDbScale
 70
     0
300
1'-0" = 1'-0"
140
12.0
141
12.0
290
     0
  0
ENDSEC
  0
EOF
