  0
SECTION
  2
HEADER
  9
$ACADVER
  1
AC1015
  9
$ACADMAINTVER
 70
     6
  9
$DWGCODEPAGE
  3
ANSI_1252
  9
$INSBASE
 10
0.0
 20
0.0
 30
0.0
  9
$EXTMIN
 10
23.0222072548
 20
-150.0
 30
0.0
  9
$EXTMAX
 10
243.0454726307
 20
166.34
 30
0.0
  9
$LIMMIN
 10
0.0
 20
0.0
  9
$LIMMAX
 10
420.0
 20
297.0
  9
$ORTHOMODE
 70
     0
  9
$REGENMODE
 70
     1
  9
$FILLMODE
 70
     1
  9
$QTEXTMODE
 70
     0
  9
$MIRRTEXT
 70
     1
  9
$LTSCALE
 40
1.0
  9
$ATTMODE
 70
     1
  9
$TEXTSIZE
 40
6.35
  9
$TRACEWID
 40
1.0
  9
$TEXTSTYLE
  7
Standard
  9
$CLAYER
  8
0
  9
$CELTYPE
  6
ByLayer
  9
$CECOLOR
 62
   256
  9
$CELTSCALE
 40
1.0
  9
$DISPSILH
 70
     0
  9
$DIMSCALE
 40
1.0
  9
$DIMASZ
 40
5.9944
  9
$DIMEXO
 40
0.9906
  9
$DIMDLI
 40
3.75
  9
$DIMRND
 40
0.0
  9
$DIMDLE
 40
0.0
  9
$DIMEXE
 40
0.9906
  9
$DIMTP
 40
0.0
  9
$DIMTM
 40
0.0
  9
$DIMTXT
 40
6.35
  9
$DIMCEN
 40
2.5
  9
$DIMTSZ
 40
0.0
  9
$DIMTOL
 70
     0
  9
$DIMLIM
 70
     0
  9
$DIMTIH
 70
     1
  9
$DIMTOH
 70
     1
  9
$DIMSE1
 70
     0
  9
$DIMSE2
 70
     0
  9
$DIMTAD
 70
     1
  9
$DIMZIN
 70
     0
  9
$DIMBLK
  1

  9
$DIMASO
 70
     1
  9
$DIMSHO
 70
     1
  9
$DIMPOST
  1

  9
$DIMAPOST
  1

  9
$DIMALT
 70
     0
  9
$DIMALTD
 70
     3
  9
$DIMALTF
 40
0.0393700787
  9
$DIMLFAC
 40
1.0
  9
$DIMTOFL
 70
     1
  9
$DIMTVP
 40
0.0
  9
$DIMTIX
 70
     0
  9
$DIMSOXD
 70
     0
  9
$DIMSAH
 70
     0
  9
$DIMBLK1
  1

  9
$DIMBLK2
  1

  9
$DIMSTYLE
  2
ISO-25
  9
$DIMCLRD
 70
     0
  9
$DIMCLRE
 70
     0
  9
$DIMCLRT
 70
     0
  9
$DIMTFAC
 40
1.0
  9
$DIMGAP
 40
1.524
  9
$DIMJUST
 70
     0
  9
$DIMSD1
 70
     0
  9
$DIMSD2
 70
     0
  9
$DIMTOLJ
 70
     0
  9
$DIMTZIN
 70
     0
  9
$DIMALTZ
 70
     0
  9
$DIMALTTZ
 70
     0
  9
$DIMUPT
 70
     0
  9
$DIMDEC
 70
     2
  9
$DIMTDEC
 70
     2
  9
$DIMALTU
 70
     2
  9
$DIMALTTD
 70
     3
  9
$DIMTXSTY
  7
Standard
  9
$DIMAUNIT
 70
     0
  9
$DIMADEC
 70
     2
  9
$DIMALTRND
 40
0.0
  9
$DIMAZIN
 70
     0
  9
$DIMDSEP
 70
    44
  9
$DIMATFIT
 70
     3
  9
$DIMFRAC
 70
     0
  9
$DIMLDRBLK
  1

  9
$DIMLUNIT
 70
     2
  9
$DIMLWD
 70
    -2
  9
$DIMLWE
 70
    -2
  9
$DIMTMOVE
 70
     0
  9
$LUNITS
 70
     2
  9
$LUPREC
 70
     2
  9
$SKETCHINC
 40
1.0
  9
$FILLETRAD
 40
10.0
  9
$AUNITS
 70
     0
  9
$AUPREC
 70
     2
  9
$MENU
  1
.
  9
$ELEVATION
 40
0.0
  9
$PELEVATION
 40
0.0
  9
$THICKNESS
 40
0.0
  9
$LIMCHECK
 70
     0
  9
$CHAMFERA
 40
0.0
  9
$CHAMFERB
 40
0.0
  9
$CHAMFERC
 40
0.0
  9
$CHAMFERD
 40
0.0
  9
$SKPOLY
 70
     0
  9
$TDCREATE
 40
2458381.650244583
  9
$TDUCREATE
 40
2458381.608577917
  9
$TDUPDATE
 40
2458381.650275995
  9
$TDUUPDATE
 40
2458381.608609329
  9
$TDINDWG
 40
0.0000000116
  9
$TDUSRTIMER
 40
0.0000000116
  9
$USRTIMER
 70
     1
  9
$ANGBASE
 50
0.0
  9
$ANGDIR
 70
     0
  9
$PDMODE
 70
     0
  9
$PDSIZE
 40
-1.0
  9
$PLINEWID
 40
0.0
  9
$SPLFRAME
 70
     0
  9
$SPLINETYPE
 70
     6
  9
$SPLINESEGS
 70
     8
  9
$HANDSEED
  5
EF
  9
$SURFTAB1
 70
     6
  9
$SURFTAB2
 70
     6
  9
$SURFTYPE
 70
     6
  9
$SURFU
 70
     6
  9
$SURFV
 70
     6
  9
$UCSBASE
  2

  9
$UCSNAME
  2

  9
$UCSORG
 10
0.0
 20
0.0
 30
0.0
  9
$UCSXDIR
 10
1.0
 20
0.0
 30
0.0
  9
$UCSYDIR
 10
0.0
 20
1.0
 30
0.0
  9
$UCSORTHOREF
  2

  9
$UCSORTHOVIEW
 70
     0
  9
$UCSORGTOP
 10
0.0
 20
0.0
 30
0.0
  9
$UCSORGBOTTOM
 10
0.0
 20
0.0
 30
0.0
  9
$UCSORGLEFT
 10
0.0
 20
0.0
 30
0.0
  9
$UCSORGRIGHT
 10
0.0
 20
0.0
 30
0.0
  9
$UCSORGFRONT
 10
0.0
 20
0.0
 30
0.0
  9
$UCSORGBACK
 10
0.0
 20
0.0
 30
0.0
  9
$PUCSBASE
  2

  9
$PUCSNAME
  2

  9
$PUCSORG
 10
0.0
 20
0.0
 30
0.0
  9
$PUCSXDIR
 10
1.0
 20
0.0
 30
0.0
  9
$PUCSYDIR
 10
0.0
 20
1.0
 30
0.0
  9
$PUCSORTHOREF
  2

  9
$PUCSORTHOVIEW
 70
     0
  9
$PUCSORGTOP
 10
0.0
 20
0.0
 30
0.0
  9
$PUCSORGBOTTOM
 10
0.0
 20
0.0
 30
0.0
  9
$PUCSORGLEFT
 10
0.0
 20
0.0
 30
0.0
  9
$PUCSORGRIGHT
 10
0.0
 20
0.0
 30
0.0
  9
$PUCSORGFRONT
 10
0.0
 20
0.0
 30
0.0
  9
$PUCSORGBACK
 10
0.0
 20
0.0
 30
0.0
  9
$USERI1
 70
     0
  9
$USERI2
 70
     0
  9
$USERI3
 70
     0
  9
$USERI4
 70
     0
  9
$USERI5
 70
     0
  9
$USERR1
 40
0.0
  9
$USERR2
 40
0.0
  9
$USERR3
 40
0.0
  9
$USERR4
 40
0.0
  9
$USERR5
 40
0.0
  9
$WORLDVIEW
 70
     1
  9
$SHADEDGE
 70
     3
  9
$SHADEDIF
 70
    70
  9
$TILEMODE
 70
     1
  9
$MAXACTVP
 70
    64
  9
$PINSBASE
 10
0.0
 20
0.0
 30
0.0
  9
$PLIMCHECK
 70
     0
  9
$PEXTMIN
 10
-150.0
 20
-150.0
 30
0.0
  9
$PEXTMAX
 10
150.0
 20
166.34
 30
0.0
  9
$PLIMMIN
 10
-182.4451282051
 20
-162.1669230769
  9
$PLIMMAX
 10
299.365025641
 20
178.5069230769
  9
$UNITMODE
 70
     0
  9
$VISRETAIN
 70
     1
  9
$PLINEGEN
 70
     0
  9
$PSLTSCALE
 70
     1
  9
$TREEDEPTH
 70
  3020
  9
$CMLSTYLE
  2
Standard
  9
$CMLJUST
 70
     0
  9
$CMLSCALE
 40
20.0
  9
$PROXYGRAPHICS
 70
     1
  9
$MEASUREMENT
 70
     1
  9
$CELWEIGHT
370
    -1
  9
$ENDCAPS
280
     0
  9
$JOINSTYLE
280
     0
  9
$LWDISPLAY
290
     1
  9
$INSUNITS
 70
     4
  9
$HYPERLINKBASE
  1

  9
$STYLESHEET
  1

  9
$XEDIT
290
     1
  9
$CEPSNTYPE
380
     0
  9
$PSTYLEMODE
290
     1
  9
$FINGERPRINTGUID
  2
{C194036B-E588-4F98-9FB3-5D866B5CF319}
  9
$VERSIONGUID
  2
{FAEB1C32-E019-11D5-929B-00C0DF256EC4}
  9
$EXTNAMES
290
     1
  9
$PSVPSCALE
 40
0.0
  9
$OLESTARTUP
290
     0
  0
ENDSEC
  0
SECTION
  2
CLASSES
  0
CLASS
  1
ACDBDICTIONARYWDFLT
  2
AcDbDictionaryWithDefault
  3
ObjectDBX Classes
 90
        0
280
     0
281
     0
  0
CLASS
  1
VISUALSTYLE
  2
AcDbVisualStyle
  3
ObjectDBX Classes
 90
     4095
280
     0
281
     0
  0
CLASS
  1
MATERIAL
  2
AcDbMaterial
  3
ObjectDBX Classes
 90
     1153
280
     0
281
     0
  0
CLASS
  1
SCALE
  2
AcDbScale
  3
ObjectDBX Classes
 90
     1153
280
     0
281
     0
  0
CLASS
  1
TABLESTYLE
  2
AcDbTableStyle
  3
ObjectDBX Classes
 90
     4095
280
     0
281
     0
  0
CLASS
  1
MLEADERSTYLE
  2
AcDbMLeaderStyle
  3
ACDB_MLEADERSTYLE_CLASS
 90
     4095
280
     0
281
     0
  0
CLASS
  1
SUN
  2
AcDbSun
  3
SCENEOE
 90
     1153
280
     0
281
     0
  0
CLASS
  1
ACDBPLACEHOLDER
  2
AcDbPlaceHolder
  3
ObjectDBX Classes
 90
        0
280
     0
281
     0
  0
CLASS
  1
LAYOUT
  2
AcDbLayout
  3
ObjectDBX Classes
 90
        0
280
     0
281
     0
  0
ENDSEC
  0
SECTION
  2
TABLES
  0
TABLE
  2
VPORT
  5
8
330
0
100
AcDbSymbolTable
 70
     1
  0
VPORT
  5
29
330
8
100
AcDbSymbolTableRecord
100
AcDbViewportTableRecord
  2
*Active
 70
     0
 10
0.0
 20
0.0
 11
1.0
 21
1.0
 12
133.0338399428
 22
8.17
 13
0.0
 23
0.0
 14
10.0
 24
10.0
 15
10.0
 25
10.0
 16
0.0
 26
0.0
 36
1.0
 17
0.0
 27
0.0
 37
0.0
 40
322.6668
 41
0.6955278036
 42
50.0
 43
0.0
 44
0.0
 50
0.0
 51
0.0
 71
     0
 72
   100
 73
     1
 74
     3
 75
     0
 76
     0
 77
     0
 78
     0
281
     0
 65
     1
110
0.0
120
0.0
130
0.0
111
1.0
121
0.0
131
0.0
112
0.0
122
1.0
132
0.0
 79
     0
146
0.0
  0
ENDTAB
  0
TABLE
  2
LTYPE
  5
5
330
0
100
AcDbSymbolTable
 70
     6
  0
LTYPE
  5
14
330
5
100
AcDbSymbolTableRecord
100
AcDbLinetypeTableRecord
  2
ByBlock
 70
     0
  3

 72
    65
 73
     0
 40
0.0
  0
LTYPE
  5
15
330
5
100
AcDbSymbolTableRecord
100
AcDbLinetypeTableRecord
  2
ByLayer
 70
     0
  3

 72
    65
 73
     0
 40
0.0
  0
LTYPE
  5
16
330
5
100
AcDbSymbolTableRecord
100
AcDbLinetypeTableRecord
  2
Continuous
 70
     0
  3
Solid line
 72
    65
 73
     0
 40
0.0
  0
LTYPE
  5
6E
330
5
100
AcDbSymbolTableRecord
100
AcDbLinetypeTableRecord
  2
HIDDEN
 70
     0
  3
Hidden __ __ __ __ __ __ __ __ __ __ __ __ __ __
 72
    65
 73
     2
 40
1.905
 49
1.27
 74
     0
 49
-0.635
 74
     0
  0
LTYPE
  5
6F
330
5
100
AcDbSymbolTableRecord
100
AcDbLinetypeTableRecord
  2
PHANTOM
 70
     0
  3
Phantom ______  __  __  ______  __  __  ______
 72
    65
 73
     6
 40
12.7
 49
6.35
 74
     0
 49
-1.27
 74
     0
 49
1.27
 74
     0
 49
-1.27
 74
     0
 49
1.27
 74
     0
 49
-1.27
 74
     0
  0
LTYPE
  5
70
330
5
100
AcDbSymbolTableRecord
100
AcDbLinetypeTableRecord
  2
CENTER
 70
     0
  3
Center ____ _ ____ _ ____ _ ____ _ ____ _ ____
 72
    65
 73
     4
 40
10.16
 49
6.35
 74
     0
 49
-1.27
 74
     0
 49
1.27
 74
     0
 49
-1.27
 74
     0
  0
LTYPE
  5
71
330
5
100
AcDbSymbolTableRecord
100
AcDbLinetypeTableRecord
  2
CENTERX2
 70
     0
  3
Center (2x) ________  __  ________  __  _____
 72
    65
 73
     4
 40
20.32
 49
12.7
 74
     0
 49
-2.54
 74
     0
 49
2.54
 74
     0
 49
-2.54
 74
     0
  0
LTYPE
  5
72
330
5
100
AcDbSymbolTableRecord
100
AcDbLinetypeTableRecord
  2
DOT2
 70
     0
  3
Dot (.5x) ........................................
 72
    65
 73
     2
 40
0.635
 49
0.0
 74
     0
 49
-0.635
 74
     0
  0
ENDTAB
  0
TABLE
  2
LAYER
  5
2
330
0
100
AcDbSymbolTable
 70
     1
  0
LAYER
  5
10
330
2
100
AcDbSymbolTableRecord
100
AcDbLayerTableRecord
  2
0
 70
     0
 62
     7
  6
Continuous
370
    -3
390
F
  0
ENDTAB
  0
TABLE
  2
STYLE
  5
3
330
0
100
AcDbSymbolTable
 70
     1
  0
STYLE
  5
11
330
3
100
AcDbSymbolTableRecord
100
AcDbTextStyleTableRecord
  2
Standard
 70
     0
 40
0.0
 41
1.0
 50
0.0
 71
     0
 42
6.35
  3
txt
  4

  0
ENDTAB
  0
TABLE
  2
VIEW
  5
6
330
0
100
AcDbSymbolTable
 70
     0
  0
ENDTAB
  0
TABLE
  2
UCS
  5
7
330
0
100
AcDbSymbolTable
 70
     0
  0
ENDTAB
  0
TABLE
  2
APPID
  5
9
330
0
100
AcDbSymbolTable
 70
     1
  0
APPID
  5
12
330
9
100
AcDbSymbolTableRecord
100
AcDbRegAppTableRecord
  2
ACAD
 70
     0
  0
ENDTAB
  0
TABLE
  2
DIMSTYLE
  5
A
330
0
100
AcDbSymbolTable
 70
     1
100
AcDbDimStyleTable
  0
DIMSTYLE
105
27
330
A
100
AcDbSymbolTableRecord
100
AcDbDimStyleTableRecord
  2
ISO-25
 70
     0
 41
2.5
 42
0.625
 43
3.75
 44
1.25
 73
     0
 74
     0
 77
     1
 78
     8
140
2.5
141
2.5
143
0.0393700787
147
0.625
171
     3
172
     1
178
     0
271
     2
272
     2
274
     3
278
    44
283
     0
284
     8
340
11
  0
ENDTAB
  0
TABLE
  2
BLOCK_RECORD
  5
1
330
0
100
AcDbSymbolTable
 70
     1
  0
BLOCK_RECORD
  5
1F
330
1
100
AcDbSymbolTableRecord
100
AcDbBlockTableRecord
  2
*Model_Space
340
22
  0
BLOCK_RECORD
  5
1B
330
1
100
AcDbSymbolTableRecord
100
AcDbBlockTableRecord
  2
*Paper_Space
340
1E
  0
BLOCK_RECORD
  5
23
330
1
100
AcDbSymbolTableRecord
100
AcDbBlockTableRecord
  2
*Paper_Space0
340
26
  0
ENDTAB
  0
ENDSEC
  0
SECTION
  2
BLOCKS
  0
BLOCK
  5
20
330
1F
100
AcDbEntity
  8
0
100
AcDbBlockBegin
  2
*Model_Space
 70
     0
 10
0.0
 20
0.0
 30
0.0
  3
*Model_Space
  1

  0
ENDBLK
  5
21
330
1F
100
AcDbEntity
  8
0
100
AcDbBlockEnd
  0
BLOCK
  5
1C
330
1B
100
AcDbEntity
 67
     1
  8
0
100
AcDbBlockBegin
  2
*Paper_Space
 70
     0
 10
0.0
 20
0.0
 30
0.0
  3
*Paper_Space
  1

  0
ENDBLK
  5
1D
330
1B
100
AcDbEntity
 67
     1
  8
0
100
AcDbBlockEnd
  0
BLOCK
  5
24
330
23
100
AcDbEntity
  8
0
100
AcDbBlockBegin
  2
*Paper_Space0
 70
     0
 10
0.0
 20
0.0
 30
0.0
  3
*Paper_Space0
  1

  0
CIRCLE
  5
CB
330
23
100
AcDbEntity
  8
0
  6
Continuous
 62
     7
370
    25
100
AcDbCircle
 10
43.0909452613
 20
0.0
 30
0.0
 40
10.50000000000033
  0
CIRCLE
  5
CC
330
23
100
AcDbEntity
  8
0
  6
Continuous
 62
     7
370
    25
100
AcDbCircle
 10
43.0909452613
 20
0.0
 30
0.0
 40
6.250000000000242
  0
CIRCLE
  5
CD
330
23
100
AcDbEntity
  8
0
  6
Continuous
 62
     7
370
    25
100
AcDbCircle
 10
223.0
 20
0.0
 30
0.0
 40
10.50000000000026
  0
CIRCLE
  5
CE
330
23
100
AcDbEntity
  8
0
  6
Continuous
 62
     7
370
    25
100
AcDbCircle
 10
223.0
 20
0.0
 30
0.0
 40
6.250000000000199
  0
CIRCLE
  5
CF
330
23
100
AcDbEntity
  8
0
  6
Continuous
 62
     7
370
    25
100
AcDbCircle
 10
43.0909452613
 20
0.0
 30
0.0
 40
2.35000000000052
  0
CIRCLE
  5
D0
330
23
100
AcDbEntity
  8
0
  6
Continuous
 62
     7
370
    25
100
AcDbCircle
 10
43.0909452613
 20
0.0
 30
0.0
 40
1.850000000000357
  0
CIRCLE
  5
D1
330
23
100
AcDbEntity
  8
0
  6
Continuous
 62
     7
370
    25
100
AcDbCircle
 10
223.0
 20
0.0
 30
0.0
 40
2.350000000000506
  0
CIRCLE
  5
D2
330
23
100
AcDbEntity
  8
0
  6
Continuous
 62
     7
370
    25
100
AcDbCircle
 10
223.0
 20
0.0
 30
0.0
 40
1.850000000000364
  0
SPLINE
  5
D5
330
23
100
AcDbEntity
  8
0
  6
Continuous
 62
     7
370
    25
100
AcDbSpline
210
0.0
220
0.0
230
1.0
 70
    11
 71
     3
 72
    96
 73
    92
 74
     0
 42
0.000000001
 43
0.00000001
 40
0.0
 40
0.0
 40
0.0
 40
0.0
 40
0.0312499999999995
 40
0.0312499999999995
 40
0.062499999999999
 40
0.062499999999999
 40
0.0781249999999984
 40
0.0781249999999984
 40
0.0937499999999977
 40
0.0937499999999977
 40
0.1249999999999974
 40
0.1249999999999974
 40
0.1562499999999971
 40
0.1562499999999971
 40
0.1718749999999974
 40
0.1718749999999974
 40
0.1874999999999978
 40
0.1874999999999978
 40
0.2187499999999983
 40
0.2187499999999983
 40
0.2499999999999987
 40
0.2499999999999987
 40
0.2812499999999992
 40
0.2812499999999992
 40
0.2968749999999994
 40
0.2968749999999994
 40
0.3124999999999996
 40
0.3281249999999998
 40
0.3281249999999998
 40
0.3437499999999999
 40
0.3437499999999999
 40
0.3750000000000006
 40
0.3750000000000006
 40
0.3906250000000009
 40
0.3906250000000009
 40
0.4062500000000013
 40
0.4062500000000013
 40
0.4375000000000017
 40
0.4375000000000017
 40
0.4531250000000021
 40
0.4531250000000021
 40
0.4687500000000026
 40
0.4687500000000026
 40
0.4843750000000029
 40
0.4843750000000029
 40
0.5000000000000034
 40
0.5000000000000034
 40
0.5312500000000036
 40
0.5312500000000036
 40
0.546875000000003
 40
0.546875000000003
 40
0.5625000000000026
 40
0.5781250000000021
 40
0.5781250000000021
 40
0.5937500000000017
 40
0.5937500000000017
 40
0.6250000000000018
 40
0.6250000000000018
 40
0.656250000000002
 40
0.656250000000002
 40
0.6875000000000021
 40
0.6875000000000021
 40
0.7031250000000022
 40
0.7031250000000022
 40
0.7187500000000023
 40
0.7187500000000023
 40
0.7500000000000013
 40
0.7500000000000013
 40
0.7812500000000004
 40
0.7812500000000004
 40
0.7968750000000003
 40
0.7968750000000003
 40
0.8125000000000002
 40
0.8125000000000002
 40
0.8437499999999999
 40
0.8437499999999999
 40
0.8593749999999998
 40
0.8593749999999998
 40
0.8749999999999997
 40
0.8749999999999997
 40
0.9062499999999994
 40
0.9062499999999994
 40
0.9218749999999996
 40
0.9218749999999996
 40
0.9374999999999997
 40
0.9374999999999997
 40
0.9531249999999998
 40
0.9531249999999998
 40
0.9687499999999998
 40
0.9687499999999998
 40
1.0
 40
1.0
 40
1.0
 40
1.0
 10
213.8874101108091
 20
8.762791773194222
 30
0.0
 10
214.4707025014837
 20
9.332809943213338
 30
0.0
 10
215.1095330447918
 20
9.843636879802027
 30
0.0
 10
216.4556636300083
 20
10.72297639238131
 30
0.0
 10
217.1661073480156
 20
11.09539086969644
 30
0.0
 10
218.2886967160958
 20
11.55242446922757
 30
0.0
 10
218.6732766160456
 20
11.68773478838453
 30
0.0
 10
219.4458364705714
 20
11.91854378793991
 30
0.0
 10
219.8357017320662
 20
12.01491203030545
 30
0.0
 10
221.0159188864625
 20
12.24793742163278
 30
0.0
 10
221.8183683674741
 20
12.32906701135786
 30
0.0
 10
223.4465118552841
 20
12.3354083718021
 30
0.0
 10
224.2493229153014
 20
12.2608146991969
 30
0.0
 10
225.437066248546
 20
12.03561051361739
 30
0.0
 10
225.8302142518938
 20
11.94152357356415
 30
0.0
 10
226.6107912418755
 20
11.71424489543059
 30
0.0
 10
226.9995722585355
 20
11.58032142750538
 30
0.0
 10
228.1328245693692
 20
11.12724220214893
 30
0.0
 10
228.8518183617721
 20
10.75572091524959
 30
0.0
 10
230.2163604145766
 20
9.873642484192356
 30
0.0
 10
230.8657243941012
 20
9.357476034816292
 30
0.0
 10
232.0333484841533
 20
8.224403398970798
 30
0.0
 10
232.5587545262125
 20
7.604295473863876
 30
0.0
 10
233.2563133614654
 20
6.591350393520631
 30
0.0
 10
233.4737171003592
 20
6.239093097643641
 30
0.0
 10
233.8679351187754
 20
5.522421136395221
 30
0.0
 10
234.2243798167581
 20
4.78984897215495
 30
0.0
 10
234.5062571734327
 20
4.025916342241016
 30
0.0
 10
234.7502402807364
 20
3.24605838108028
 30
0.0
 10
234.8536900885933
 20
2.846031434775171
 30
0.0
 10
235.101443035994
 20
1.637060429263816
 30
0.0
 10
235.1833213493546
 20
0.8264928809932418
 30
0.0
 10
235.1844733229645
 20
-0.3960560689736972
 30
0.0
 10
235.1644302984424
 20
-0.804696938780358
 30
0.0
 10
235.0821874974949
 20
-1.624299723959895
 30
0.0
 10
235.0201230975052
 20
-2.031995383472114
 30
0.0
 10
234.7752717475918
 20
-3.232387844499047
 30
0.0
 10
234.5337576881032
 20
-4.009473947519757
 30
0.0
 10
234.0536828060707
 20
-5.140184646053805
 30
0.0
 10
233.8729554736518
 20
-5.512661055014594
 30
0.0
 10
233.4773781742636
 20
-6.233056293210374
 30
0.0
 10
233.2622145261352
 20
-6.582147757036277
 30
0.0
 10
232.7974519476963
 20
-7.258293286878194
 30
0.0
 10
232.5465878032675
 20
-7.586766540395942
 30
0.0
 10
232.0167428750938
 20
-8.213198361668914
 30
0.0
 10
231.7382250330357
 20
-8.510981260503554
 30
0.0
 10
230.8632535791465
 20
-9.359495894416058
 30
0.0
 10
230.2277504215045
 20
-9.86581291434754
 30
0.0
 10
229.194768832363
 20
-10.53425890671284
 30
0.0
 10
228.8401287075525
 20
-10.73963753072748
 30
0.0
 10
228.1184494351448
 20
-11.11227419052779
 30
0.0
 10
227.38204715988
 20
-11.44830683534306
 30
0.0
 10
226.6167544127188
 20
-11.71228660162127
 30
0.0
 10
225.8368780655206
 20
-11.93980173397178
 30
0.0
 10
225.4376958884511
 20
-12.03557415913409
 30
0.0
 10
224.2405482640464
 20
-12.26231158919006
 30
0.0
 10
223.4385062490778
 20
-12.33536297900659
 30
0.0
 10
221.8268208036106
 20
-12.32911414054534
 30
0.0
 10
221.0107401279648
 20
-12.24739524296962
 30
0.0
 10
219.432867593386
 20
-11.93489052897807
 30
0.0
 10
218.6645737554153
 20
-11.7052624631069
 30
0.0
 10
217.5432867210809
 20
-11.24904470734909
 30
0.0
 10
217.1732905275436
 20
-11.07728117301585
 30
0.0
 10
216.4583120239797
 20
-10.70230910170368
 30
0.0
 10
216.1118298659434
 20
-10.49866417210107
 30
0.0
 10
215.1048018298379
 20
-9.839953790206536
 30
0.0
 10
214.4763457445881
 20
-9.337605754788248
 30
0.0
 10
213.3096288883353
 20
-8.198871513981937
 30
0.0
 10
212.7895094285491
 20
-7.579874939555163
 30
0.0
 10
212.1047697735125
 20
-6.581902390310645
 30
0.0
 10
211.8923580535392
 20
-6.237397382099513
 30
0.0
 10
211.5001559622657
 20
-5.523910363321107
 30
0.0
 10
211.319667109319
 20
-5.152908631777966
 30
0.0
 10
210.8398388414038
 20
-4.025892650062397
 30
0.0
 10
210.5979135407406
 20
-3.251144195762441
 30
0.0
 10
210.3517005329795
 20
-2.053883709278836
 30
0.0
 10
210.2891528325954
 20
-1.648293425715659
 30
0.0
 10
210.2052350144699
 20
-0.8272873213947463
 30
0.0
 10
210.1844464272036
 20
-0.4181612880225365
 30
0.0
 10
210.1834045795351
 20
0.8052269174094895
 30
0.0
 10
210.2638838783662
 20
1.615536954554536
 30
0.0
 10
210.5087580276874
 20
2.822931615655972
 30
0.0
 10
210.6113652865152
 20
3.223218210214772
 30
0.0
 10
210.8533206257429
 20
4.002558427582279
 30
0.0
 10
210.9930956355877
 20
4.383985825731743
 30
0.0
 10
211.3094655279904
 20
5.130724871906766
 30
0.0
 10
211.4860614598566
 20
5.49603600703723
 30
0.0
 10
211.876400344679
 20
6.210436054583178
 30
0.0
 10
212.09128407343
 20
6.561022954213977
 30
0.0
 10
212.781857228466
 20
7.571081961695307
 30
0.0
 10
213.3041177201344
 20
8.19277360317509
 30
0.0
 10
213.887410110809
 20
8.76279177319422
 30
0.0
  0
SPLINE
  5
D8
330
23
100
AcDbEntity
  8
0
  6
Continuous
 62
     7
370
    25
100
AcDbSpline
210
0.0
220
0.0
230
1.0
 70
    11
 71
     3
 72
   105
 73
   101
 74
     0
 42
0.000000001
 43
0.00000001
 40
0.0
 40
0.0
 40
0.0
 40
0.0
 40
0.0156250000000001
 40
0.0156250000000001
 40
0.0312500000000001
 40
0.0312500000000001
 40
0.0625000000000002
 40
0.0625000000000002
 40
0.078125
 40
0.078125
 40
0.0937499999999999
 40
0.0937499999999999
 40
0.1249999999999999
 40
0.1249999999999999
 40
0.1406249999999999
 40
0.1406249999999999
 40
0.1562499999999999
 40
0.1562499999999999
 40
0.1875000000000001
 40
0.1875000000000001
 40
0.2187500000000003
 40
0.2187500000000003
 40
0.2343750000000003
 40
0.2343750000000003
 40
0.2500000000000003
 40
0.2500000000000003
 40
0.2812500000000003
 40
0.2812500000000003
 40
0.2968750000000002
 40
0.2968750000000002
 40
0.3125000000000002
 40
0.3125000000000002
 40
0.3437500000000003
 40
0.3437500000000003
 40
0.3593750000000004
 40
0.3593750000000004
 40
0.3750000000000004
 40
0.3750000000000004
 40
0.3906250000000006
 40
0.3906250000000006
 40
0.4062500000000006
 40
0.4062500000000006
 40
0.4375000000000007
 40
0.4375000000000007
 40
0.4531250000000009
 40
0.4531250000000009
 40
0.4687500000000011
 40
0.4687500000000011
 40
0.4843750000000013
 40
0.4843750000000013
 40
0.5000000000000014
 40
0.5000000000000014
 40
0.5312500000000019
 40
0.5312500000000019
 40
0.5468750000000021
 40
0.5468750000000021
 40
0.5625000000000023
 40
0.5625000000000023
 40
0.5937500000000026
 40
0.5937500000000026
 40
0.6093750000000026
 40
0.6093750000000026
 40
0.6250000000000024
 40
0.6406250000000024
 40
0.6406250000000024
 40
0.6562500000000024
 40
0.6562500000000024
 40
0.6875000000000022
 40
0.6875000000000022
 40
0.7031250000000023
 40
0.7031250000000023
 40
0.7187500000000023
 40
0.7187500000000023
 40
0.7500000000000023
 40
0.7500000000000023
 40
0.7656250000000022
 40
0.7656250000000022
 40
0.7812500000000021
 40
0.7812500000000021
 40
0.8125000000000019
 40
0.8125000000000019
 40
0.8281250000000018
 40
0.8281250000000018
 40
0.8437500000000016
 40
0.8437500000000016
 40
0.8593750000000014
 40
0.8593750000000014
 40
0.8750000000000013
 40
0.8750000000000013
 40
0.9062500000000011
 40
0.9062500000000011
 40
0.921875000000001
 40
0.921875000000001
 40
0.9375000000000008
 40
0.9375000000000008
 40
0.9687500000000004
 40
0.9687500000000004
 40
0.9843750000000002
 40
0.9843750000000002
 40
1.0
 40
1.0
 40
1.0
 40
1.0
 10
34.43779909611419
 20
8.593306103077477
 30
0.0
 10
34.72673457450626
 20
8.886653727840665
 30
0.0
 10
35.02890721967999
 20
9.16431870292241
 30
0.0
 10
35.6592557021268
 20
9.688779838173593
 30
0.0
 10
35.98886093708511
 20
9.936486317244915
 30
0.0
 10
37.00495434817258
 20
10.62479056272282
 30
0.0
 10
37.71713745164071
 20
11.01122160909448
 30
0.0
 10
38.83547489933853
 20
11.4860185002637
 30
0.0
 10
39.21665885577072
 20
11.62668401503216
 30
0.0
 10
39.99621680191625
 20
11.87193870839974
 30
0.0
 10
40.39100947060378
 20
11.97526558822659
 30
0.0
 10
41.57834697127394
 20
12.22612969880531
 30
0.0
 10
42.37865720170473
 20
12.31663560390871
 30
0.0
 10
43.59215196472277
 20
12.33742246028109
 30
0.0
 10
44.00078819786643
 20
12.32478900220067
 30
0.0
 10
44.80760244165275
 20
12.26093119667666
 30
0.0
 10
45.20689298126468
 20
12.2099207228328
 30
0.0
 10
46.39273419994691
 20
12.0009688493092
 30
0.0
 10
47.16736313351971
 20
11.78764872634789
 30
0.0
 10
48.68385307565319
 20
11.20711191086091
 30
0.0
 10
49.4043358860943
 20
10.8477934491885
 30
0.0
 10
50.424899529978
 20
10.21097359569281
 30
0.0
 10
50.75531917826573
 20
9.982147777174113
 30
0.0
 10
51.39618745006375
 20
9.490505803293955
 30
0.0
 10
51.70811278764262
 20
9.226155631629075
 30
0.0
 10
52.59556490045691
 20
8.395829373151296
 30
0.0
 10
53.12704832824307
 20
7.791102909388509
 30
0.0
 10
53.83437718509658
 20
6.807021226866642
 30
0.0
 10
54.05506529615411
 20
6.466072461256138
 30
0.0
 10
54.46494187367549
 20
5.757117154792001
 30
0.0
 10
54.65161520955674
 20
5.393218965433484
 30
0.0
 10
55.15327407947226
 20
4.283122637882901
 30
0.0
 10
55.41272926452917
 20
3.514831301312639
 30
0.0
 10
55.68649732953358
 20
2.318800158612565
 30
0.0
 10
55.75847073751303
 20
1.91070241183007
 30
0.0
 10
55.85971503863166
 20
1.097559304115367
 30
0.0
 10
55.88956425439445
 20
0.6909103421946059
 30
0.0
 10
55.90856236221825
 20
-0.1225393058710978
 30
0.0
 10
55.89771008921411
 20
-0.5293399962737368
 30
0.0
 10
55.83493492238537
 20
-1.343094459813177
 30
0.0
 10
55.78272774553657
 20
-1.751582654592063
 30
0.0
 10
55.56399674455714
 20
-2.966955832951863
 30
0.0
 10
55.33939815197645
 20
-3.748685809428269
 30
0.0
 10
54.88956200181291
 20
-4.880515495266525
 30
0.0
 10
54.72064896530507
 20
-5.250946238490616
 30
0.0
 10
54.34404258354306
 20
-5.97784078625421
 30
0.0
 10
54.13722991604789
 20
-6.332255810456669
 30
0.0
 10
53.69197475966417
 20
-7.01508926690012
 30
0.0
 10
53.45287608197652
 20
-7.344804928251141
 30
0.0
 10
52.94172199752256
 20
-7.980894786794187
 30
0.0
 10
52.67048166053863
 20
-8.285967288475007
 30
0.0
 10
51.82216211215835
 20
-9.151373379068612
 30
0.0
 10
51.20682569377951
 20
-9.667458994006257
 30
0.0
 10
50.20983290477872
 20
-10.35185324149274
 30
0.0
 10
49.86318744027207
 20
-10.56591219929466
 30
0.0
 10
49.15435691411163
 20
-10.9573615764191
 30
0.0
 10
48.7929542737176
 20
-11.13461141535507
 30
0.0
 10
47.68832381745994
 20
-11.61263674652195
 30
0.0
 10
46.92486123597099
 20
-11.86019397291226
 30
0.0
 10
45.73778624888475
 20
-12.12221579215658
 30
0.0
 10
45.33644953298058
 20
-12.19067352378315
 30
0.0
 10
44.5361843687081
 20
-12.28815916923732
 30
0.0
 10
43.73447177846631
 20
-12.34712583320894
 30
0.0
 10
42.92987016860727
 20
-12.32989764049683
 30
0.0
 10
42.12380036095401
 20
-12.27391379684162
 30
0.0
 10
41.71807943734521
 20
-12.22619097415405
 30
0.0
 10
40.51327981627384
 20
-12.02481120562255
 30
0.0
 10
39.73309760929975
 20
-11.81547569276082
 30
0.0
 10
38.59692331990728
 20
-11.39083485505359
 30
0.0
 10
38.22392203328454
 20
-11.230721110684
 30
0.0
 10
37.48980208267039
 20
-10.87209860800477
 30
0.0
 10
37.12935684950566
 20
-10.6736120541764
 30
0.0
 10
36.08977370646171
 20
-10.03321930544564
 30
0.0
 10
35.44383826632785
 20
-9.54305495879032
 30
0.0
 10
34.54670125842568
 20
-8.711908539338172
 30
0.0
 10
34.2582506396473
 20
-8.417063917682864
 30
0.0
 10
33.71434075870655
 20
-7.802472089592934
 30
0.0
 10
33.45949160346676
 20
-7.483811199647356
 30
0.0
 10
32.74514286947766
 20
-6.494519800595299
 30
0.0
 10
32.33534303951998
 20
-5.790912033699462
 30
0.0
 10
31.82471499264349
 20
-4.666603996550515
 30
0.0
 10
31.67352426161582
 20
-4.283222085143596
 30
0.0
 10
31.41233023935282
 20
-3.509673526519316
 30
0.0
 10
31.30161998137501
 20
-3.117979448576954
 30
0.0
 10
31.11966601011121
 20
-2.324832704541103
 30
0.0
 10
31.04842091665652
 20
-1.923380374232577
 30
0.0
 10
30.94626110886708
 20
-1.110506916218377
 30
0.0
 10
30.91544919469655
 20
-0.6970086153797747
 30
0.0
 10
30.8864130987431
 20
0.5327123628066177
 30
0.0
 10
30.94939353131265
 20
1.344222759162955
 30
0.0
 10
31.16546316860938
 20
2.549221819902598
 30
0.0
 10
31.25818241518405
 20
2.94980255006048
 30
0.0
 10
31.48477686001297
 20
3.742529976173263
 30
0.0
 10
31.617159028736
 20
4.129842289190403
 30
0.0
 10
32.06946344718546
 20
5.265601270747799
 30
0.0
 10
32.44402302311666
 20
5.988118579821402
 30
0.0
 10
33.1169429163624
 20
7.019079480804549
 30
0.0
 10
33.35996838502131
 20
7.353558874766073
 30
0.0
 10
33.87542176121458
 20
7.99319996267546
 30
0.0
 10
34.14886361772213
 20
8.299958478314291
 30
0.0
 10
34.43779909611419
 20
8.593306103077476
 30
0.0
  0
LINE
  5
DB
330
23
100
AcDbEntity
  8
0
  6
Continuous
 62
     7
370
    25
100
AcDbLine
 10
193.0450891858
 20
-150.0
 30
0.0
 11
241.0705025547
 21
-142.3178226831
 31
0.0
  0
LINE
  5
DC
330
23
100
AcDbEntity
  8
0
  6
Continuous
 62
     7
370
    25
100
AcDbLine
 10
241.0705025547
 20
142.3178226831
 30
0.0
 11
193.0450891858
 21
150.0
 31
0.0
  0
LINE
  5
DD
330
23
100
AcDbEntity
  8
0
  6
Continuous
 62
     7
370
    25
100
AcDbLine
 10
193.0450891858
 20
150.0
 30
0.0
 11
73.0450838034
 21
150.0
 31
0.0
  0
LINE
  5
DE
330
23
100
AcDbEntity
  8
0
  6
Continuous
 62
     7
370
    25
100
AcDbLine
 10
73.0450838034
 20
-150.0
 30
0.0
 11
193.0450891858
 21
-150.0
 31
0.0
  0
LINE
  5
DF
330
23
100
AcDbEntity
  8
0
  6
Continuous
 62
     7
370
    25
100
AcDbLine
 10
73.0450838034
 20
150.0
 30
0.0
 11
25.0024121089
 21
142.4265018631
 31
0.0
  0
LINE
  5
E0
330
23
100
AcDbEntity
  8
0
  6
Continuous
 62
     7
370
    25
100
AcDbLine
 10
25.0024121089
 20
-142.4265018631
 30
0.0
 11
73.0450838034
 21
-150.0
 31
0.0
  0
LINE
  5
E1
330
23
100
AcDbEntity
  8
0
  6
Continuous
 62
     7
370
    25
100
AcDbLine
 10
25.0024121089
 20
142.4265018631
 30
0.0
 11
23.0222072548
 21
140.1150709762
 31
0.0
  0
LINE
  5
E2
330
23
100
AcDbEntity
  8
0
  6
Continuous
 62
     7
370
    25
100
AcDbLine
 10
23.0222072548
 20
-140.1150709762
 30
0.0
 11
25.0024121089
 21
-142.4265018631
 31
0.0
  0
LINE
  5
E3
330
23
100
AcDbEntity
  8
0
  6
Continuous
 62
     7
370
    25
100
AcDbLine
 10
241.0705025547
 20
-142.3178226831
 30
0.0
 11
243.0454726307
 21
-140.0019174157
 31
0.0
  0
LINE
  5
E4
330
23
100
AcDbEntity
  8
0
  6
Continuous
 62
     7
370
    25
100
AcDbLine
 10
243.0454726307
 20
140.0019174157
 30
0.0
 11
241.0705025547
 21
142.3178226831
 31
0.0
  0
LINE
  5
E5
330
23
100
AcDbEntity
  8
0
  6
Continuous
 62
     7
370
    25
100
AcDbLine
 10
193.0450891858
 20
150.0
 30
0.0
 11
193.0450891858
 21
-150.0
 31
0.0
  0
LINE
  5
E6
330
23
100
AcDbEntity
  8
0
  6
Continuous
 62
     7
370
    25
100
AcDbLine
 10
241.0705025547
 20
142.3178226831
 30
0.0
 11
241.0705025547
 21
-142.3178226831
 31
0.0
  0
LINE
  5
E7
330
23
100
AcDbEntity
  8
0
  6
Continuous
 62
     7
370
    25
100
AcDbLine
 10
73.0450838034
 20
150.0
 30
0.0
 11
73.0450838034
 21
-150.0
 31
0.0
  0
LINE
  5
E8
330
23
100
AcDbEntity
  8
0
  6
Continuous
 62
     7
370
    25
100
AcDbLine
 10
25.0024121089
 20
142.4265018631
 30
0.0
 11
25.0024121089
 21
-142.4265018631
 31
0.0
  0
LINE
  5
E9
330
23
100
AcDbEntity
  8
0
  6
Continuous
 62
     7
370
    25
100
AcDbLine
 10
23.0222072548
 20
140.1150709762
 30
0.0
 11
23.0222072548
 21
-140.1150709762
 31
0.0
  0
LINE
  5
EA
330
23
100
AcDbEntity
  8
0
  6
Continuous
 62
     7
370
    25
100
AcDbLine
 10
243.0454726307
 20
140.0019174157
 30
0.0
 11
243.0454726307
 21
-140.0019174157
 31
0.0
  0
VIEWPORT
  5
ED
330
23
100
AcDbEntity
  8
0
100
AcDbViewport
 10
0.0
 20
0.0
 30
0.0
 40
205.6
 41
156.0
 68
     1
 69
     1
 12
133.0338399428
 22
8.17
 13
0.0
 23
0.0
 14
10.0
 24
10.0
 15
10.0
 25
10.0
 16
0.0
 26
0.0
 36
1.0
 17
0.0
 27
0.0
 37
0.0
 42
50.0
 43
0.0
 44
0.0
 45
322.6668
 50
0.0
 51
0.0
 72
   100
 90
   557152
  1

281
     0
 71
     1
 74
     0
110
0.0
120
0.0
130
0.0
111
1.0
121
0.0
131
0.0
112
0.0
122
1.0
132
0.0
 79
     0
146
0.0
  0
ENDBLK
  5
25
330
23
100
AcDbEntity
  8
0
100
AcDbBlockEnd
  0
ENDSEC
  0
SECTION
  2
ENTITIES
  0
SPLINE
  5
7F
330
1F
100
AcDbEntity
  8
0
  6
Continuous
 62
     7
370
    25
100
AcDbSpline
210
0.0
220
0.0
230
1.0
 70
     8
 71
     3
 72
    12
 73
     8
 74
     0
 42
0.000000001
 43
0.00000001
 40
0.0
 40
0.0
 40
0.0
 40
0.0
 40
0.1281060520934772
 40
0.3463666668344335
 40
0.6277493957875461
 40
0.9156391357990418
 40
0.9999999999999999
 40
0.9999999999999999
 40
0.9999999999999999
 40
0.9999999999999999
 10
234.8242860684544
 20
143.3589842700625
 30
0.0
 10
234.7267537802233
 20
143.3963528339145
 30
0.0
 10
234.4630509103644
 20
143.4973880675688
 30
0.0
 10
234.048031809668
 20
143.8139258302454
 30
0.0
 10
233.6758522167273
 20
144.3381730624774
 30
0.0
 10
233.4832422733041
 20
144.8629267235948
 30
0.0
 10
233.5179305287362
 20
145.1651323403401
 30
0.0
 10
233.5257917146491
 20
145.2336193399756
 30
0.0
  0
SPLINE
  5
80
330
1F
100
AcDbEntity
  8
0
  6
Continuous
 62
     7
370
    25
100
AcDbSpline
210
0.0
220
0.0
230
1.0
 70
     8
 71
     3
 72
    14
 73
    10
 74
     0
 42
0.000000001
 43
0.00000001
 40
0.0
 40
0.0
 40
0.0
 40
0.0
 40
0.0776478798025222
 40
0.3153461612454629
 40
0.5229389622504387
 40
0.6931616895273374
 40
0.8371146198693044
 40
0.9564636806872414
 40
1.0
 40
1.0
 40
1.0
 40
1.0
 10
212.4720680735428
 20
149.1915387204576
 30
0.0
 10
212.4783643510822
 20
149.1128591459144
 30
0.0
 10
212.5039350035875
 20
148.7933230315515
 30
0.0
 10
212.2931700292372
 20
148.2791713241635
 30
0.0
 10
211.9167906155025
 20
147.7796279905188
 30
0.0
 10
211.4809465631559
 20
147.4670231041003
 30
0.0
 10
211.071518886292
 20
147.3044647367044
 30
0.0
 10
210.7647437801351
 20
147.2396786368937
 30
0.0
 10
210.5998175226889
 20
147.238999165967
 30
0.0
 10
210.5557357137417
 20
147.2388175556641
 30
0.0
  0
SPLINE
  5
82
330
1F
100
AcDbEntity
  8
0
  6
Continuous
 62
     7
370
    25
100
AcDbSpline
210
0.0
220
0.0
230
1.0
 70
     8
 71
     3
 72
    13
 73
     9
 74
     0
 42
0.000000001
 43
0.00000001
 40
0.0
 40
0.0
 40
0.0
 40
0.0
 40
0.1012409022610729
 40
0.3700366230807964
 40
0.5880463003738344
 40
0.7722446890640567
 40
0.925906177468189
 40
1.0
 40
1.0
 40
1.0
 40
1.0
 10
32.56182196108914
 20
145.3331967774943
 30
0.0
 10
32.57013300782156
 20
145.2505346665179
 30
0.0
 10
32.6005099760078
 20
144.94840373209
 30
0.0
 10
32.42552417184608
 20
144.4789535479082
 30
0.0
 10
32.12796153935017
 20
144.0173548595527
 30
0.0
 10
31.78586914826918
 20
143.7127038798207
 30
0.0
 10
31.49651231596295
 20
143.5356631169485
 30
0.0
 10
31.32080122931538
 20
143.4742006028529
 30
0.0
 10
31.26363854003522
 20
143.4542054923415
 30
0.0
  0
SPLINE
  5
89
330
1F
100
AcDbEntity
  8
0
  6
Continuous
 62
     7
370
    25
100
AcDbSpline
210
0.0
220
0.0
230
1.0
 70
     8
 71
     3
 72
    26
 73
    22
 74
     0
 42
0.000000001
 43
0.00000001
 40
0.0
 40
0.0
 40
0.0
 40
0.0
 40
0.0358565887846165
 40
0.0879622402428162
 40
0.1416166820394885
 40
0.2095101210440864
 40
0.2621726388069365
 40
0.316367164587987
 40
0.3692511325513723
 40
0.4236265351089691
 40
0.476903846358026
 40
0.5316489015070486
 40
0.5855495697848528
 40
0.6409434993462614
 40
0.695226644129586
 40
0.7510740849594137
 40
0.8049188241026967
 40
0.8603993240572225
 40
0.9129264888173934
 40
0.9670878916466731
 40
1.0
 40
1.0
 40
1.0
 40
1.0
 10
235.1437942164156
 20
143.2624500450745
 30
0.0
 10
235.1440394857422
 20
143.2624250250157
 30
0.0
 10
235.1446411726334
 20
143.2623636466051
 30
0.0
 10
234.7391317743792
 20
143.2931087458315
 30
0.0
 10
233.9262741941082
 20
143.3581061747129
 30
0.0
 10
232.6942158606196
 20
143.465184036911
 30
0.0
 10
231.123985313056
 20
143.6183539712278
 30
0.0
 10
229.4546979710726
 20
143.7991789675532
 30
0.0
 10
227.5841452820113
 20
144.0247630904697
 30
0.0
 10
225.5939904884573
 20
144.2911757491916
 30
0.0
 10
223.5068507057181
 20
144.5997222701761
 30
0.0
 10
221.4075833853825
 20
144.9399282402568
 30
0.0
 10
219.3206760472635
 20
145.3076314094782
 30
0.0
 10
217.3339746146528
 20
145.6848599855446
 30
0.0
 10
215.4752534370382
 20
146.0615435470613
 30
0.0
 10
213.8351024233043
 20
146.4129924096397
 30
0.0
 10
212.4369833378932
 20
146.7264470106974
 30
0.0
 10
211.3527815989746
 20
146.9784007496606
 30
0.0
 10
210.6063054917715
 20
147.1562053558208
 30
0.0
 10
210.2162980318794
 20
147.2506121250957
 30
0.0
 10
210.2205742001207
 20
147.2495851108318
 30
0.0
 10
210.2221905092666
 20
147.249196919242
 30
0.0
  0
SPLINE
  5
8C
330
1F
100
AcDbEntity
  8
0
  6
Continuous
 62
     7
370
    25
100
AcDbSpline
210
0.0
220
0.0
230
1.0
 70
     8
 71
     3
 72
    26
 73
    22
 74
     0
 42
0.000000001
 43
0.00000001
 40
0.0
 40
0.0
 40
0.0
 40
0.0
 40
0.0511032515419952
 40
0.1019861281536686
 40
0.1543493436421574
 40
0.2185380510660777
 40
0.2724524735433401
 40
0.3279416552456716
 40
0.3820676298988092
 40
0.4377154576231488
 40
0.4922619694013289
 40
0.5483700771998065
 40
0.6024349471840236
 40
0.658070656002258
 40
0.7112232963775871
 40
0.7659285270723243
 40
0.8183723922020815
 40
0.8723587830103467
 40
0.9244718996055098
 40
0.9781326822692823
 40
1.0
 40
1.0
 40
1.0
 40
1.0
 10
55.89628045964123
 20
147.2961432794542
 30
0.0
 10
55.86690734868213
 20
147.2890673990678
 30
0.0
 10
55.8082877937976
 20
147.2749461519437
 30
0.0
 10
55.29284429896489
 20
147.1518819386505
 30
0.0
 10
54.42164288645984
 20
146.9476402264681
 30
0.0
 10
53.16650874888295
 20
146.6618760173071
 30
0.0
 10
51.57704420430406
 20
146.3156943870066
 30
0.0
 10
49.84948738233572
 20
145.9577698217157
 30
0.0
 10
47.92326791879162
 20
145.5820471650898
 30
0.0
 10
45.87972223203531
 20
145.2104579883139
 30
0.0
 10
43.73892109206805
 20
144.8513171136077
 30
0.0
 10
41.60333772423075
 20
144.5240806844914
 30
0.0
 10
39.5008699439043
 20
144.2323017674583
 30
0.0
 10
37.53981099752188
 20
143.9875630981613
 30
0.0
 10
35.73488584510448
 20
143.7857014319934
 30
0.0
 10
34.17538626947677
 20
143.6295007216217
 30
0.0
 10
32.86923519280693
 20
143.5116007709353
 30
0.0
 10
31.87104499919996
 20
143.4295831450883
 30
0.0
 10
31.21272806138371
 20
143.3792112726429
 30
0.0
 10
30.89970251745163
 20
143.35638187258
 30
0.0
 10
30.93421681152919
 20
143.3589016062214
 30
0.0
 10
30.94420958284084
 20
143.3596311335873
 30
0.0
  0
SPLINE
  5
91
330
1F
100
AcDbEntity
  8
0
  6
Continuous
 62
     8
370
    25
100
AcDbSpline
210
0.0
220
0.0
230
1.0
 70
     8
 71
     3
 72
    18
 73
    14
 74
     0
 42
0.000000001
 43
0.00000001
 40
0.0
 40
0.0
 40
0.0
 40
0.0
 40
0.032653717744101
 40
0.1397695323376187
 40
0.2494505961705629
 40
0.3597300946939103
 40
0.4688610105210628
 40
0.5764681712668029
 40
0.6832909128391782
 40
0.78996083369624
 40
0.8581798752899681
 40
0.9643288491679698
 40
1.0
 40
1.0
 40
1.0
 40
1.0
 10
212.6231052649334
 20
149.1977209238277
 30
0.0
 10
212.5888672199563
 20
149.2076200894141
 30
0.0
 10
212.442316203251
 20
149.249992040914
 30
0.0
 10
213.3985693544335
 20
148.9725020317243
 30
0.0
 10
215.4342425279707
 20
148.4117631477761
 30
0.0
 10
218.4225424599287
 20
147.6604427801016
 30
0.0
 10
221.8824167256585
 20
146.9013646364371
 30
0.0
 10
225.4565715653913
 20
146.2422195746698
 30
0.0
 10
228.7486898985662
 20
145.7491160432151
 30
0.0
 10
231.1066415757074
 20
145.4683504901063
 30
0.0
 10
232.7163686654744
 20
145.3033532358808
 30
0.0
 10
233.5474212738484
 20
145.2300634840877
 30
0.0
 10
233.4039114546449
 20
145.2428488239338
 30
0.0
 10
233.3678153052645
 20
145.2460646424717
 30
0.0
  0
SPLINE
  5
92
330
1F
100
AcDbEntity
  8
0
  6
Continuous
 62
     8
370
    25
100
AcDbSpline
210
0.0
220
0.0
230
1.0
 70
     8
 71
     3
 72
    18
 73
    14
 74
     0
 42
0.000000001
 43
0.00000001
 40
0.0
 40
0.0
 40
0.0
 40
0.0
 40
0.0214293926788562
 40
0.1276090987677908
 40
0.2341304078377646
 40
0.3416958907953488
 40
0.4508876600298586
 40
0.5611247140479458
 40
0.6707948515332959
 40
0.7803989078059216
 40
0.8450344120437691
 40
0.9487019561954187
 40
1.0
 40
1.0
 40
1.0
 40
1.0
 10
32.6862665508012
 20
145.3404521354561
 30
0.0
 10
32.65700607670205
 20
145.3379108541475
 30
0.0
 10
32.48276396049904
 20
145.3227778719691
 30
0.0
 10
33.32678052421686
 20
145.3942674699509
 30
0.0
 10
35.20252247783298
 20
145.5794613347549
 30
0.0
 10
38.09287234618134
 20
145.9341172856938
 30
0.0
 10
41.5487144985815
 20
146.471140965637
 30
0.0
 10
45.18831609911488
 20
147.1671663226021
 30
0.0
 10
48.56721918413579
 20
147.9311489286323
 30
0.0
 10
50.9649057154003
 20
148.545530290394
 30
0.0
 10
52.63487164517799
 20
148.9997413344158
 30
0.0
 10
53.5635088923294
 20
149.2652533602179
 30
0.0
 10
53.4755414634441
 20
149.2401013263372
 30
0.0
 10
53.4464217273798
 20
149.2317752834215
 30
0.0
  0
LINE
  5
93
330
1F
100
AcDbEntity
  8
0
  6
Continuous
 62
     7
370
    25
100
AcDbLine
 10
193.0450891858
 20
-150.0
 30
0.0
 11
241.0705025547
 21
-142.3178226831
 31
0.0
  0
LINE
  5
94
330
1F
100
AcDbEntity
  8
0
  6
Continuous
 62
     7
370
    25
100
AcDbLine
 10
210.2226806347
 20
147.2522609566
 30
0.0
 11
193.0450891858
 21
150.0
 31
0.0
  0
LINE
  5
95
330
1F
100
AcDbEntity
  8
0
  6
Continuous
 62
     7
370
    25
100
AcDbLine
 10
241.0705025547
 20
142.3178226831
 30
0.0
 11
235.1443265222
 21
143.265777774
 31
0.0
  0
LINE
  5
96
330
1F
100
AcDbEntity
  8
0
  6
Continuous
 62
     7
370
    25
100
AcDbLine
 10
193.0450891858
 20
150.0
 30
0.0
 11
73.0450838034
 21
150.0
 31
0.0
  0
LINE
  5
97
330
1F
100
AcDbEntity
  8
0
  6
Continuous
 62
     7
370
    25
100
AcDbLine
 10
73.0450838034
 20
-150.0
 30
0.0
 11
193.0450891858
 21
-150.0
 31
0.0
  0
LINE
  5
98
330
1F
100
AcDbEntity
  8
0
  6
Continuous
 62
     7
370
    25
100
AcDbLine
 10
30.9436647518
 20
143.3630872826
 30
0.0
 11
25.0024121089
 21
142.4265018631
 31
0.0
  0
LINE
  5
99
330
1F
100
AcDbEntity
  8
0
  6
Continuous
 62
     7
370
    25
100
AcDbLine
 10
73.0450838034
 20
150.0
 30
0.0
 11
55.8962033928
 21
147.2966321551
 31
0.0
  0
LINE
  5
9A
330
1F
100
AcDbEntity
  8
0
  6
Continuous
 62
     7
370
    25
100
AcDbLine
 10
25.0024121089
 20
-142.4265018631
 30
0.0
 11
73.0450838034
 21
-150.0
 31
0.0
  0
LINE
  5
9B
330
1F
100
AcDbEntity
  8
0
  6
Continuous
 62
     7
370
    25
100
AcDbLine
 10
25.0024121089
 20
142.4265018631
 30
0.0
 11
23.0222072548
 21
140.1150709762
 31
0.0
  0
LINE
  5
9C
330
1F
100
AcDbEntity
  8
0
  6
Continuous
 62
     7
370
    25
100
AcDbLine
 10
23.0222072548
 20
-140.1150709762
 30
0.0
 11
25.0024121089
 21
-142.4265018631
 31
0.0
  0
LINE
  5
9D
330
1F
100
AcDbEntity
  8
0
  6
Continuous
 62
     7
370
    25
100
AcDbLine
 10
241.0705025547
 20
-142.3178226831
 30
0.0
 11
243.0454726307
 21
-140.0019174157
 31
0.0
  0
LINE
  5
9E
330
1F
100
AcDbEntity
  8
0
  6
Continuous
 62
     7
370
    25
100
AcDbLine
 10
243.0454726307
 20
140.0019174157
 30
0.0
 11
241.0705025547
 21
142.3178226831
 31
0.0
  0
LINE
  5
9F
330
1F
100
AcDbEntity
  8
0
  6
Continuous
 62
     7
370
    25
100
AcDbLine
 10
53.5909452613
 20
149.2317745785
 30
0.0
 11
53.5909452613
 21
166.34
 31
0.0
  0
LINE
  5
A0
330
1F
100
AcDbEntity
  8
0
  6
Continuous
 62
     7
370
    25
100
AcDbLine
 10
32.5909452613
 20
166.34
 30
0.0
 11
32.5909452613
 21
145.3405757366
 31
0.0
  0
LINE
  5
A1
330
1F
100
AcDbEntity
  8
0
  6
Continuous
 62
     7
370
    25
100
AcDbLine
 10
233.5
 20
145.2461135745
 30
0.0
 11
233.5
 21
166.34
 31
0.0
  0
LINE
  5
A2
330
1F
100
AcDbEntity
  8
0
  6
Continuous
 62
     7
370
    25
100
AcDbLine
 10
212.5
 20
166.34
 30
0.0
 11
212.5
 21
149.1975181839
 31
0.0
  0
LINE
  5
A3
330
1F
100
AcDbEntity
  8
0
  6
Continuous
 62
     7
370
    25
100
AcDbLine
 10
193.0450891858
 20
150.0
 30
0.0
 11
193.0450891858
 21
-150.0
 31
0.0
  0
LINE
  5
A4
330
1F
100
AcDbEntity
  8
0
  6
Continuous
 62
     7
370
    25
100
AcDbLine
 10
241.0705025547
 20
142.3178226831
 30
0.0
 11
241.0705025547
 21
-142.3178226831
 31
0.0
  0
LINE
  5
A5
330
1F
100
AcDbEntity
  8
0
  6
Continuous
 62
     7
370
    25
100
AcDbLine
 10
73.0450838034
 20
150.0
 30
0.0
 11
73.0450838034
 21
-150.0
 31
0.0
  0
LINE
  5
A6
330
1F
100
AcDbEntity
  8
0
  6
Continuous
 62
     7
370
    25
100
AcDbLine
 10
25.0024121089
 20
142.4265018631
 30
0.0
 11
25.0024121089
 21
-142.4265018631
 31
0.0
  0
LINE
  5
A7
330
1F
100
AcDbEntity
  8
0
  6
Continuous
 62
     7
370
    25
100
AcDbLine
 10
23.0222072548
 20
140.1150709762
 30
0.0
 11
23.0222072548
 21
-140.1150709762
 31
0.0
  0
LINE
  5
A8
330
1F
100
AcDbEntity
  8
0
  6
Continuous
 62
     7
370
    25
100
AcDbLine
 10
243.0454726307
 20
140.0019174157
 30
0.0
 11
243.0454726307
 21
-140.0019174157
 31
0.0
  0
LINE
  5
A9
330
1F
100
AcDbEntity
  8
0
  6
Continuous
 62
     7
370
    25
100
AcDbLine
 10
32.5909452613
 20
166.34
 30
0.0
 11
53.5909452613
 21
166.34
 31
0.0
  0
LINE
  5
AA
330
1F
100
AcDbEntity
  8
0
  6
Continuous
 62
     7
370
    25
100
AcDbLine
 10
233.5
 20
166.34
 30
0.0
 11
212.5
 21
166.34
 31
0.0
  0
ARC
  5
AB
330
1F
100
AcDbEntity
  8
0
  6
Continuous
 62
     7
370
    25
100
AcDbCircle
 10
55.5909452452
 20
149.2732091385
 30
0.0
 40
1.999999999182563
100
AcDbArc
 50
181.1818038959
 51
283.4706797996
  0
SPLINE
  5
AC
330
1B
100
AcDbEntity
 67
     1
  8
0
  6
Continuous
 62
     7
370
    25
100
AcDbSpline
210
0.0
220
0.0
230
1.0
 70
     8
 71
     3
 72
    11
 73
     7
 74
     0
 42
0.000000001
 43
0.00000001
 40
0.0
 40
0.0
 40
0.0
 40
0.0
 40
0.2858928752871288
 40
0.5794041488748197
 40
0.8806460587946825
 40
1.0
 40
1.0
 40
1.0
 40
1.0
 10
10.95961544266233
 20
145.6590574183162
 30
0.0
 10
10.94513298228537
 20
145.6677907035244
 30
0.0
 10
10.91578213672864
 20
145.6854899962327
 30
0.0
 10
10.69142596101812
 20
145.9630918047152
 30
0.0
 10
10.48865460144887
 20
146.3934559546788
 30
0.0
 10
10.52450706553511
 20
146.6925924938293
 30
0.0
 10
10.53468104342663
 20
146.7774795054595
 30
0.0
  0
SPLINE
  5
AD
330
1B
100
AcDbEntity
 67
     1
  8
0
  6
Continuous
 62
     7
370
    25
100
AcDbSpline
210
0.0
220
0.0
230
1.0
 70
     8
 71
     3
 72
    11
 73
     7
 74
     0
 42
0.000000001
 43
0.00000001
 40
0.0
 40
0.0
 40
0.0
 40
0.0
 40
0.1525130625948789
 40
0.4568831780818824
 40
0.7285100520248624
 40
0.9999999999999999
 40
0.9999999999999999
 40
0.9999999999999999
 40
0.9999999999999999
 10
-10.5380810391338
 20
146.7687446639411
 30
0.0
 10
-10.52991266307766
 20
146.6589318916862
 30
0.0
 10
-10.50544266982726
 20
146.3299659163909
 30
0.0
 10
-10.72547216288155
 20
145.9118441525907
 30
0.0
 10
-10.92339925296441
 20
145.6807959494293
 30
0.0
 10
-10.94612639103153
 20
145.6667668826167
 30
0.0
 10
-10.95748709517926
 20
145.6597541176546
 30
0.0
  0
CIRCLE
  5
B0
330
1B
100
AcDbEntity
 67
     1
  8
0
  6
Continuous
 62
     7
370
    25
100
AcDbCircle
 10
0.0
 20
0.0
 30
0.0
 40
127.252771595692
  0
CIRCLE
  5
B1
330
1B
100
AcDbEntity
 67
     1
  8
0
  6
Continuous
 62
     7
370
    25
100
AcDbCircle
 10
0.0
 20
0.0
 30
0.0
 40
130.4634780024545
  0
CIRCLE
  5
B2
330
1B
100
AcDbEntity
 67
     1
  8
0
  6
Continuous
 62
     7
370
    25
100
AcDbCircle
 10
0.0
 20
0.0
 30
0.0
 40
140.1150709761629
  0
CIRCLE
  5
B3
330
1B
100
AcDbEntity
 67
     1
  8
0
  6
Continuous
 62
     7
370
    25
100
AcDbCircle
 10
0.0
 20
0.0
 30
0.0
 40
142.4265018630815
  0
CIRCLE
  5
B6
330
1B
100
AcDbEntity
 67
     1
  8
0
  6
Continuous
 62
     7
370
    25
100
AcDbCircle
 10
0.0
 20
0.0
 30
0.0
 40
124.9999999999999
  0
SPLINE
  5
B9
330
1B
100
AcDbEntity
 67
     1
  8
0
  6
Continuous
 62
     8
370
    25
100
AcDbSpline
210
0.0
220
0.0
230
1.0
 70
     8
 71
     3
 72
    15
 73
    11
 74
     0
 42
0.000000001
 43
0.00000001
 40
0.0
 40
0.0
 40
0.0
 40
0.0
 40
0.1314093596447082
 40
0.2615023673625792
 40
0.3952720090554847
 40
0.5264290364356204
 40
0.6612103298597723
 40
0.7938373418975652
 40
0.9301260522464274
 40
1.0
 40
1.0
 40
1.0
 40
1.0
 10
-8.593306103077479
 20
143.6571179339705
 30
0.0
 10
-9.064911929589826
 20
143.7083023884641
 30
0.0
 10
-10.00339941958599
 20
143.810158573278
 30
0.0
 10
-11.0713396132445
 20
144.0158226910803
 30
0.0
 10
-11.84419789619872
 20
144.2606503705781
 30
0.0
 10
-12.28451596955107
 20
144.5495005124268
 30
0.0
 10
-12.38472760409313
 20
144.8726584521941
 30
0.0
 10
-12.11915593855916
 20
145.2268383257411
 30
0.0
 10
-11.65727624104274
 20
145.5384752357257
 30
0.0
 10
-11.16055365312246
 20
145.7268593601312
 30
0.0
 10
-10.9922013022369
 20
145.7907076951667
 30
0.0
  0
SPLINE
  5
BA
330
1B
100
AcDbEntity
 67
     1
  8
0
  6
Continuous
 62
     8
370
    25
100
AcDbSpline
210
0.0
220
0.0
230
1.0
 70
     8
 71
     3
 72
    24
 73
    20
 74
     0
 42
0.000000001
 43
0.00000001
 40
0.0
 40
0.0
 40
0.0
 40
0.0
 40
0.034318177646048
 40
0.0967457954843581
 40
0.1579379197945709
 40
0.2208818954089509
 40
0.281533697642309
 40
0.3439477200813034
 40
0.4035761522437477
 40
0.4649463328100938
 40
0.523779636897045
 40
0.5843433985328641
 40
0.6428056577118181
 40
0.7030041411033522
 40
0.7614134253219221
 40
0.8215638692287316
 40
0.8801208075418575
 40
0.9404093518254074
 40
1.0
 40
1.0
 40
1.0
 40
1.0
 10
10.98719182729867
 20
145.7930129824367
 30
0.0
 10
11.167296337911
 20
145.7239902900885
 30
0.0
 10
11.67502592452315
 20
145.5294095828444
 30
0.0
 10
12.14006771956744
 20
145.2102692644344
 30
0.0
 10
12.39117102940432
 20
144.8513688904283
 30
0.0
 10
12.2640572550274
 20
144.5240673199893
 30
0.0
 10
11.7792764440284
 20
144.2323050700651
 30
0.0
 10
10.95861476039619
 20
143.9875635507227
 30
0.0
 10
9.813574252841196
 20
143.7856966725246
 30
0.0
 10
8.406033615716614
 20
143.6295196761821
 30
0.0
 10
6.746117086423598
 20
143.5115322785913
 30
0.0
 10
4.916963836796937
 20
143.4298436862216
 30
0.0
 10
2.930842975216793
 20
143.3782654928289
 30
0.0
 10
0.8824529713512788
 20
143.3545854482434
 30
0.0
 10
-1.210005710142669
 20
143.356656514865
 30
0.0
 10
-3.250320800368484
 20
143.3843243005794
 30
0.0
 10
-5.211347476146082
 20
143.4410244358655
 30
0.0
 10
-7.033245260238976
 20
143.5258690798742
 30
0.0
 10
-8.07530800106328
 20
143.6135384430644
 30
0.0
 10
-8.59330610307748
 20
143.6571179339705
 30
0.0
  0
SPLINE
  5
BB
330
1B
100
AcDbEntity
 67
     1
  8
0
  6
Continuous
 62
     8
370
    25
100
AcDbSpline
210
0.0
220
0.0
230
1.0
 70
     8
 71
     3
 72
    16
 73
    12
 74
     0
 42
0.000000001
 43
0.00000001
 40
0.0
 40
0.0
 40
0.0
 40
0.0
 40
0.0718640601620372
 40
0.2148850840695298
 40
0.2150576428580549
 40
0.3582084664969827
 40
0.501396471641136
 40
0.6450451434343881
 40
0.7901019296545657
 40
0.9373518344692823
 40
1.0
 40
1.0
 40
1.0
 40
1.0
 10
-7.317468648732193
 20
145.6291959002087
 30
0.0
 10
-6.876130839444369
 20
145.586179060515
 30
0.0
 10
-5.556459893521745
 20
145.4575517996404
 30
0.0
 10
-3.900819613181874
 20
145.3921184057121
 30
0.0
 10
-1.639988838174808
 20
145.3370803621828
 30
0.0
 10
0.7479608320154318
 20
145.3176103513577
 30
0.0
 10
4.227341044077436
 20
145.3889744496321
 30
0.0
 10
7.263899429965811
 20
145.5798716990661
 30
0.0
 10
9.419878585933487
 20
145.9378950791636
 30
0.0
 10
10.50415603725384
 20
146.3543681632726
 30
0.0
 10
10.38506803723764
 20
146.6849142813633
 30
0.0
 10
10.34952390514791
 20
146.7835722056005
 30
0.0
  0
SPLINE
  5
BC
330
1B
100
AcDbEntity
 67
     1
  8
0
  6
Continuous
 62
     8
370
    25
100
AcDbSpline
210
0.0
220
0.0
230
1.0
 70
     8
 71
     3
 72
    10
 73
     6
 74
     0
 42
0.000000001
 43
0.00000001
 40
0.0
 40
0.0
 40
0.0
 40
0.0
 40
0.3748402389814889
 40
0.7914103836650344
 40
1.0
 40
1.0
 40
1.0
 40
1.0
 10
-10.44404304927166
 20
146.7823042449611
 30
0.0
 10
-10.37737705659414
 20
146.5920463980125
 30
0.0
 10
-10.2366233344599
 20
146.1903498350768
 30
0.0
 10
-8.91003317024467
 20
145.83330599875
 30
0.0
 10
-7.715900637473732
 20
145.6802607025357
 30
0.0
 10
-7.317468648732193
 20
145.6291959002087
 30
0.0
  0
LINE
  5
BD
330
1B
100
AcDbEntity
 67
     1
  8
0
  6
Continuous
 62
     7
370
    25
100
AcDbLine
 10
10.5
 20
146.7857891923
 30
0.0
 11
10.5
 21
166.34
 31
0.0
  0
LINE
  5
BE
330
1B
100
AcDbEntity
 67
     1
  8
0
  6
Continuous
 62
     7
370
    25
100
AcDbLine
 10
-10.5
 20
166.34
 30
0.0
 11
-10.5
 21
146.7786565731
 31
0.0
  0
LINE
  5
BF
330
1B
100
AcDbEntity
 67
     1
  8
0
  6
Continuous
 62
     7
370
    25
100
AcDbLine
 10
-10.5
 20
166.34
 30
0.0
 11
10.5
 21
166.34
 31
0.0
  0
ARC
  5
C0
330
1B
100
AcDbEntity
 67
     1
  8
0
  6
Continuous
 62
     7
370
    25
100
AcDbCircle
 10
0.0
 20
0.0
 30
0.0
 40
150.0
100
AcDbArc
 50
94.0139872181
 51
85.9860127819
  0
VIEWPORT
  5
EB
330
1B
100
AcDbEntity
 67
     1
  8
0
100
AcDbViewport
 10
0.0
 20
0.0
 30
0.0
 40
205.6
 41
156.0
 68
     1
 69
     1
 12
133.0338399428
 22
8.17
 13
0.0
 23
0.0
 14
10.0
 24
10.0
 15
10.0
 25
10.0
 16
0.0
 26
0.0
 36
1.0
 17
0.0
 27
0.0
 37
0.0
 42
50.0
 43
0.0
 44
0.0
 45
322.6668
 50
0.0
 51
0.0
 72
   100
 90
   557152
  1

281
     0
 71
     1
 74
     0
110
0.0
120
0.0
130
0.0
111
1.0
121
0.0
131
0.0
112
0.0
122
1.0
132
0.0
 79
     0
146
0.0
  0
ENDSEC
  0
SECTION
  2
OBJECTS
  0
DICTIONARY
  5
C
330
0
100
AcDbDictionary
281
     1
  3
ACAD_GROUP
350
D
  3
ACAD_LAYOUT
350
1A
  3
ACAD_MLINESTYLE
350
17
  3
ACAD_PLOTSETTINGS
350
19
  3
ACAD_PLOTSTYLENAME
350
E
  3
ACAD_SCALELIST
350
47
  0
DICTIONARY
  5
D
102
{ACAD_REACTORS
330
C
102
}
330
C
100
AcDbDictionary
281
     1
  0
DICTIONARY
  5
1A
102
{ACAD_REACTORS
330
C
102
}
330
C
100
AcDbDictionary
281
     1
  3
_Left
350
1E
  3
_Top
350
26
  3
Model
350
22
  0
DICTIONARY
  5
17
102
{ACAD_REACTORS
330
C
102
}
330
C
100
AcDbDictionary
281
     1
  3
Standard
350
18
  0
DICTIONARY
  5
19
102
{ACAD_REACTORS
330
C
102
}
330
C
100
AcDbDictionary
281
     1
  0
ACDBDICTIONARYWDFLT
  5
E
102
{ACAD_REACTORS
330
C
102
}
330
C
100
AcDbDictionary
281
     1
  3
Normal
350
F
100
AcDbDictionaryWithDefault
340
F
  0
DICTIONARY
  5
47
102
{ACAD_REACTORS
330
C
102
}
330
C
100
AcDbDictionary
281
     1
  3
A0
350
48
  3
A1
350
49
  3
A2
350
4A
  3
A3
350
4B
  3
A4
350
4C
  3
A5
350
4D
  3
A6
350
4E
  3
A7
350
4F
  3
A8
350
50
  3
A9
350
51
  3
B0
350
52
  3
B1
350
53
  3
B2
350
54
  3
B3
350
55
  3
B4
350
56
  3
B5
350
57
  3
B6
350
58
  3
B7
350
59
  3
B8
350
5A
  3
B9
350
5B
  3
C0
350
5C
  3
C1
350
5D
  3
C2
350
5E
  3
C3
350
5F
  3
C4
350
60
  3
C5
350
61
  3
C6
350
62
  3
C7
350
63
  3
C8
350
64
  3
C9
350
65
  3
D0
350
66
  3
D1
350
67
  3
D2
350
68
  0
LAYOUT
  5
1E
102
{ACAD_REACTORS
330
1A
102
}
330
1A
100
AcDbPlotSettings
  1

  2
none_device
  4
ISO_A4_(210.00_x_297.00_MM)
  6

 40
7.5
 41
20.0
 42
7.5
 43
20.0
 44
210.0
 45
297.0
 46
0.0
 47
0.0
 48
0.0
 49
0.0
140
0.0
141
0.0
142
1.0
143
1.6222564103
 70
   688
 72
     1
 73
     1
 74
     1
  7

 75
     0
147
0.6164253651
148
150.0
149
150.0
100
AcDbLayout
  1
_Left
 70
     1
 71
     1
 10
-182.4451282051
 20
-162.1669230769
 11
299.365025641
 21
178.5069230769
 12
0.0
 22
0.0
 32
0.0
 14
-150.0
 24
-150.0
 34
0.0
 15
150.0
 25
166.34
 35
0.0
146
0.0
 13
0.0
 23
0.0
 33
0.0
 16
1.0
 26
0.0
 36
0.0
 17
0.0
 27
1.0
 37
0.0
 76
     0
330
1B
331
EB
  0
LAYOUT
  5
26
102
{ACAD_REACTORS
330
1A
102
}
330
1A
100
AcDbPlotSettings
  1

  2
none_device
  4
ISO_A4_(210.00_x_297.00_MM)
  6

 40
7.5
 41
20.0
 42
7.5
 43
20.0
 44
210.0
 45
297.0
 46
0.0
 47
0.0
 48
0.0
 49
0.0
140
0.0
141
0.0
142
1.0
143
1.6222564103
 70
   688
 72
     1
 73
     1
 74
     1
  7

 75
     0
147
0.6164253651
148
150.0
149
150.0
100
AcDbLayout
  1
_Top
 70
     1
 71
     2
 10
0.0
 20
0.0
 11
0.0
 21
0.0
 12
0.0
 22
0.0
 32
0.0
 14
0.0
 24
0.0
 34
0.0
 15
0.0
 25
0.0
 35
0.0
146
0.0
 13
0.0
 23
0.0
 33
0.0
 16
1.0
 26
0.0
 36
0.0
 17
0.0
 27
1.0
 37
0.0
 76
     0
330
23
331
ED
  0
LAYOUT
  5
22
102
{ACAD_REACTORS
330
1A
102
}
330
1A
100
AcDbPlotSettings
  1

  2
none_device
  4
ANSI_A_(11.00_x_8.50_Inches)
  6

 40
6.35
 41
19.05
 42
6.35000508
 43
19.05000254
 44
279.4
 45
215.9
 46
43.463211144
 47
83.3797863952
 48
0.0
 49
0.0
140
0.0
141
0.0
142
0.0266011254
143
1.0
 70
  1696
 72
     0
 73
     0
 74
     0
  7

 75
     0
147
0.0179189148
148
-1300.4909072572
149
0.0
100
AcDbLayout
  1
Model
 70
     1
 71
     0
 10
0.0
 20
0.0
 11
420.0
 21
297.0
 12
0.0
 22
0.0
 32
0.0
 14
23.0222072548
 24
-150.0
 34
0.0
 15
243.0454726307
 25
166.34
 35
0.0
146
0.0
 13
0.0
 23
0.0
 33
0.0
 16
1.0
 26
0.0
 36
0.0
 17
0.0
 27
1.0
 37
0.0
 76
     0
330
1F
331
29
  0
MLINESTYLE
  5
18
102
{ACAD_REACTORS
330
17
102
}
330
17
100
AcDbMlineStyle
  2
Standard
 70
     0
  3

 62
   256
 51
90.0
 52
90.0
 71
     2
 49
0.5
 62
   256
  6
BYLAYER
 49
-0.5
 62
   256
  6
BYLAYER
  0
ACDBPLACEHOLDER
  5
F
102
{ACAD_REACTORS
330
E
102
}
330
E
  0
SCALE
  5
48
102
{ACAD_REACTORS
330
47
102
}
330
47
100
AcDbScale
 70
     0
300
1:1
140
1.0
141
1.0
290
     1
  0
SCALE
  5
49
102
{ACAD_REACTORS
330
47
102
}
330
47
100
AcDbScale
 70
     0
300
1:2
140
1.0
141
2.0
290
     0
  0
SCALE
  5
4A
102
{ACAD_REACTORS
330
47
102
}
330
47
100
AcDbScale
 70
     0
300
1:4
140
1.0
141
4.0
290
     0
  0
SCALE
  5
4B
102
{ACAD_REACTORS
330
47
102
}
330
47
100
AcDbScale
 70
     0
300
1:5
140
1.0
141
5.0
290
     0
  0
SCALE
  5
4C
102
{ACAD_REACTORS
330
47
102
}
330
47
100
AcDbScale
 70
     0
300
1:8
140
1.0
141
8.0
290
     0
  0
SCALE
  5
4D
102
{ACAD_REACTORS
330
47
102
}
330
47
100
AcDbScale
 70
     0
300
1:10
140
1.0
141
10.0
290
     0
  0
SCALE
  5
4E
102
{ACAD_REACTORS
330
47
102
}
330
47
100
AcDbScale
 70
     0
300
1:16
140
1.0
141
16.0
290
     0
  0
SCALE
  5
4F
102
{ACAD_REACTORS
330
47
102
}
330
47
100
AcDbScale
 70
     0
300
1:20
140
1.0
141
20.0
290
     0
  0
SCALE
  5
50
102
{ACAD_REACTORS
330
47
102
}
330
47
100
AcDbScale
 70
     0
300
1:30
140
1.0
141
30.0
290
     0
  0
SCALE
  5
51
102
{ACAD_REACTORS
330
47
102
}
330
47
100
AcDbScale
 70
     0
300
1:40
140
1.0
141
40.0
290
     0
  0
SCALE
  5
52
102
{ACAD_REACTORS
330
47
102
}
330
47
100
AcDbScale
 70
     0
300
1:50
140
1.0
141
50.0
290
     0
  0
SCALE
  5
53
102
{ACAD_REACTORS
330
47
102
}
330
47
100
AcDbScale
 70
     0
300
1:100
140
1.0
141
100.0
290
     0
  0
SCALE
  5
54
102
{ACAD_REACTORS
330
47
102
}
330
47
100
AcDbScale
 70
     0
300
2:1
140
2.0
141
1.0
290
     0
  0
SCALE
  5
55
102
{ACAD_REACTORS
330
47
102
}
330
47
100
AcDbScale
 70
     0
300
4:1
140
4.0
141
1.0
290
     0
  0
SCALE
  5
56
102
{ACAD_REACTORS
330
47
102
}
330
47
100
AcDbScale
 70
     0
300
8:1
140
8.0
141
1.0
290
     0
  0
SCALE
  5
57
102
{ACAD_REACTORS
330
47
102
}
330
47
100
AcDbScale
 70
     0
300
10:1
140
10.0
141
1.0
290
     0
  0
SCALE
  5
58
102
{ACAD_REACTORS
330
47
102
}
330
47
100
AcDbScale
 70
     0
300
100:1
140
100.0
141
1.0
290
     0
  0
SCALE
  5
59
102
{ACAD_REACTORS
330
47
102
}
330
47
100
AcDbScale
 70
     0
300
1/128" = 1'-0"
140
0.0078125
141
12.0
290
     0
  0
SCALE
  5
5A
102
{ACAD_REACTORS
330
47
102
}
330
47
100
AcDbScale
 70
     0
300
1/64" = 1'-0"
140
0.015625
141
12.0
290
     0
  0
SCALE
  5
5B
102
{ACAD_REACTORS
330
47
102
}
330
47
100
AcDbScale
 70
     0
300
1/32" = 1'-0"
140
0.03125
141
12.0
290
     0
  0
SCALE
  5
5C
102
{ACAD_REACTORS
330
47
102
}
330
47
100
AcDbScale
 70
     0
300
1/16" = 1'-0"
140
0.0625
141
12.0
290
     0
  0
SCALE
  5
5D
102
{ACAD_REACTORS
330
47
102
}
330
47
100
AcDbScale
 70
     0
300
3/32" = 1'-0"
140
0.09375
141
12.0
290
     0
  0
SCALE
  5
5E
102
{ACAD_REACTORS
330
47
102
}
330
47
100
AcDbScale
 70
     0
300
1/8" = 1'-0"
140
0.125
141
12.0
290
     0
  0
SCALE
  5
5F
102
{ACAD_REACTORS
330
47
102
}
330
47
100
AcDbScale
 70
     0
300
3/16" = 1'-0"
140
0.1875
141
12.0
290
     0
  0
SCALE
  5
60
102
{ACAD_REACTORS
330
47
102
}
330
47
100
AcDbScale
 70
     0
300
1/4" = 1'-0"
140
0.25
141
12.0
290
     0
  0
SCALE
  5
61
102
{ACAD_REACTORS
330
47
102
}
330
47
100
AcDbScale
 70
     0
300
3/8" = 1'-0"
140
0.375
141
12.0
290
     0
  0
SCALE
  5
62
102
{ACAD_REACTORS
330
47
102
}
330
47
100
AcDbScale
 70
     0
300
1/2" = 1'-0"
140
0.5
141
12.0
290
     0
  0
SCALE
  5
63
102
{ACAD_REACTORS
330
47
102
}
330
47
100
AcDbScale
 70
     0
300
3/4" = 1'-0"
140
0.75
141
12.0
290
     0
  0
SCALE
  5
64
102
{ACAD_REACTORS
330
47
102
}
330
47
100
AcDbScale
 70
     0
300
1" = 1'-0"
140
1.0
141
12.0
290
     0
  0
SCALE
  5
65
102
{ACAD_REACTORS
330
47
102
}
330
47
100
AcDbScale
 70
     0
300
1-1/2" = 1'-0"
140
1.5
141
12.0
290
     0
  0
SCALE
  5
66
102
{ACAD_REACTORS
330
47
102
}
330
47
100
AcDbScale
 70
     0
300
3" = 1'-0"
140
3.0
141
12.0
290
     0
  0
SCALE
  5
67
102
{ACAD_REACTORS
330
47
102
}
330
47
100
AcDbScale
 70
     0
300
6" = 1'-0"
140
6.0
141
12.0
290
     0
  0
SCALE
  5
68
102
{ACAD_REACTORS
330
47
102
}
330
47
100
AcDbScale
 70
     0
300
1'-0" = 1'-0"
140
12.0
141
12.0
290
     0
  0
ENDSEC
  0
EOF
