  0
SECTION
  2
HEADER
  9
$ACADVER
  1
AC1015
  9
$ACADMAINTVER
 70
     6
  9
$DWGCODEPAGE
  3
ANSI_1252
  9
$INSBASE
 10
0.0
 20
0.0
 30
0.0
  9
$EXTMIN
 10
-318.0
 20
-106.5
 30
0.0
  9
$EXTMAX
 10
0.0
 20
125.0
 30
0.0
  9
$LIMMIN
 10
0.0
 20
0.0
  9
$LIMMAX
 10
420.0
 20
297.0
  9
$ORTHOMODE
 70
     0
  9
$REGENMODE
 70
     1
  9
$FILLMODE
 70
     1
  9
$QTEXTMODE
 70
     0
  9
$MIRRTEXT
 70
     1
  9
$LTSCALE
 40
1.0
  9
$ATTMODE
 70
     1
  9
$TEXTSIZE
 40
6.35
  9
$TRACEWID
 40
1.0
  9
$TEXTSTYLE
  7
Standard
  9
$CLAYER
  8
0
  9
$CELTYPE
  6
ByLayer
  9
$CECOLOR
 62
   256
  9
$CELTSCALE
 40
1.0
  9
$DISPSILH
 70
     0
  9
$DIMSCALE
 40
1.0
  9
$DIMASZ
 40
5.9944
  9
$DIMEXO
 40
0.9906
  9
$DIMDLI
 40
3.75
  9
$DIMRND
 40
0.0
  9
$DIMDLE
 40
0.0
  9
$DIMEXE
 40
0.9906
  9
$DIMTP
 40
0.0
  9
$DIMTM
 40
0.0
  9
$DIMTXT
 40
6.35
  9
$DIMCEN
 40
2.5
  9
$DIMTSZ
 40
0.0
  9
$DIMTOL
 70
     0
  9
$DIMLIM
 70
     0
  9
$DIMTIH
 70
     1
  9
$DIMTOH
 70
     1
  9
$DIMSE1
 70
     0
  9
$DIMSE2
 70
     0
  9
$DIMTAD
 70
     1
  9
$DIMZIN
 70
     0
  9
$DIMBLK
  1

  9
$DIMASO
 70
     1
  9
$DIMSHO
 70
     1
  9
$DIMPOST
  1

  9
$DIMAPOST
  1

  9
$DIMALT
 70
     0
  9
$DIMALTD
 70
     3
  9
$DIMALTF
 40
0.0393700787
  9
$DIMLFAC
 40
1.0
  9
$DIMTOFL
 70
     1
  9
$DIMTVP
 40
0.0
  9
$DIMTIX
 70
     0
  9
$DIMSOXD
 70
     0
  9
$DIMSAH
 70
     0
  9
$DIMBLK1
  1

  9
$DIMBLK2
  1

  9
$DIMSTYLE
  2
ISO-25
  9
$DIMCLRD
 70
     0
  9
$DIMCLRE
 70
     0
  9
$DIMCLRT
 70
     0
  9
$DIMTFAC
 40
1.0
  9
$DIMGAP
 40
1.524
  9
$DIMJUST
 70
     0
  9
$DIMSD1
 70
     0
  9
$DIMSD2
 70
     0
  9
$DIMTOLJ
 70
     0
  9
$DIMTZIN
 70
     0
  9
$DIMALTZ
 70
     0
  9
$DIMALTTZ
 70
     0
  9
$DIMUPT
 70
     0
  9
$DIMDEC
 70
     2
  9
$DIMTDEC
 70
     2
  9
$DIMALTU
 70
     2
  9
$DIMALTTD
 70
     3
  9
$DIMTXSTY
  7
Standard
  9
$DIMAUNIT
 70
     0
  9
$DIMADEC
 70
     2
  9
$DIMALTRND
 40
0.0
  9
$DIMAZIN
 70
     0
  9
$DIMDSEP
 70
    44
  9
$DIMATFIT
 70
     3
  9
$DIMFRAC
 70
     0
  9
$DIMLDRBLK
  1

  9
$DIMLUNIT
 70
     2
  9
$DIMLWD
 70
    -2
  9
$DIMLWE
 70
    -2
  9
$DIMTMOVE
 70
     0
  9
$LUNITS
 70
     2
  9
$LUPREC
 70
     2
  9
$SKETCHINC
 40
1.0
  9
$FILLETRAD
 40
10.0
  9
$AUNITS
 70
     0
  9
$AUPREC
 70
     2
  9
$MENU
  1
.
  9
$ELEVATION
 40
0.0
  9
$PELEVATION
 40
0.0
  9
$THICKNESS
 40
0.0
  9
$LIMCHECK
 70
     0
  9
$CHAMFERA
 40
0.0
  9
$CHAMFERB
 40
0.0
  9
$CHAMFERC
 40
0.0
  9
$CHAMFERD
 40
0.0
  9
$SKPOLY
 70
     0
  9
$TDCREATE
 40
2459349.608073715
  9
$TDUCREATE
 40
2459349.566407049
  9
$TDUPDATE
 40
2459349.608104445
  9
$TDUUPDATE
 40
2459349.566437778
  9
$TDINDWG
 40
0.0000000116
  9
$TDUSRTIMER
 40
0.0000000116
  9
$USRTIMER
 70
     1
  9
$ANGBASE
 50
0.0
  9
$ANGDIR
 70
     0
  9
$PDMODE
 70
     0
  9
$PDSIZE
 40
-1.0
  9
$PLINEWID
 40
0.0
  9
$SPLFRAME
 70
     0
  9
$SPLINETYPE
 70
     6
  9
$SPLINESEGS
 70
     8
  9
$HANDSEED
  5
10A
  9
$SURFTAB1
 70
     6
  9
$SURFTAB2
 70
     6
  9
$SURFTYPE
 70
     6
  9
$SURFU
 70
     6
  9
$SURFV
 70
     6
  9
$UCSBASE
  2

  9
$UCSNAME
  2

  9
$UCSORG
 10
0.0
 20
0.0
 30
0.0
  9
$UCSXDIR
 10
1.0
 20
0.0
 30
0.0
  9
$UCSYDIR
 10
0.0
 20
1.0
 30
0.0
  9
$UCSORTHOREF
  2

  9
$UCSORTHOVIEW
 70
     0
  9
$UCSORGTOP
 10
0.0
 20
0.0
 30
0.0
  9
$UCSORGBOTTOM
 10
0.0
 20
0.0
 30
0.0
  9
$UCSORGLEFT
 10
0.0
 20
0.0
 30
0.0
  9
$UCSORGRIGHT
 10
0.0
 20
0.0
 30
0.0
  9
$UCSORGFRONT
 10
0.0
 20
0.0
 30
0.0
  9
$UCSORGBACK
 10
0.0
 20
0.0
 30
0.0
  9
$PUCSBASE
  2

  9
$PUCSNAME
  2

  9
$PUCSORG
 10
0.0
 20
0.0
 30
0.0
  9
$PUCSXDIR
 10
1.0
 20
0.0
 30
0.0
  9
$PUCSYDIR
 10
0.0
 20
1.0
 30
0.0
  9
$PUCSORTHOREF
  2

  9
$PUCSORTHOVIEW
 70
     0
  9
$PUCSORGTOP
 10
0.0
 20
0.0
 30
0.0
  9
$PUCSORGBOTTOM
 10
0.0
 20
0.0
 30
0.0
  9
$PUCSORGLEFT
 10
0.0
 20
0.0
 30
0.0
  9
$PUCSORGRIGHT
 10
0.0
 20
0.0
 30
0.0
  9
$PUCSORGFRONT
 10
0.0
 20
0.0
 30
0.0
  9
$PUCSORGBACK
 10
0.0
 20
0.0
 30
0.0
  9
$USERI1
 70
     0
  9
$USERI2
 70
     0
  9
$USERI3
 70
     0
  9
$USERI4
 70
     0
  9
$USERI5
 70
     0
  9
$USERR1
 40
0.0
  9
$USERR2
 40
0.0
  9
$USERR3
 40
0.0
  9
$USERR4
 40
0.0
  9
$USERR5
 40
0.0
  9
$WORLDVIEW
 70
     1
  9
$SHADEDGE
 70
     3
  9
$SHADEDIF
 70
    70
  9
$TILEMODE
 70
     1
  9
$MAXACTVP
 70
    64
  9
$PINSBASE
 10
0.0
 20
0.0
 30
0.0
  9
$PLIMCHECK
 70
     0
  9
$PEXTMIN
 10
-106.5
 20
-318.0
 30
0.0
  9
$PEXTMAX
 10
211.5
 20
0.0
 30
0.0
  9
$PLIMMIN
 10
-139.1153846154
 20
-330.2307692308
  9
$PLIMMAX
 10
345.2230769231
 20
12.2307692308
  9
$UNITMODE
 70
     0
  9
$VISRETAIN
 70
     1
  9
$PLINEGEN
 70
     0
  9
$PSLTSCALE
 70
     1
  9
$TREEDEPTH
 70
  3020
  9
$CMLSTYLE
  2
Standard
  9
$CMLJUST
 70
     0
  9
$CMLSCALE
 40
20.0
  9
$PROXYGRAPHICS
 70
     1
  9
$MEASUREMENT
 70
     1
  9
$CELWEIGHT
370
    -1
  9
$ENDCAPS
280
     0
  9
$JOINSTYLE
280
     0
  9
$LWDISPLAY
290
     1
  9
$INSUNITS
 70
     4
  9
$HYPERLINKBASE
  1

  9
$STYLESHEET
  1

  9
$XEDIT
290
     1
  9
$CEPSNTYPE
380
     0
  9
$PSTYLEMODE
290
     1
  9
$FINGERPRINTGUID
  2
{fdb3695f-20b6-4bb1-9f2b-c8f4aa7c150d}
  9
$VERSIONGUID
  2
{FAEB1C32-E019-11D5-929B-00C0DF256EC4}
  9
$EXTNAMES
290
     1
  9
$PSVPSCALE
 40
0.0
  9
$OLESTARTUP
290
     0
  0
ENDSEC
  0
SECTION
  2
CLASSES
  0
CLASS
  1
ACDBDICTIONARYWDFLT
  2
AcDbDictionaryWithDefault
  3
ObjectDBX Classes
 90
        0
280
     0
281
     0
  0
CLASS
  1
VISUALSTYLE
  2
AcDbVisualStyle
  3
ObjectDBX Classes
 90
     4095
280
     0
281
     0
  0
CLASS
  1
MATERIAL
  2
AcDbMaterial
  3
ObjectDBX Classes
 90
     1153
280
     0
281
     0
  0
CLASS
  1
SCALE
  2
AcDbScale
  3
ObjectDBX Classes
 90
     1153
280
     0
281
     0
  0
CLASS
  1
TABLESTYLE
  2
AcDbTableStyle
  3
ObjectDBX Classes
 90
     4095
280
     0
281
     0
  0
CLASS
  1
MLEADERSTYLE
  2
AcDbMLeaderStyle
  3
ACDB_MLEADERSTYLE_CLASS
 90
     4095
280
     0
281
     0
  0
CLASS
  1
SUN
  2
AcDbSun
  3
SCENEOE
 90
     1153
280
     0
281
     0
  0
CLASS
  1
ACDBPLACEHOLDER
  2
AcDbPlaceHolder
  3
ObjectDBX Classes
 90
        0
280
     0
281
     0
  0
CLASS
  1
LAYOUT
  2
AcDbLayout
  3
ObjectDBX Classes
 90
        0
280
     0
281
     0
  0
ENDSEC
  0
SECTION
  2
TABLES
  0
TABLE
  2
VPORT
  5
8
330
0
100
AcDbSymbolTable
 70
     1
  0
VPORT
  5
29
330
8
100
AcDbSymbolTableRecord
100
AcDbViewportTableRecord
  2
*Active
 70
     0
 10
0.0
 20
0.0
 11
1.0
 21
1.0
 12
-159.0
 22
9.25
 13
0.0
 23
0.0
 14
10.0
 24
10.0
 15
10.0
 25
10.0
 16
0.0
 26
0.0
 36
1.0
 17
0.0
 27
0.0
 37
0.0
 40
236.13
 41
1.373650108
 42
50.0
 43
0.0
 44
0.0
 50
0.0
 51
0.0
 71
     0
 72
   100
 73
     1
 74
     3
 75
     0
 76
     0
 77
     0
 78
     0
281
     0
 65
     1
110
0.0
120
0.0
130
0.0
111
1.0
121
0.0
131
0.0
112
0.0
122
1.0
132
0.0
 79
     0
146
0.0
  0
ENDTAB
  0
TABLE
  2
LTYPE
  5
5
330
0
100
AcDbSymbolTable
 70
     6
  0
LTYPE
  5
14
330
5
100
AcDbSymbolTableRecord
100
AcDbLinetypeTableRecord
  2
ByBlock
 70
     0
  3

 72
    65
 73
     0
 40
0.0
  0
LTYPE
  5
15
330
5
100
AcDbSymbolTableRecord
100
AcDbLinetypeTableRecord
  2
ByLayer
 70
     0
  3

 72
    65
 73
     0
 40
0.0
  0
LTYPE
  5
16
330
5
100
AcDbSymbolTableRecord
100
AcDbLinetypeTableRecord
  2
Continuous
 70
     0
  3
Solid line
 72
    65
 73
     0
 40
0.0
  0
LTYPE
  5
6E
330
5
100
AcDbSymbolTableRecord
100
AcDbLinetypeTableRecord
  2
HIDDEN
 70
     0
  3
Hidden __ __ __ __ __ __ __ __ __ __ __ __ __ __
 72
    65
 73
     2
 40
1.905
 49
1.27
 74
     0
 49
-0.635
 74
     0
  0
LTYPE
  5
6F
330
5
100
AcDbSymbolTableRecord
100
AcDbLinetypeTableRecord
  2
PHANTOM
 70
     0
  3
Phantom ______  __  __  ______  __  __  ______
 72
    65
 73
     6
 40
12.7
 49
6.35
 74
     0
 49
-1.27
 74
     0
 49
1.27
 74
     0
 49
-1.27
 74
     0
 49
1.27
 74
     0
 49
-1.27
 74
     0
  0
LTYPE
  5
70
330
5
100
AcDbSymbolTableRecord
100
AcDbLinetypeTableRecord
  2
CENTER
 70
     0
  3
Center ____ _ ____ _ ____ _ ____ _ ____ _ ____
 72
    65
 73
     4
 40
10.16
 49
6.35
 74
     0
 49
-1.27
 74
     0
 49
1.27
 74
     0
 49
-1.27
 74
     0
  0
LTYPE
  5
71
330
5
100
AcDbSymbolTableRecord
100
AcDbLinetypeTableRecord
  2
CENTERX2
 70
     0
  3
Center (2x) ________  __  ________  __  _____
 72
    65
 73
     4
 40
20.32
 49
12.7
 74
     0
 49
-2.54
 74
     0
 49
2.54
 74
     0
 49
-2.54
 74
     0
  0
LTYPE
  5
72
330
5
100
AcDbSymbolTableRecord
100
AcDbLinetypeTableRecord
  2
DOT2
 70
     0
  3
Dot (.5x) ........................................
 72
    65
 73
     2
 40
0.635
 49
0.0
 74
     0
 49
-0.635
 74
     0
  0
ENDTAB
  0
TABLE
  2
LAYER
  5
2
330
0
100
AcDbSymbolTable
 70
     1
  0
LAYER
  5
10
330
2
100
AcDbSymbolTableRecord
100
AcDbLayerTableRecord
  2
0
 70
     0
 62
     7
  6
Continuous
370
    -3
390
F
  0
ENDTAB
  0
TABLE
  2
STYLE
  5
3
330
0
100
AcDbSymbolTable
 70
     1
  0
STYLE
  5
11
330
3
100
AcDbSymbolTableRecord
100
AcDbTextStyleTableRecord
  2
Standard
 70
     0
 40
0.0
 41
1.0
 50
0.0
 71
     0
 42
6.35
  3
txt
  4

  0
ENDTAB
  0
TABLE
  2
VIEW
  5
6
330
0
100
AcDbSymbolTable
 70
     0
  0
ENDTAB
  0
TABLE
  2
UCS
  5
7
330
0
100
AcDbSymbolTable
 70
     0
  0
ENDTAB
  0
TABLE
  2
APPID
  5
9
330
0
100
AcDbSymbolTable
 70
     1
  0
APPID
  5
12
330
9
100
AcDbSymbolTableRecord
100
AcDbRegAppTableRecord
  2
ACAD
 70
     0
  0
ENDTAB
  0
TABLE
  2
DIMSTYLE
  5
A
330
0
100
AcDbSymbolTable
 70
     1
100
AcDbDimStyleTable
  0
DIMSTYLE
105
27
330
A
100
AcDbSymbolTableRecord
100
AcDbDimStyleTableRecord
  2
ISO-25
 70
     0
 41
2.5
 42
0.625
 43
3.75
 44
1.25
 73
     0
 74
     0
 77
     1
 78
     8
140
2.5
141
2.5
143
0.0393700787
147
0.625
171
     3
172
     1
178
     0
271
     2
272
     2
274
     3
278
    44
283
     0
284
     8
340
11
  0
ENDTAB
  0
TABLE
  2
BLOCK_RECORD
  5
1
330
0
100
AcDbSymbolTable
 70
     1
  0
BLOCK_RECORD
  5
1F
330
1
100
AcDbSymbolTableRecord
100
AcDbBlockTableRecord
  2
*Model_Space
340
22
  0
BLOCK_RECORD
  5
1B
330
1
100
AcDbSymbolTableRecord
100
AcDbBlockTableRecord
  2
*Paper_Space
340
1E
  0
BLOCK_RECORD
  5
23
330
1
100
AcDbSymbolTableRecord
100
AcDbBlockTableRecord
  2
*Paper_Space0
340
26
  0
ENDTAB
  0
ENDSEC
  0
SECTION
  2
BLOCKS
  0
BLOCK
  5
20
330
1F
100
AcDbEntity
  8
0
100
AcDbBlockBegin
  2
*Model_Space
 70
     0
 10
0.0
 20
0.0
 30
0.0
  3
*Model_Space
  1

  0
ENDBLK
  5
21
330
1F
100
AcDbEntity
  8
0
100
AcDbBlockEnd
  0
BLOCK
  5
1C
330
1B
100
AcDbEntity
 67
     1
  8
0
100
AcDbBlockBegin
  2
*Paper_Space
 70
     0
 10
0.0
 20
0.0
 30
0.0
  3
*Paper_Space
  1

  0
ENDBLK
  5
1D
330
1B
100
AcDbEntity
 67
     1
  8
0
100
AcDbBlockEnd
  0
BLOCK
  5
24
330
23
100
AcDbEntity
  8
0
100
AcDbBlockBegin
  2
*Paper_Space0
 70
     0
 10
0.0
 20
0.0
 30
0.0
  3
*Paper_Space0
  1

  0
SPLINE
  5
EF
330
23
100
AcDbEntity
  8
0
  6
Continuous
 62
     7
370
    25
100
AcDbSpline
210
0.0
220
0.0
230
1.0
 70
     8
 71
     3
 72
    15
 73
    11
 74
     0
 42
0.000000001
 43
0.00000001
 40
0.0
 40
0.0
 40
0.0
 40
0.0
 40
0.0955652080458151
 40
0.2388884572217482
 40
0.381761519538973
 40
0.5241596714822208
 40
0.6667991625278463
 40
0.8100185953484913
 40
0.9532541692883457
 40
1.0
 40
1.0
 40
1.0
 40
1.0
 10
3.000000000000003
 20
106.2532352448621
 30
0.0
 10
3.578289647531902
 20
106.2162140817858
 30
0.0
 10
5.023865129981292
 20
106.1236706895547
 30
0.0
 10
7.941934911096737
 20
106.0122698558773
 30
0.0
 10
11.43146309091739
 20
105.9931400844977
 30
0.0
 10
14.78850216700081
 20
106.0869099202872
 30
0.0
 10
17.65518554293322
 20
106.2548234280054
 30
0.0
 10
19.61658623104756
 20
106.4149486392268
 30
0.0
 10
20.55287257644783
 20
106.5050207036025
 30
0.0
 10
20.40815737589896
 20
106.4912410241164
 30
0.0
 10
20.37254951059936
 20
106.487850468258
 30
0.0
  0
SPLINE
  5
F2
330
23
100
AcDbEntity
  8
0
  6
Continuous
 62
     7
370
    25
100
AcDbSpline
210
0.0
220
0.0
230
1.0
 70
     8
 71
     3
 72
    18
 73
    14
 74
     0
 42
0.000000001
 43
0.00000001
 40
0.0
 40
0.0
 40
0.0
 40
0.0
 40
0.2499999999999999
 40
0.2499999999999999
 40
0.375
 40
0.375
 40
0.5000000000000001
 40
0.5000000000000001
 40
0.75
 40
0.75
 40
0.875
 40
0.875
 40
1.0
 40
1.0
 40
1.0
 40
1.0
 10
0.0
 20
106.5
 30
0.0
 10
0.0
 20
106.5
 30
0.0
 10
0.0664592994388535
 20
106.4935453899741
 30
0.0
 10
0.2617043418289
 20
106.4751114218091
 30
0.0
 10
0.3428306830442207
 20
106.4675071180966
 30
0.0
 10
0.5378968528251538
 20
106.4495327167221
 30
0.0
 10
0.6523649332657866
 20
106.4391173855233
 30
0.0
 10
1.037953486055815
 20
106.4048107216733
 30
0.0
 10
1.352507798890568
 20
106.3777030837656
 30
0.0
 10
1.90981648885083
 20
106.3330234333478
 30
0.0
 10
2.110757397010693
 20
106.3173985425125
 30
0.0
 10
2.538737915461303
 20
106.2854906637476
 30
0.0
 10
2.763934250014921
 20
106.2693427702795
 30
0.0
 10
3.000000000000003
 20
106.2532352448621
 30
0.0
  0
SPLINE
  5
F4
330
23
100
AcDbEntity
  8
0
  6
Continuous
 62
     7
370
    25
100
AcDbSpline
210
0.0
220
0.0
230
1.0
 70
    24
 71
     3
 72
    20
 73
    16
 74
     0
 42
0.000000001
 43
0.00000001
 40
0.0
 40
0.0
 40
0.0
 40
0.0
 40
0.1249999999999989
 40
0.1249999999999989
 40
0.2499999999999978
 40
0.2499999999999978
 40
0.4999999999999976
 40
0.4999999999999976
 40
0.7499999999999973
 40
0.7499999999999973
 40
0.8749999999999987
 40
0.8749999999999987
 40
0.9374999999999993
 40
0.9374999999999993
 40
1.0
 40
1.0
 40
1.0
 40
1.0
 10
0.0
 20
103.2601863647251
 30
0.0
 10
0.0
 20
103.2827300546428
 30
0.0
 10
0.0
 20
103.3316877566379
 30
0.0
 10
0.0
 20
103.4708940710009
 30
0.0
 10
0.0
 20
103.5617483130227
 30
0.0
 10
0.0
 20
103.881236801145
 30
0.0
 10
0.0
 20
104.1530598031325
 30
0.0
 10
0.0
 20
104.7596710680434
 30
0.0
 10
0.0
 20
105.095071696848
 30
0.0
 10
0.0
 20
105.6155444086839
 30
0.0
 10
0.0
 20
105.7919823489184
 30
0.0
 10
0.0
 20
106.0575764892504
 30
0.0
 10
0.0
 20
106.1462661525288
 30
0.0
 10
0.0
 20
106.3234053864048
 30
0.0
 10
0.0
 20
106.4110948859027
 30
0.0
 10
0.0
 20
106.5
 30
0.0
  0
LINE
  5
F8
330
23
100
AcDbEntity
  8
0
  6
Continuous
 62
     7
370
    25
100
AcDbLine
 10
211.5
 20
106.5
 30
0.0
 11
20.3725495106
 21
106.5
 31
0.0
  0
LINE
  5
F9
330
23
100
AcDbEntity
  8
0
  6
Continuous
 62
     7
370
    25
100
AcDbLine
 10
3.0
 20
-106.5
 30
0.0
 11
211.5
 21
-106.5
 31
0.0
  0
LINE
  5
FA
330
23
100
AcDbEntity
  8
0
  6
Continuous
 62
     7
370
    25
100
AcDbLine
 10
0.0
 20
125.0
 30
0.0
 11
0.0
 21
106.5
 31
0.0
  0
LINE
  5
FB
330
23
100
AcDbEntity
  8
0
  6
Continuous
 62
     7
370
    25
100
AcDbLine
 10
20.5
 20
106.4878913354
 30
0.0
 11
20.5
 21
125.0
 31
0.0
  0
LINE
  5
FC
330
23
100
AcDbEntity
  8
0
  6
Continuous
 62
     7
370
    25
100
AcDbLine
 10
201.25
 20
125.0
 30
0.0
 11
201.25
 21
106.5
 31
0.0
  0
LINE
  5
FD
330
23
100
AcDbEntity
  8
0
  6
Continuous
 62
     7
370
    25
100
AcDbLine
 10
221.75
 20
106.0056012671
 30
0.0
 11
221.75
 21
125.0
 31
0.0
  0
LINE
  5
FE
330
23
100
AcDbEntity
  8
0
  6
Continuous
 62
     7
370
    25
100
AcDbLine
 10
0.0
 20
-103.5
 30
0.0
 11
0.0
 21
103.2601863647
 31
0.0
  0
LINE
  5
FF
330
23
100
AcDbEntity
  8
0
  6
Continuous
 62
     7
370
    25
100
AcDbLine
 10
0.0
 20
125.0
 30
0.0
 11
20.5
 21
125.0
 31
0.0
  0
LINE
  5
100
330
23
100
AcDbEntity
  8
0
  6
Continuous
 62
     7
370
    25
100
AcDbLine
 10
201.25
 20
125.0
 30
0.0
 11
221.75
 21
125.0
 31
0.0
  0
LINE
  5
101
330
23
100
AcDbEntity
  8
0
  6
Continuous
 62
     8
370
    25
100
AcDbLine
 10
123.0
 20
106.5
 30
0.0
 11
123.0
 21
-106.5
 31
0.0
  0
LINE
  5
102
330
23
100
AcDbEntity
  8
0
  6
Continuous
 62
     8
370
    25
100
AcDbLine
 10
3.0
 20
106.2532352449
 30
0.0
 11
3.0
 21
-106.5
 31
0.0
  0
ARC
  5
103
330
23
100
AcDbEntity
  8
0
  6
Continuous
 62
     7
370
    25
100
AcDbCircle
 10
3.0
 20
-103.5
 30
0.0
 40
3.000000000000033
100
AcDbArc
 50
180.0
 51
270.0
  0
ARC
  5
104
330
23
100
AcDbEntity
  8
0
  6
Continuous
 62
     7
370
    25
100
AcDbCircle
 10
211.5
 20
0.0
 30
0.0
 40
106.5
100
AcDbArc
 50
270.0
 51
90.0
  0
ARC
  5
105
330
23
100
AcDbEntity
  8
0
  6
Continuous
 62
     7
370
    25
100
AcDbCircle
 10
2.9965284666
 20
103.2567067689
 30
0.0
 40
2.996530486842417
100
AcDbArc
 50
89.9336218139
 51
179.9334676558
  0
VIEWPORT
  5
108
330
23
100
AcDbEntity
  8
0
100
AcDbViewport
 10
0.0
 20
0.0
 30
0.0
 40
205.6
 41
156.0
 68
     1
 69
     1
 12
-159.0
 22
9.25
 13
0.0
 23
0.0
 14
10.0
 24
10.0
 15
10.0
 25
10.0
 16
0.0
 26
0.0
 36
1.0
 17
0.0
 27
0.0
 37
0.0
 42
50.0
 43
0.0
 44
0.0
 45
246.1097276265
 50
0.0
 51
0.0
 72
   100
 90
   557152
  1

281
     0
 71
     1
 74
     0
110
0.0
120
0.0
130
0.0
111
1.0
121
0.0
131
0.0
112
0.0
122
1.0
132
0.0
 79
     0
146
0.0
  0
ENDBLK
  5
25
330
23
100
AcDbEntity
  8
0
100
AcDbBlockEnd
  0
ENDSEC
  0
SECTION
  2
ENTITIES
  0
SPLINE
  5
7C
330
1F
100
AcDbEntity
  8
0
  6
Continuous
 62
     7
370
    25
100
AcDbSpline
210
0.0
220
0.0
230
1.0
 70
     8
 71
     3
 72
    34
 73
    30
 74
     0
 42
0.000000001
 43
0.00000001
 40
0.0
 40
0.0
 40
0.0
 40
0.0
 40
0.0625000000000041
 40
0.0625000000000041
 40
0.1250000000000082
 40
0.1250000000000082
 40
0.250000000000011
 40
0.250000000000011
 40
0.3750000000000139
 40
0.3750000000000139
 40
0.4375000000000129
 40
0.4375000000000129
 40
0.4687500000000105
 40
0.4687500000000105
 40
0.5000000000000081
 40
0.5000000000000081
 40
0.5312500000000058
 40
0.5312500000000058
 40
0.5625000000000034
 40
0.5625000000000034
 40
0.6250000000000024
 40
0.6250000000000024
 40
0.7500000000000019
 40
0.7500000000000019
 40
0.8125000000000017
 40
0.8125000000000017
 40
0.8750000000000013
 40
0.8750000000000013
 40
1.0
 40
1.0
 40
1.0
 40
1.0
 10
-204.5073738430183
 20
103.2635133017887
 30
0.0
 10
-204.8243641034393
 20
103.2849787189109
 30
0.0
 10
-205.1389057739003
 20
103.3308144054732
 30
0.0
 10
-205.7544005375383
 20
103.4590377736771
 30
0.0
 10
-206.0568525658301
 20
103.5415762193803
 30
0.0
 10
-206.9517439503208
 20
103.8325661982842
 30
0.0
 10
-207.5335605640321
 20
104.0856647908583
 30
0.0
 10
-208.6631011493667
 20
104.6475919457564
 30
0.0
 10
-209.2118632875717
 20
104.959218913943
 30
0.0
 10
-210.0390441757592
 20
105.4189252462914
 30
0.0
 10
-210.3152294693499
 20
105.5721466639424
 30
0.0
 10
-210.7436962539761
 20
105.7717308905772
 30
0.0
 10
-210.8884484639744
 20
105.8327532132394
 30
0.0
 10
-211.188377660712
 20
105.9250580774786
 30
0.0
 10
-211.3467335699853
 20
105.9549294427205
 30
0.0
 10
-211.6594752620161
 20
105.9541920258568
 30
0.0
 10
-211.8171517336575
 20
105.9237919356523
 30
0.0
 10
-212.1176014696163
 20
105.8304386111286
 30
0.0
 10
-212.2623618525418
 20
105.769104006787
 30
0.0
 10
-212.6906438762416
 20
105.5690081325645
 30
0.0
 10
-212.9668253123917
 20
105.4157042530687
 30
0.0
 10
-213.7936198914333
 20
104.956088376378
 30
0.0
 10
-214.3422613173574
 20
104.6447287212322
 30
0.0
 10
-215.1883329464003
 20
104.2241169759908
 30
0.0
 10
-215.473921120862
 20
104.0910952498342
 30
0.0
 10
-216.055442950946
 20
103.8458983142329
 30
0.0
 10
-216.351384168755
 20
103.7338141552074
 30
0.0
 10
-217.2474643456509
 20
103.442996004767
 30
0.0
 10
-217.8587191090074
 20
103.3064391607202
 30
0.0
 10
-218.4926261569831
 20
103.2635133017886
 30
0.0
  0
SPLINE
  5
7E
330
1F
100
AcDbEntity
  8
0
  6
Continuous
 62
     7
370
    25
100
AcDbSpline
210
0.0
220
0.0
230
1.0
 70
     8
 71
     3
 72
    26
 73
    22
 74
     0
 42
0.000000001
 43
0.00000001
 40
0.0
 40
0.0
 40
0.0
 40
0.0
 40
0.1250000000000024
 40
0.1250000000000024
 40
0.2500000000000048
 40
0.2500000000000048
 40
0.3125000000000049
 40
0.3125000000000049
 40
0.3750000000000052
 40
0.3750000000000052
 40
0.5000000000000054
 40
0.5000000000000054
 40
0.6250000000000058
 40
0.6250000000000058
 40
0.6875000000000056
 40
0.6875000000000056
 40
0.7500000000000052
 40
0.7500000000000052
 40
0.8750000000000026
 40
0.8750000000000026
 40
1.0
 40
1.0
 40
1.0
 40
1.0
 10
-204.3046890268739
 20
106.256658614884
 30
0.0
 10
-204.776338396724
 20
106.2885969793178
 30
0.0
 10
-205.3014016756702
 20
106.3209040018282
 30
0.0
 10
-206.4084440661011
 20
106.3796658536035
 30
0.0
 10
-206.9928793953139
 20
106.4063696771448
 30
0.0
 10
-207.916491113833
 20
106.4401398677508
 30
0.0
 10
-208.2339204785665
 20
106.4503863761397
 30
0.0
 10
-208.8725344562636
 20
106.4680630982185
 30
0.0
 10
-209.1945522760053
 20
106.4755387780739
 30
0.0
 10
-210.1685632196828
 20
106.4936573944982
 30
0.0
 10
-210.8284375697327
 20
106.4999955156984
 30
0.0
 10
-212.1701393868306
 20
106.500004479548
 30
0.0
 10
-212.8311729577246
 20
106.4936605294403
 30
0.0
 10
-213.8051438227609
 20
106.4755453170217
 30
0.0
 10
-214.1270494610106
 20
106.4680727416677
 30
0.0
 10
-214.7652475925372
 20
106.4504112737713
 30
0.0
 10
-215.0827471776059
 20
106.4401661640883
 30
0.0
 10
-216.007036964562
 20
106.4063758395592
 30
0.0
 10
-216.5916030563932
 20
106.3796630638723
 30
0.0
 10
-217.6984406494805
 20
106.3209126596538
 30
0.0
 10
-218.2235655704478
 20
106.2886034823084
 30
0.0
 10
-218.6953109731275
 20
106.2566586148839
 30
0.0
  0
CIRCLE
  5
82
330
1F
100
AcDbEntity
  8
0
  6
Continuous
 62
     7
370
    25
100
AcDbCircle
 10
-211.5
 20
0.0
 30
0.0
 40
80.49999999998963
  0
CIRCLE
  5
83
330
1F
100
AcDbEntity
  8
0
  6
Continuous
 62
     7
370
    25
100
AcDbCircle
 10
-211.5
 20
0.0
 30
0.0
 40
79.99999999998923
  0
LWPOLYLINE
  5
85
330
1F
100
AcDbEntity
  8
0
  6
Continuous
 62
     7
370
    25
100
AcDbPolyline
 90
       31
 70
   128
 43
0.0
 10
-123.0
 20
69.2595441201
 10
-119.5238336376
 20
65.3651209637
 10
-116.2525439793
 20
61.325097147
 10
-113.1934178154
 20
57.1484718141
 10
-110.3532693427
 20
52.8445483885
 10
-107.7384249854
 20
48.42291385
 10
-105.3547093036
 20
43.8934173797
 10
-103.2074320185
 20
39.2661484206
 10
-101.3013761855
 20
34.5514142041
 10
-99.6407875396
 20
29.75971679
 10
-98.2293650384
 20
24.9017296736
 10
-97.0702526223
 20
19.9882740102
 10
-96.1660322116
 20
15.0302945113
 10
-95.5187179552
 20
10.0388350652
 10
-95.1297517442
 20
5.0250141364
 10
-95.0
 20
0.0
 10
-95.1297517442
 20
-5.0250141364
 10
-95.5187179552
 20
-10.0388350652
 10
-96.1660322116
 20
-15.0302945113
 10
-97.0702526223
 20
-19.9882740102
 10
-98.2293650384
 20
-24.9017296736
 10
-99.6407875396
 20
-29.75971679
 10
-101.3013761855
 20
-34.5514142041
 10
-103.2074320185
 20
-39.2661484206
 10
-105.3547093036
 20
-43.8934173797
 10
-107.7384249854
 20
-48.42291385
 10
-110.3532693427
 20
-52.8445483885
 10
-113.1934178154
 20
-57.1484718141
 10
-116.2525439793
 20
-61.325097147
 10
-119.5238336376
 20
-65.3651209637
 10
-123.0
 20
-69.2595441201
  0
SPLINE
  5
86
330
1F
100
AcDbEntity
  8
0
  6
Continuous
 62
     7
370
    25
100
AcDbSpline
210
0.0
220
0.0
230
1.0
 70
     8
 71
     3
 72
    30
 73
    26
 74
     0
 42
0.000000001
 43
0.00000001
 40
0.0
 40
0.0
 40
0.0
 40
0.0
 40
0.0312500000000037
 40
0.0312500000000037
 40
0.0625000000000073
 40
0.0625000000000073
 40
0.1250000000000119
 40
0.1250000000000119
 40
0.250000000000021
 40
0.250000000000021
 40
0.3125000000000224
 40
0.3125000000000224
 40
0.3750000000000238
 40
0.3750000000000238
 40
0.5000000000000208
 40
0.5000000000000208
 40
0.7500000000000121
 40
0.7500000000000121
 40
0.8750000000000078
 40
0.8750000000000078
 40
0.9375000000000042
 40
0.9375000000000042
 40
0.9687500000000021
 40
0.9687500000000021
 40
1.0
 40
1.0
 40
1.0
 40
1.0
 10
-123.0
 20
-69.2595441201467
 30
0.0
 10
-123.1143083460443
 20
-69.23393234760013
 30
0.0
 10
-123.2310412055353
 20
-69.20845403970223
 30
0.0
 10
-123.4605835967703
 20
-69.1594212589491
 30
0.0
 10
-123.5747333404832
 20
-69.13561818066484
 30
0.0
 10
-123.9153200424027
 20
-69.06635710153179
 30
0.0
 10
-124.1398967948093
 20
-69.02304468900817
 30
0.0
 10
-124.8061158266315
 20
-68.90184887541884
 30
0.0
 10
-125.2402908525895
 20
-68.83265727457481
 30
0.0
 10
-125.8756042024757
 20
-68.74770838649962
 30
0.0
 10
-126.0853959611857
 20
-68.72248852435382
 30
0.0
 10
-126.4928941964151
 20
-68.67936709115243
 30
0.0
 10
-126.6912538331376
 20
-68.66135870664341
 30
0.0
 10
-127.2702238251021
 20
-68.61798509555067
 30
0.0
 10
-127.6348140775191
 20
-68.6032169825152
 30
0.0
 10
-128.6618224617413
 20
-68.60318515251663
 30
0.0
 10
-129.2237696484519
 20
-68.66135853312792
 30
0.0
 10
-129.8902596016619
 20
-68.8314428470774
 30
0.0
 10
-130.0781025927919
 20
-68.90111921528704
 30
0.0
 10
-130.3094567143607
 20
-69.02270548608438
 30
0.0
 10
-130.3782953938347
 20
-69.06613272748488
 30
0.0
 10
-130.4693340914773
 20
-69.13551918328841
 30
0.0
 10
-130.497641822887
 20
-69.1593562576515
 30
0.0
 10
-130.5501907684214
 20
-69.20843754134413
 30
0.0
 10
-130.5746408818562
 20
-69.2339323474849
 30
0.0
 10
-130.5965665236052
 20
-69.25954412014674
 30
0.0
  0
SPLINE
  5
87
330
1F
100
AcDbEntity
  8
0
  6
Continuous
 62
     7
370
    25
100
AcDbSpline
210
0.0
220
0.0
230
1.0
 70
     8
 71
     3
 72
    20
 73
    16
 74
     0
 42
0.000000001
 43
0.00000001
 40
0.0
 40
0.0
 40
0.0
 40
0.0
 40
0.1249999999999992
 40
0.1249999999999992
 40
0.2499999999999984
 40
0.2499999999999984
 40
0.3749999999999977
 40
0.3749999999999977
 40
0.4999999999999969
 40
0.4999999999999969
 40
0.7499999999999953
 40
0.7499999999999953
 40
0.8749999999999977
 40
0.8749999999999977
 40
1.0
 40
1.0
 40
1.0
 40
1.0
 10
-130.5965665236052
 20
69.25954412014673
 30
0.0
 10
-130.5076879102551
 20
69.15572326666029
 30
0.0
 10
-130.3857717131525
 20
69.06254999714537
 30
0.0
 10
-130.0747217610576
 20
68.8996082147929
 30
0.0
 10
-129.8846235752015
 20
68.82978807316172
 30
0.0
 10
-129.4447963836057
 20
68.71798311030709
 30
0.0
 10
-129.1942744813053
 20
68.67540212000962
 30
0.0
 10
-128.6301552654076
 20
68.6178913818111
 30
0.0
 10
-128.3145629016076
 20
68.6030628637125
 30
0.0
 10
-127.2883842809928
 20
68.60349655291739
 30
0.0
 10
-126.5198069370092
 20
68.66179783343311
 30
0.0
 10
-125.2454331865866
 20
68.83185748399984
 30
0.0
 10
-124.8082632131872
 20
68.90147453719246
 30
0.0
 10
-123.9178751573244
 20
69.06341768270288
 30
0.0
 10
-123.463364650441
 20
69.1557232666136
 30
0.0
 10
-123.0000000000001
 20
69.25954412014671
 30
0.0
  0
CIRCLE
  5
88
330
1F
100
AcDbEntity
  8
0
  6
Continuous
 62
     7
370
    25
100
AcDbCircle
 10
-211.5
 20
0.0
 30
0.0
 40
79.00000000000006
  0
CIRCLE
  5
89
330
1F
100
AcDbEntity
  8
0
  6
Continuous
 62
     7
370
    25
100
AcDbCircle
 10
-211.5
 20
0.0
 30
0.0
 40
78.50000000000026
  0
SPLINE
  5
8A
330
1F
100
AcDbEntity
  8
0
  6
Continuous
 62
     7
370
    25
100
AcDbSpline
210
0.0
220
0.0
230
1.0
 70
     8
 71
     3
 72
    15
 73
    11
 74
     0
 42
0.000000001
 43
0.00000001
 40
0.0
 40
0.0
 40
0.0
 40
0.0
 40
0.0959623095025261
 40
0.2384246289678826
 40
0.381333938295264
 40
0.5247146183758974
 40
0.6678542962631508
 40
0.8104120025728455
 40
0.9529569140193718
 40
1.0
 40
1.0
 40
1.0
 40
1.0
 10
-20.37254951059936
 20
106.487850468258
 30
0.0
 10
-20.37186193270252
 20
106.4876914324387
 30
0.0
 10
-20.3701536004855
 20
106.4872962975528
 30
0.0
 10
-19.05593108556031
 20
106.3651995562751
 30
0.0
 10
-16.75599316037171
 20
106.1935973566874
 30
0.0
 10
-13.6752702394303
 20
106.0433870437043
 30
0.0
 10
-10.21715730840123
 20
105.9862043485378
 30
0.0
 10
-6.776703688999075
 20
106.045458721956
 30
0.0
 10
-4.385153074224712
 20
106.1617822274748
 30
0.0
 10
-3.275373269769427
 20
106.235054065542
 30
0.0
 10
-3.000000000000003
 20
106.2532352448621
 30
0.0
  0
SPLINE
  5
8D
330
1F
100
AcDbEntity
  8
0
  6
Continuous
 62
     7
370
    25
100
AcDbSpline
210
0.0
220
0.0
230
1.0
 70
     8
 71
     3
 72
    17
 73
    13
 74
     0
 42
0.000000001
 43
0.00000001
 40
0.0
 40
0.0
 40
0.0
 40
0.0
 40
0.2499999999999997
 40
0.2499999999999997
 40
0.3749999999999998
 40
0.3749999999999998
 40
0.4999999999999999
 40
0.625
 40
0.625
 40
0.75
 40
0.75
 40
1.0
 40
1.0
 40
1.0
 40
1.0
 10
-3.000000000000003
 20
106.2532352448621
 30
0.0
 10
-2.528225410655616
 20
106.285425942537
 30
0.0
 10
-2.104760955497165
 20
106.3174181624556
 30
0.0
 10
-1.543688323366099
 20
106.3623646287552
 30
0.0
 10
-1.369412383602719
 20
106.3768187360662
 30
0.0
 10
-1.053487700272915
 20
106.4036586141304
 30
0.0
 10
-0.7679942377610272
 20
106.4286040645015
 30
0.0
 10
-0.5424533981514545
 20
106.4491170513922
 30
0.0
 10
-0.3473045258824137
 20
106.4670908668356
 30
0.0
 10
-0.2646634753723232
 20
106.4748332457495
 30
0.0
 10
-0.0663515095939426
 20
106.4935532010111
 30
0.0
 10
0.0
 20
106.5
 30
0.0
 10
0.0
 20
106.5
 30
0.0
  0
SPLINE
  5
8F
330
1F
100
AcDbEntity
  8
0
  6
Continuous
 62
     7
370
    25
100
AcDbSpline
210
0.0
220
0.0
230
1.0
 70
    24
 71
     3
 72
    20
 73
    16
 74
     0
 42
0.000000001
 43
0.00000001
 40
0.0
 40
0.0
 40
0.0
 40
0.0
 40
0.2500000000000028
 40
0.2500000000000028
 40
0.3750000000000042
 40
0.3750000000000042
 40
0.5000000000000056
 40
0.5000000000000056
 40
0.7500000000000057
 40
0.7500000000000057
 40
0.8750000000000042
 40
0.8750000000000042
 40
0.9375000000000022
 40
0.9375000000000022
 40
1.0
 40
1.0
 40
1.0
 40
1.0
 10
0.0
 20
103.2601863647252
 30
0.0
 10
0.0
 20
103.3051604071361
 30
0.0
 10
0.0
 20
103.4527881921423
 30
0.0
 10
0.0
 20
103.7683935820029
 30
0.0
 10
0.0
 20
103.8903201557796
 30
0.0
 10
0.0
 20
104.1560179733351
 30
0.0
 10
0.0
 20
104.3000253783789
 30
0.0
 10
0.0
 20
104.7562052185014
 30
0.0
 10
0.0
 20
105.09237681183
 30
0.0
 10
0.0
 20
105.6138756182843
 30
0.0
 10
0.0
 20
105.7906394874773
 30
0.0
 10
0.0
 20
106.0567196773072
 30
0.0
 10
0.0
 20
106.1455709782191
 30
0.0
 10
0.0
 20
106.3230367701336
 30
0.0
 10
0.0
 20
106.410580147918
 30
0.0
 10
0.0
 20
106.5
 30
0.0
  0
LINE
  5
93
330
1F
100
AcDbEntity
  8
0
  6
Continuous
 62
     7
370
    25
100
AcDbLine
 10
-221.75
 20
125.0
 30
0.0
 11
-221.75
 21
106.0056012671
 31
0.0
  0
LINE
  5
94
330
1F
100
AcDbEntity
  8
0
  6
Continuous
 62
     7
370
    25
100
AcDbLine
 10
-201.25
 20
106.0177635954
 30
0.0
 11
-201.25
 21
125.0
 31
0.0
  0
LINE
  5
95
330
1F
100
AcDbEntity
  8
0
  6
Continuous
 62
     7
370
    25
100
AcDbLine
 10
-20.3725495106
 20
106.5
 30
0.0
 11
-201.25
 21
106.5
 31
0.0
  0
LINE
  5
96
330
1F
100
AcDbEntity
  8
0
  6
Continuous
 62
     7
370
    25
100
AcDbLine
 10
-211.5
 20
-106.5
 30
0.0
 11
-3.0
 21
-106.5
 31
0.0
  0
LINE
  5
97
330
1F
100
AcDbEntity
  8
0
  6
Continuous
 62
     7
370
    25
100
AcDbLine
 10
-20.5
 20
125.0
 30
0.0
 11
-20.5
 21
106.5
 31
0.0
  0
LINE
  5
98
330
1F
100
AcDbEntity
  8
0
  6
Continuous
 62
     7
370
    25
100
AcDbLine
 10
0.0
 20
106.5
 30
0.0
 11
0.0
 21
125.0
 31
0.0
  0
LINE
  5
99
330
1F
100
AcDbEntity
  8
0
  6
Continuous
 62
     7
370
    25
100
AcDbLine
 10
-218.6953109731
 20
106.2566586149
 30
0.0
 11
-218.492626157
 21
103.2635133018
 31
0.0
  0
LINE
  5
9A
330
1F
100
AcDbEntity
  8
0
  6
Continuous
 62
     7
370
    25
100
AcDbLine
 10
-204.507373843
 20
103.2635133018
 30
0.0
 11
-204.3046890269
 21
106.2566586149
 31
0.0
  0
LINE
  5
9B
330
1F
100
AcDbEntity
  8
0
  6
Continuous
 62
     7
370
    25
100
AcDbLine
 10
-221.75
 20
125.0
 30
0.0
 11
-201.25
 21
125.0
 31
0.0
  0
LINE
  5
9C
330
1F
100
AcDbEntity
  8
0
  6
Continuous
 62
     7
370
    25
100
AcDbLine
 10
0.0
 20
103.2601863647
 30
0.0
 11
0.0
 21
-103.5
 31
0.0
  0
LINE
  5
9D
330
1F
100
AcDbEntity
  8
0
  6
Continuous
 62
     7
370
    25
100
AcDbLine
 10
-20.5
 20
125.0
 30
0.0
 11
0.0
 21
125.0
 31
0.0
  0
LINE
  5
9E
330
1F
100
AcDbEntity
  8
0
  6
Continuous
 62
     8
370
    25
100
AcDbLine
 10
-3.0
 20
-106.5
 30
0.0
 11
-3.0
 21
106.2532352449
 31
0.0
  0
LINE
  5
9F
330
1F
100
AcDbEntity
  8
0
  6
Continuous
 62
     8
370
    25
100
AcDbLine
 10
-123.0
 20
69.2595441201
 30
0.0
 11
-123.0
 21
106.5
 31
0.0
  0
LINE
  5
A0
330
1F
100
AcDbEntity
  8
0
  6
Continuous
 62
     8
370
    25
100
AcDbLine
 10
-123.0
 20
-106.5
 30
0.0
 11
-123.0
 21
-69.2595441201
 31
0.0
  0
ARC
  5
A1
330
1F
100
AcDbEntity
  8
0
  6
Continuous
 62
     7
370
    25
100
AcDbCircle
 10
-3.0
 20
-103.5
 30
0.0
 40
3.000000000000027
100
AcDbArc
 50
270.0
 51
0.0
  0
ARC
  5
A2
330
1F
100
AcDbEntity
  8
0
  6
Continuous
 62
     7
370
    25
100
AcDbCircle
 10
-211.5
 20
0.0
 30
0.0
 40
103.4999999999997
100
AcDbArc
 50
93.8739458158
 51
86.1260541842
  0
ARC
  5
A3
330
1F
100
AcDbEntity
  8
0
  6
Continuous
 62
     7
370
    25
100
AcDbCircle
 10
-211.5
 20
0.0
 30
0.0
 40
106.5000000000002
100
AcDbArc
 50
93.8739458158
 51
86.1260541842
  0
ARC
  5
A4
330
1F
100
AcDbEntity
  8
0
  6
Continuous
 62
     7
370
    25
100
AcDbCircle
 10
-2.9965284666
 20
103.2567067689
 30
0.0
 40
2.996530486842332
100
AcDbArc
 50
0.0665323442
 51
90.0663781861
  0
CIRCLE
  5
AF
330
1B
100
AcDbEntity
 67
     1
  8
0
  6
Continuous
 62
     7
370
    25
100
AcDbCircle
 10
201.2
 20
-211.5
 30
0.0
 40
10.25000000000003
  0
CIRCLE
  5
B0
330
1B
100
AcDbEntity
 67
     1
  8
0
  6
Continuous
 62
     7
370
    25
100
AcDbCircle
 10
201.2
 20
-211.5
 30
0.0
 40
6.25
  0
CIRCLE
  5
B1
330
1B
100
AcDbEntity
 67
     1
  8
0
  6
Continuous
 62
     7
370
    25
100
AcDbCircle
 10
0.0
 20
-10.25
 30
0.0
 40
10.24999999999999
  0
CIRCLE
  5
B2
330
1B
100
AcDbEntity
 67
     1
  8
0
  6
Continuous
 62
     7
370
    25
100
AcDbCircle
 10
0.0
 20
-10.25
 30
0.0
 40
6.249999999999735
  0
CIRCLE
  5
B3
330
1B
100
AcDbEntity
 67
     1
  8
0
  6
Continuous
 62
     7
370
    25
100
AcDbCircle
 10
0.0
 20
-10.25
 30
0.0
 40
2.339999999999902
  0
CIRCLE
  5
B4
330
1B
100
AcDbEntity
 67
     1
  8
0
  6
Continuous
 62
     7
370
    25
100
AcDbCircle
 10
0.0
 20
-10.25
 30
0.0
 40
1.906987298107646
  0
CIRCLE
  5
B5
330
1B
100
AcDbEntity
 67
     1
  8
0
  6
Continuous
 62
     7
370
    25
100
AcDbCircle
 10
201.2
 20
-211.5
 30
0.0
 40
2.340000000000089
  0
CIRCLE
  5
B6
330
1B
100
AcDbEntity
 67
     1
  8
0
  6
Continuous
 62
     7
370
    25
100
AcDbCircle
 10
201.2
 20
-211.5
 30
0.0
 40
1.90698729810768
  0
SPLINE
  5
B8
330
1B
100
AcDbEntity
 67
     1
  8
0
  6
Continuous
 62
     7
370
    25
100
AcDbSpline
210
0.0
220
0.0
230
1.0
 70
    24
 71
     3
 72
    20
 73
    16
 74
     0
 42
0.000000001
 43
0.00000001
 40
0.0
 40
0.0
 40
0.0
 40
0.0
 40
0.1249999999999989
 40
0.1249999999999989
 40
0.2499999999999978
 40
0.2499999999999978
 40
0.4999999999999976
 40
0.4999999999999976
 40
0.7499999999999973
 40
0.7499999999999973
 40
0.8749999999999987
 40
0.8749999999999987
 40
0.9374999999999993
 40
0.9374999999999993
 40
1.0
 40
1.0
 40
1.0
 40
1.0
 10
-7.041584475261057
 20
0.0
 30
0.0
 10
-6.710996149519463
 20
0.0
 30
0.0
 10
-6.385670907095998
 20
0.0
 30
0.0
 10
-5.743247779037425
 20
0.0
 30
0.0
 10
-5.424806192776549
 20
0.0
 30
0.0
 10
-4.489431473969733
 20
0.0
 30
0.0
 10
-3.897964785618345
 20
0.0
 30
0.0
 10
-2.749404991642876
 20
0.0
 30
0.0
 10
-2.192646184788649
 20
0.0
 30
0.0
 10
-1.366991456624493
 20
0.0
 30
0.0
 10
-1.093382040646351
 20
0.0
 30
0.0
 10
-0.683479563129523
 20
0.0
 30
0.0
 10
-0.5469318128672116
 20
0.0
 30
0.0
 10
-0.2737052425192191
 20
0.0
 30
0.0
 10
-0.138179974765347
 20
0.0
 30
0.0
 10
0.0
 20
0.0
 30
0.0
  0
SPLINE
  5
BA
330
1B
100
AcDbEntity
 67
     1
  8
0
  6
Continuous
 62
     7
370
    25
100
AcDbSpline
210
0.0
220
0.0
230
1.0
 70
    24
 71
     3
 72
    20
 73
    16
 74
     0
 42
0.000000001
 43
0.00000001
 40
0.0
 40
0.0
 40
0.0
 40
0.0
 40
0.2500000000000028
 40
0.2500000000000028
 40
0.3750000000000042
 40
0.3750000000000042
 40
0.5000000000000056
 40
0.5000000000000056
 40
0.7500000000000057
 40
0.7500000000000057
 40
0.8750000000000042
 40
0.8750000000000042
 40
0.9375000000000022
 40
0.9375000000000022
 40
1.0
 40
1.0
 40
1.0
 40
1.0
 10
7.041584475261063
 20
0.0
 30
0.0
 10
6.382069842263742
 20
0.0
 30
0.0
 10
5.747141350137625
 20
0.0
 30
0.0
 10
4.818199675422983
 20
0.0
 30
0.0
 10
4.511561210423009
 20
0.0
 30
0.0
 10
3.912977424657529
 20
0.0
 30
0.0
 10
3.620078887026632
 20
0.0
 30
0.0
 10
2.7552245906452
 20
0.0
 30
0.0
 10
2.197019353540136
 20
0.0
 30
0.0
 10
1.369590113948237
 20
0.0
 30
0.0
 10
1.095459670790506
 20
0.0
 30
0.0
 10
0.6847993704754765
 20
0.0
 30
0.0
 10
0.5480030763153204
 20
0.0
 30
0.0
 10
0.2742748057452463
 20
0.0
 30
0.0
 10
0.1389800016617856
 20
0.0
 30
0.0
 10
0.0
 20
0.0
 30
0.0
  0
SPLINE
  5
BB
330
1B
100
AcDbEntity
 67
     1
  8
0
  6
Continuous
 62
     7
370
    25
100
AcDbSpline
210
0.0
220
0.0
230
1.0
 70
     8
 71
     3
 72
    20
 73
    16
 74
     0
 42
0.000000001
 43
0.00000001
 40
0.0
 40
0.0
 40
0.0
 40
0.0
 40
0.1249999999999992
 40
0.1249999999999992
 40
0.2499999999999984
 40
0.2499999999999984
 40
0.3749999999999977
 40
0.3749999999999977
 40
0.4999999999999969
 40
0.4999999999999969
 40
0.7499999999999953
 40
0.7499999999999953
 40
0.8749999999999977
 40
0.8749999999999977
 40
1.0
 40
1.0
 40
1.0
 40
1.0
 10
88.49999999999997
 20
-130.5965665236052
 30
0.0
 10
88.03663534954096
 20
-130.5076879102551
 30
0.0
 10
87.5779665675732
 20
-130.3857717131525
 30
0.0
 10
86.68085271691666
 20
-130.0747217610576
 30
0.0
 10
86.24031160978272
 20
-129.8846235752015
 30
0.0
 10
85.39994654049687
 20
-129.4447963836057
 30
0.0
 10
84.99718415580847
 20
-129.1942744813053
 30
0.0
 10
84.22753620910741
 20
-128.6301552654076
 30
0.0
 10
83.85901542310968
 20
-128.3145629016076
 30
0.0
 10
82.83438540979483
 20
-127.2883842809928
 30
0.0
 10
82.27366508914695
 20
-126.5198069370092
 30
0.0
 10
81.60853988761421
 20
-125.2454331865866
 30
0.0
 10
81.42109929367771
 20
-124.8082632131872
 30
0.0
 10
81.1131986107773
 20
-123.9178751573244
 30
0.0
 10
80.99231208978482
 20
-123.463364650441
 30
0.0
 10
80.90343347639484
 20
-123.0000000000001
 30
0.0
  0
SPLINE
  5
BC
330
1B
100
AcDbEntity
 67
     1
  8
0
  6
Continuous
 62
     7
370
    25
100
AcDbSpline
210
0.0
220
0.0
230
1.0
 70
    24
 71
     3
 72
    34
 73
    30
 74
     0
 42
0.000000001
 43
0.00000001
 40
0.0
 40
0.0
 40
0.0
 40
0.0
 40
0.0625000000000041
 40
0.0625000000000041
 40
0.1250000000000082
 40
0.1250000000000082
 40
0.250000000000011
 40
0.250000000000011
 40
0.3750000000000139
 40
0.3750000000000139
 40
0.4375000000000129
 40
0.4375000000000129
 40
0.4687500000000105
 40
0.4687500000000105
 40
0.5000000000000081
 40
0.5000000000000081
 40
0.5312500000000058
 40
0.5312500000000058
 40
0.5625000000000034
 40
0.5625000000000034
 40
0.6250000000000024
 40
0.6250000000000024
 40
0.7500000000000019
 40
0.7500000000000019
 40
0.8125000000000017
 40
0.8125000000000017
 40
0.8750000000000013
 40
0.8750000000000013
 40
1.0
 40
1.0
 40
1.0
 40
1.0
 10
211.5
 20
-204.5073738430183
 30
0.0
 10
211.5
 20
-204.8243641034393
 30
0.0
 10
211.5
 20
-205.1389057739003
 30
0.0
 10
211.5
 20
-205.7544005375383
 30
0.0
 10
211.5
 20
-206.0568525658301
 30
0.0
 10
211.5000000000001
 20
-206.9517439503208
 30
0.0
 10
211.5
 20
-207.5335605640321
 30
0.0
 10
211.5000000000001
 20
-208.6631011493667
 30
0.0
 10
211.5
 20
-209.2118632875717
 30
0.0
 10
211.5000000000001
 20
-210.0390441757592
 30
0.0
 10
211.4999999999999
 20
-210.3152294693499
 30
0.0
 10
211.4999999999999
 20
-210.7436962539761
 30
0.0
 10
211.5
 20
-210.8884484639744
 30
0.0
 10
211.5
 20
-211.188377660712
 30
0.0
 10
211.5
 20
-211.3467335699853
 30
0.0
 10
211.5
 20
-211.6594752620161
 30
0.0
 10
211.5
 20
-211.8171517336575
 30
0.0
 10
211.5000000000001
 20
-212.1176014696163
 30
0.0
 10
211.5
 20
-212.2623618525418
 30
0.0
 10
211.5000000000001
 20
-212.6906438762416
 30
0.0
 10
211.5
 20
-212.9668253123917
 30
0.0
 10
211.5
 20
-213.7936198914333
 30
0.0
 10
211.5
 20
-214.3422613173574
 30
0.0
 10
211.5
 20
-215.1883329464003
 30
0.0
 10
211.5
 20
-215.473921120862
 30
0.0
 10
211.5
 20
-216.055442950946
 30
0.0
 10
211.5
 20
-216.351384168755
 30
0.0
 10
211.5
 20
-217.2474643456509
 30
0.0
 10
211.5
 20
-217.8587191090074
 30
0.0
 10
211.5
 20
-218.4926261569831
 30
0.0
  0
LINE
  5
CB
330
1B
100
AcDbEntity
 67
     1
  8
0
  6
Continuous
 62
     7
370
    25
100
AcDbLine
 10
208.5
 20
-105.0
 30
0.0
 11
116.5
 21
-105.0
 31
0.0
  0
LINE
  5
CC
330
1B
100
AcDbEntity
 67
     1
  8
0
  6
Continuous
 62
     7
370
    25
100
AcDbLine
 10
88.5
 20
-318.0
 30
0.0
 11
208.5
 21
-318.0
 31
0.0
  0
LINE
  5
CD
330
1B
100
AcDbEntity
 67
     1
  8
0
  6
Continuous
 62
     7
370
    25
100
AcDbLine
 10
-106.5
 20
-3.0
 30
0.0
 11
-106.5
 21
-123.0
 31
0.0
  0
LINE
  5
CE
330
1B
100
AcDbEntity
 67
     1
  8
0
  6
Continuous
 62
     7
370
    25
100
AcDbLine
 10
106.5
 20
-95.0
 30
0.0
 11
106.5
 21
-3.0
 31
0.0
  0
LINE
  5
CF
330
1B
100
AcDbEntity
 67
     1
  8
0
  6
Continuous
 62
     7
370
    25
100
AcDbLine
 10
211.5
 20
-218.492626157
 30
0.0
 11
211.5
 21
-315.0
 31
0.0
  0
LINE
  5
D0
330
1B
100
AcDbEntity
 67
     1
  8
0
  6
Continuous
 62
     7
370
    25
100
AcDbLine
 10
211.5
 20
-108.0
 30
0.0
 11
211.5
 21
-204.507373843
 31
0.0
  0
LINE
  5
D1
330
1B
100
AcDbEntity
 67
     1
  8
0
  6
Continuous
 62
     7
370
    25
100
AcDbLine
 10
7.0415844753
 20
0.0
 30
0.0
 11
103.5
 21
0.0
 31
0.0
  0
LINE
  5
D2
330
1B
100
AcDbEntity
 67
     1
  8
0
  6
Continuous
 62
     7
370
    25
100
AcDbLine
 10
-103.5
 20
0.0
 30
0.0
 11
-7.0415844753
 21
0.0
 31
0.0
  0
LINE
  5
D3
330
1B
100
AcDbEntity
 67
     1
  8
0
  6
Continuous
 62
     8
370
    25
100
AcDbLine
 10
208.5
 20
-204.3046890269
 30
0.0
 11
208.5
 21
-105.0
 31
0.0
  0
LINE
  5
D4
330
1B
100
AcDbEntity
 67
     1
  8
0
  6
Continuous
 62
     8
370
    25
100
AcDbLine
 10
208.5
 20
-318.0
 30
0.0
 11
208.5
 21
-218.6953109731
 31
0.0
  0
LINE
  5
D5
330
1B
100
AcDbEntity
 67
     1
  8
0
  6
Continuous
 62
     8
370
    25
100
AcDbLine
 10
116.5
 20
-105.0
 30
0.0
 11
88.5
 21
-130.5965665236
 31
0.0
  0
LINE
  5
D6
330
1B
100
AcDbEntity
 67
     1
  8
0
  6
Continuous
 62
     8
370
    25
100
AcDbLine
 10
88.5
 20
-130.5965665236
 30
0.0
 11
88.5
 21
-318.0
 31
0.0
  0
LINE
  5
D7
330
1B
100
AcDbEntity
 67
     1
  8
0
  6
Continuous
 62
     8
370
    25
100
AcDbLine
 10
80.9034334764
 20
-123.0
 30
0.0
 11
-106.5
 21
-123.0
 31
0.0
  0
LINE
  5
D8
330
1B
100
AcDbEntity
 67
     1
  8
0
  6
Continuous
 62
     8
370
    25
100
AcDbLine
 10
-7.2456883731
 20
-3.0
 30
0.0
 11
-106.5
 21
-3.0
 31
0.0
  0
LINE
  5
D9
330
1B
100
AcDbEntity
 67
     1
  8
0
  6
Continuous
 62
     8
370
    25
100
AcDbLine
 10
106.5
 20
-3.0
 30
0.0
 11
7.2456883731
 21
-3.0
 31
0.0
  0
LINE
  5
DA
330
1B
100
AcDbEntity
 67
     1
  8
0
  6
Continuous
 62
     8
370
    25
100
AcDbLine
 10
80.9034334764
 20
-123.0
 30
0.0
 11
106.5
 21
-95.0
 31
0.0
  0
ARC
  5
DB
330
1B
100
AcDbEntity
 67
     1
  8
0
  6
Continuous
 62
     7
370
    25
100
AcDbCircle
 10
88.5
 20
-123.0
 30
0.0
 40
194.9999999999994
100
AcDbArc
 50
180.0
 51
270.0
  0
ARC
  5
DC
330
1B
100
AcDbEntity
 67
     1
  8
0
  6
Continuous
 62
     7
370
    25
100
AcDbCircle
 10
208.5
 20
-108.0
 30
0.0
 40
3.000000000000014
100
AcDbArc
 50
0.0
 51
90.0
  0
ARC
  5
DD
330
1B
100
AcDbEntity
 67
     1
  8
0
  6
Continuous
 62
     7
370
    25
100
AcDbCircle
 10
208.5
 20
-315.0
 30
0.0
 40
3.0
100
AcDbArc
 50
270.0
 51
0.0
  0
ARC
  5
DE
330
1B
100
AcDbEntity
 67
     1
  8
0
  6
Continuous
 62
     7
370
    25
100
AcDbCircle
 10
103.5
 20
-3.0
 30
0.0
 40
3.000000000000027
100
AcDbArc
 50
0.0
 51
90.0
  0
ARC
  5
DF
330
1B
100
AcDbEntity
 67
     1
  8
0
  6
Continuous
 62
     7
370
    25
100
AcDbCircle
 10
-103.5
 20
-3.0
 30
0.0
 40
3.000000000000004
100
AcDbArc
 50
90.0
 51
180.0
  0
ARC
  5
E0
330
1B
100
AcDbEntity
 67
     1
  8
0
  6
Continuous
 62
     7
370
    25
100
AcDbCircle
 10
116.5
 20
-95.0
 30
0.0
 40
10.00000000000001
100
AcDbArc
 50
180.5985864866
 51
269.2216235213
  0
ARC
  5
E1
330
1B
100
AcDbEntity
 67
     1
  8
0
  6
Continuous
 62
     7
370
    25
100
AcDbCircle
 10
3.9311868608
 20
-2.2534715334
 30
0.0
 40
11.2017786420237
100
AcDbArc
 50
168.3945634409
 51
183.8212374217
  0
ARC
  5
E2
330
1B
100
AcDbEntity
 67
     1
  8
0
  6
Continuous
 62
     7
370
    25
100
AcDbCircle
 10
-3.9311868608
 20
-2.2534715334
 30
0.0
 40
11.20177864203073
100
AcDbArc
 50
356.1787625783
 51
11.6054365591
  0
ARC
  5
E3
330
1B
100
AcDbEntity
 67
     1
  8
0
  6
Continuous
 62
     7
370
    25
100
AcDbCircle
 10
209.2465765721
 20
-207.4423178067
 30
0.0
 40
11.27773167719134
100
AcDbArc
 50
266.2042906734
 51
281.5259515548
  0
ARC
  5
E4
330
1B
100
AcDbEntity
 67
     1
  8
0
  6
Continuous
 62
     7
370
    25
100
AcDbCircle
 10
209.2465765721
 20
-215.5576821933
 30
0.0
 40
11.27773167719104
100
AcDbArc
 50
78.4740484452
 51
93.7957093266
  0
VIEWPORT
  5
106
330
1B
100
AcDbEntity
 67
     1
  8
0
100
AcDbViewport
 10
0.0
 20
0.0
 30
0.0
 40
205.6
 41
156.0
 68
     1
 69
     1
 12
-159.0
 22
9.25
 13
0.0
 23
0.0
 14
10.0
 24
10.0
 15
10.0
 25
10.0
 16
0.0
 26
0.0
 36
1.0
 17
0.0
 27
0.0
 37
0.0
 42
50.0
 43
0.0
 44
0.0
 45
246.1097276265
 50
0.0
 51
0.0
 72
   100
 90
   557152
  1

281
     0
 71
     1
 74
     0
110
0.0
120
0.0
130
0.0
111
1.0
121
0.0
131
0.0
112
0.0
122
1.0
132
0.0
 79
     0
146
0.0
  0
ENDSEC
  0
SECTION
  2
OBJECTS
  0
DICTIONARY
  5
C
330
0
100
AcDbDictionary
281
     1
  3
ACAD_GROUP
350
D
  3
ACAD_LAYOUT
350
1A
  3
ACAD_MLINESTYLE
350
17
  3
ACAD_PLOTSETTINGS
350
19
  3
ACAD_PLOTSTYLENAME
350
E
  3
ACAD_SCALELIST
350
47
  0
DICTIONARY
  5
D
102
{ACAD_REACTORS
330
C
102
}
330
C
100
AcDbDictionary
281
     1
  0
DICTIONARY
  5
1A
102
{ACAD_REACTORS
330
C
102
}
330
C
100
AcDbDictionary
281
     1
  3
_Left
350
26
  3
_Top
350
1E
  3
Model
350
22
  0
DICTIONARY
  5
17
102
{ACAD_REACTORS
330
C
102
}
330
C
100
AcDbDictionary
281
     1
  3
Standard
350
18
  0
DICTIONARY
  5
19
102
{ACAD_REACTORS
330
C
102
}
330
C
100
AcDbDictionary
281
     1
  0
ACDBDICTIONARYWDFLT
  5
E
102
{ACAD_REACTORS
330
C
102
}
330
C
100
AcDbDictionary
281
     1
  3
Normal
350
F
100
AcDbDictionaryWithDefault
340
F
  0
DICTIONARY
  5
47
102
{ACAD_REACTORS
330
C
102
}
330
C
100
AcDbDictionary
281
     1
  3
A0
350
48
  3
A1
350
49
  3
A2
350
4A
  3
A3
350
4B
  3
A4
350
4C
  3
A5
350
4D
  3
A6
350
4E
  3
A7
350
4F
  3
A8
350
50
  3
A9
350
51
  3
B0
350
52
  3
B1
350
53
  3
B2
350
54
  3
B3
350
55
  3
B4
350
56
  3
B5
350
57
  3
B6
350
58
  3
B7
350
59
  3
B8
350
5A
  3
B9
350
5B
  3
C0
350
5C
  3
C1
350
5D
  3
C2
350
5E
  3
C3
350
5F
  3
C4
350
60
  3
C5
350
61
  3
C6
350
62
  3
C7
350
63
  3
C8
350
64
  3
C9
350
65
  3
D0
350
66
  3
D1
350
67
  3
D2
350
68
  0
LAYOUT
  5
26
102
{ACAD_REACTORS
330
1A
102
}
330
1A
100
AcDbPlotSettings
  1

  2
none_device
  4
ISO_A4_(210.00_x_297.00_MM)
  6

 40
7.5
 41
20.0
 42
7.5
 43
20.0
 44
210.0
 45
297.0
 46
0.0
 47
0.0
 48
0.0
 49
0.0
140
0.0
141
0.0
142
1.0
143
1.6307692308
 70
   688
 72
     1
 73
     1
 74
     1
  7

 75
     0
147
0.6132075472
148
106.5
149
318.0
100
AcDbLayout
  1
_Left
 70
     1
 71
     2
 10
0.0
 20
0.0
 11
0.0
 21
0.0
 12
0.0
 22
0.0
 32
0.0
 14
0.0
 24
0.0
 34
0.0
 15
0.0
 25
0.0
 35
0.0
146
0.0
 13
0.0
 23
0.0
 33
0.0
 16
1.0
 26
0.0
 36
0.0
 17
0.0
 27
1.0
 37
0.0
 76
     0
330
23
331
108
  0
LAYOUT
  5
1E
102
{ACAD_REACTORS
330
1A
102
}
330
1A
100
AcDbPlotSettings
  1

  2
none_device
  4
ISO_A4_(210.00_x_297.00_MM)
  6

 40
7.5
 41
20.0
 42
7.5
 43
20.0
 44
210.0
 45
297.0
 46
0.0
 47
0.0
 48
0.0
 49
0.0
140
0.0
141
0.0
142
1.0
143
1.6307692308
 70
   688
 72
     1
 73
     1
 74
     1
  7

 75
     0
147
0.6132075472
148
106.5
149
318.0
100
AcDbLayout
  1
_Top
 70
     1
 71
     1
 10
-139.1153846154
 20
-330.2307692308
 11
345.2230769231
 21
12.2307692308
 12
0.0
 22
0.0
 32
0.0
 14
-106.5
 24
-318.0
 34
0.0
 15
211.5
 25
0.0
 35
0.0
146
0.0
 13
0.0
 23
0.0
 33
0.0
 16
1.0
 26
0.0
 36
0.0
 17
0.0
 27
1.0
 37
0.0
 76
     0
330
1B
331
106
  0
LAYOUT
  5
22
102
{ACAD_REACTORS
330
1A
102
}
330
1A
100
AcDbPlotSettings
  1

  2
none_device
  4
ANSI_A_(11.00_x_8.50_Inches)
  6

 40
6.35
 41
19.05
 42
6.35000508
 43
19.05000254
 44
279.4
 45
215.9
 46
271.65299746
 47
80.8540694847
 48
0.0
 49
0.0
140
0.0
141
0.0
142
0.034245283
143
1.0
 70
  1696
 72
     0
 73
     0
 74
     0
  7

 75
     0
147
0.0179189148
148
-1300.4909072572
149
0.0
100
AcDbLayout
  1
Model
 70
     1
 71
     0
 10
0.0
 20
0.0
 11
420.0
 21
297.0
 12
0.0
 22
0.0
 32
0.0
 14
-318.0
 24
-106.5
 34
0.0
 15
0.0
 25
125.0
 35
0.0
146
0.0
 13
0.0
 23
0.0
 33
0.0
 16
1.0
 26
0.0
 36
0.0
 17
0.0
 27
1.0
 37
0.0
 76
     0
330
1F
331
29
  0
MLINESTYLE
  5
18
102
{ACAD_REACTORS
330
17
102
}
330
17
100
AcDbMlineStyle
  2
Standard
 70
     0
  3

 62
   256
 51
90.0
 52
90.0
 71
     2
 49
0.5
 62
   256
  6
BYLAYER
 49
-0.5
 62
   256
  6
BYLAYER
  0
ACDBPLACEHOLDER
  5
F
102
{ACAD_REACTORS
330
E
102
}
330
E
  0
SCALE
  5
48
102
{ACAD_REACTORS
330
47
102
}
330
47
100
AcDbScale
 70
     0
300
1:1
140
1.0
141
1.0
290
     1
  0
SCALE
  5
49
102
{ACAD_REACTORS
330
47
102
}
330
47
100
AcDbScale
 70
     0
300
1:2
140
1.0
141
2.0
290
     0
  0
SCALE
  5
4A
102
{ACAD_REACTORS
330
47
102
}
330
47
100
AcDbScale
 70
     0
300
1:4
140
1.0
141
4.0
290
     0
  0
SCALE
  5
4B
102
{ACAD_REACTORS
330
47
102
}
330
47
100
AcDbScale
 70
     0
300
1:5
140
1.0
141
5.0
290
     0
  0
SCALE
  5
4C
102
{ACAD_REACTORS
330
47
102
}
330
47
100
AcDbScale
 70
     0
300
1:8
140
1.0
141
8.0
290
     0
  0
SCALE
  5
4D
102
{ACAD_REACTORS
330
47
102
}
330
47
100
AcDbScale
 70
     0
300
1:10
140
1.0
141
10.0
290
     0
  0
SCALE
  5
4E
102
{ACAD_REACTORS
330
47
102
}
330
47
100
AcDbScale
 70
     0
300
1:16
140
1.0
141
16.0
290
     0
  0
SCALE
  5
4F
102
{ACAD_REACTORS
330
47
102
}
330
47
100
AcDbScale
 70
     0
300
1:20
140
1.0
141
20.0
290
     0
  0
SCALE
  5
50
102
{ACAD_REACTORS
330
47
102
}
330
47
100
AcDbScale
 70
     0
300
1:30
140
1.0
141
30.0
290
     0
  0
SCALE
  5
51
102
{ACAD_REACTORS
330
47
102
}
330
47
100
AcDbScale
 70
     0
300
1:40
140
1.0
141
40.0
290
     0
  0
SCALE
  5
52
102
{ACAD_REACTORS
330
47
102
}
330
47
100
AcDbScale
 70
     0
300
1:50
140
1.0
141
50.0
290
     0
  0
SCALE
  5
53
102
{ACAD_REACTORS
330
47
102
}
330
47
100
AcDbScale
 70
     0
300
1:100
140
1.0
141
100.0
290
     0
  0
SCALE
  5
54
102
{ACAD_REACTORS
330
47
102
}
330
47
100
AcDbScale
 70
     0
300
2:1
140
2.0
141
1.0
290
     0
  0
SCALE
  5
55
102
{ACAD_REACTORS
330
47
102
}
330
47
100
AcDbScale
 70
     0
300
4:1
140
4.0
141
1.0
290
     0
  0
SCALE
  5
56
102
{ACAD_REACTORS
330
47
102
}
330
47
100
AcDbScale
 70
     0
300
8:1
140
8.0
141
1.0
290
     0
  0
SCALE
  5
57
102
{ACAD_REACTORS
330
47
102
}
330
47
100
AcDbScale
 70
     0
300
10:1
140
10.0
141
1.0
290
     0
  0
SCALE
  5
58
102
{ACAD_REACTORS
330
47
102
}
330
47
100
AcDbScale
 70
     0
300
100:1
140
100.0
141
1.0
290
     0
  0
SCALE
  5
59
102
{ACAD_REACTORS
330
47
102
}
330
47
100
AcDbScale
 70
     0
300
1/128" = 1'-0"
140
0.0078125
141
12.0
290
     0
  0
SCALE
  5
5A
102
{ACAD_REACTORS
330
47
102
}
330
47
100
AcDbScale
 70
     0
300
1/64" = 1'-0"
140
0.015625
141
12.0
290
     0
  0
SCALE
  5
5B
102
{ACAD_REACTORS
330
47
102
}
330
47
100
AcDbScale
 70
     0
300
1/32" = 1'-0"
140
0.03125
141
12.0
290
     0
  0
SCALE
  5
5C
102
{ACAD_REACTORS
330
47
102
}
330
47
100
AcDbScale
 70
     0
300
1/16" = 1'-0"
140
0.0625
141
12.0
290
     0
  0
SCALE
  5
5D
102
{ACAD_REACTORS
330
47
102
}
330
47
100
AcDbScale
 70
     0
300
3/32" = 1'-0"
140
0.09375
141
12.0
290
     0
  0
SCALE
  5
5E
102
{ACAD_REACTORS
330
47
102
}
330
47
100
AcDbScale
 70
     0
300
1/8" = 1'-0"
140
0.125
141
12.0
290
     0
  0
SCALE
  5
5F
102
{ACAD_REACTORS
330
47
102
}
330
47
100
AcDbScale
 70
     0
300
3/16" = 1'-0"
140
0.1875
141
12.0
290
     0
  0
SCALE
  5
60
102
{ACAD_REACTORS
330
47
102
}
330
47
100
AcDbScale
 70
     0
300
1/4" = 1'-0"
140
0.25
141
12.0
290
     0
  0
SCALE
  5
61
102
{ACAD_REACTORS
330
47
102
}
330
47
100
AcDbScale
 70
     0
300
3/8" = 1'-0"
140
0.375
141
12.0
290
     0
  0
SCALE
  5
62
102
{ACAD_REACTORS
330
47
102
}
330
47
100
AcDbScale
 70
     0
300
1/2" = 1'-0"
140
0.5
141
12.0
290
     0
  0
SCALE
  5
63
102
{ACAD_REACTORS
330
47
102
}
330
47
100
AcDbScale
 70
     0
300
3/4" = 1'-0"
140
0.75
141
12.0
290
     0
  0
SCALE
  5
64
102
{ACAD_REACTORS
330
47
102
}
330
47
100
AcDbScale
 70
     0
300
1" = 1'-0"
140
1.0
141
12.0
290
     0
  0
SCALE
  5
65
102
{ACAD_REACTORS
330
47
102
}
330
47
100
AcDbScale
 70
     0
300
1-1/2" = 1'-0"
140
1.5
141
12.0
290
     0
  0
SCALE
  5
66
102
{ACAD_REACTORS
330
47
102
}
330
47
100
AcDbScale
 70
     0
300
3" = 1'-0"
140
3.0
141
12.0
290
     0
  0
SCALE
  5
67
102
{ACAD_REACTORS
330
47
102
}
330
47
100
AcDbScale
 70
     0
300
6" = 1'-0"
140
6.0
141
12.0
290
     0
  0
SCALE
  5
68
102
{ACAD_REACTORS
330
47
102
}
330
47
100
AcDbScale
 70
     0
300
1'-0" = 1'-0"
140
12.0
141
12.0
290
     0
  0
ENDSEC
  0
EOF
