  0
SECTION
  2
HEADER
  9
$ACADVER
  1
AC1015
  9
$ACADMAINTVER
 70
     6
  9
$DWGCODEPAGE
  3
ANSI_1252
  9
$INSBASE
 10
0.0
 20
0.0
 30
0.0
  9
$EXTMIN
 10
-102.0
 20
-38.5
 30
0.0
  9
$EXTMAX
 10
0.0
 20
55.65
 30
0.0
  9
$LIMMIN
 10
0.0
 20
0.0
  9
$LIMMAX
 10
420.0
 20
297.0
  9
$ORTHOMODE
 70
     0
  9
$REGENMODE
 70
     1
  9
$FILLMODE
 70
     1
  9
$QTEXTMODE
 70
     0
  9
$MIRRTEXT
 70
     1
  9
$LTSCALE
 40
1.0
  9
$ATTMODE
 70
     1
  9
$TEXTSIZE
 40
6.35
  9
$TRACEWID
 40
1.0
  9
$TEXTSTYLE
  7
Standard
  9
$CLAYER
  8
0
  9
$CELTYPE
  6
ByLayer
  9
$CECOLOR
 62
   256
  9
$CELTSCALE
 40
1.0
  9
$DISPSILH
 70
     0
  9
$DIMSCALE
 40
1.0
  9
$DIMASZ
 40
5.9944
  9
$DIMEXO
 40
0.9906
  9
$DIMDLI
 40
3.75
  9
$DIMRND
 40
0.0
  9
$DIMDLE
 40
0.0
  9
$DIMEXE
 40
0.9906
  9
$DIMTP
 40
0.0
  9
$DIMTM
 40
0.0
  9
$DIMTXT
 40
6.35
  9
$DIMCEN
 40
2.5
  9
$DIMTSZ
 40
0.0
  9
$DIMTOL
 70
     0
  9
$DIMLIM
 70
     0
  9
$DIMTIH
 70
     1
  9
$DIMTOH
 70
     1
  9
$DIMSE1
 70
     0
  9
$DIMSE2
 70
     0
  9
$DIMTAD
 70
     1
  9
$DIMZIN
 70
     0
  9
$DIMBLK
  1

  9
$DIMASO
 70
     1
  9
$DIMSHO
 70
     1
  9
$DIMPOST
  1

  9
$DIMAPOST
  1

  9
$DIMALT
 70
     0
  9
$DIMALTD
 70
     3
  9
$DIMALTF
 40
0.0393700787
  9
$DIMLFAC
 40
1.0
  9
$DIMTOFL
 70
     1
  9
$DIMTVP
 40
0.0
  9
$DIMTIX
 70
     0
  9
$DIMSOXD
 70
     0
  9
$DIMSAH
 70
     0
  9
$DIMBLK1
  1

  9
$DIMBLK2
  1

  9
$DIMSTYLE
  2
ISO-25
  9
$DIMCLRD
 70
     0
  9
$DIMCLRE
 70
     0
  9
$DIMCLRT
 70
     0
  9
$DIMTFAC
 40
1.0
  9
$DIMGAP
 40
1.524
  9
$DIMJUST
 70
     0
  9
$DIMSD1
 70
     0
  9
$DIMSD2
 70
     0
  9
$DIMTOLJ
 70
     0
  9
$DIMTZIN
 70
     0
  9
$DIMALTZ
 70
     0
  9
$DIMALTTZ
 70
     0
  9
$DIMUPT
 70
     0
  9
$DIMDEC
 70
     2
  9
$DIMTDEC
 70
     2
  9
$DIMALTU
 70
     2
  9
$DIMALTTD
 70
     3
  9
$DIMTXSTY
  7
Standard
  9
$DIMAUNIT
 70
     0
  9
$DIMADEC
 70
     2
  9
$DIMALTRND
 40
0.0
  9
$DIMAZIN
 70
     0
  9
$DIMDSEP
 70
    44
  9
$DIMATFIT
 70
     3
  9
$DIMFRAC
 70
     0
  9
$DIMLDRBLK
  1

  9
$DIMLUNIT
 70
     2
  9
$DIMLWD
 70
    -2
  9
$DIMLWE
 70
    -2
  9
$DIMTMOVE
 70
     0
  9
$LUNITS
 70
     2
  9
$LUPREC
 70
     2
  9
$SKETCHINC
 40
1.0
  9
$FILLETRAD
 40
10.0
  9
$AUNITS
 70
     0
  9
$AUPREC
 70
     2
  9
$MENU
  1
.
  9
$ELEVATION
 40
0.0
  9
$PELEVATION
 40
0.0
  9
$THICKNESS
 40
0.0
  9
$LIMCHECK
 70
     0
  9
$CHAMFERA
 40
0.0
  9
$CHAMFERB
 40
0.0
  9
$CHAMFERC
 40
0.0
  9
$CHAMFERD
 40
0.0
  9
$SKPOLY
 70
     0
  9
$TDCREATE
 40
2458381.627904803
  9
$TDUCREATE
 40
2458381.586238137
  9
$TDUPDATE
 40
2458381.627936944
  9
$TDUUPDATE
 40
2458381.586270278
  9
$TDINDWG
 40
0.0000000116
  9
$TDUSRTIMER
 40
0.0000000116
  9
$USRTIMER
 70
     1
  9
$ANGBASE
 50
0.0
  9
$ANGDIR
 70
     0
  9
$PDMODE
 70
     0
  9
$PDSIZE
 40
-1.0
  9
$PLINEWID
 40
0.0
  9
$SPLFRAME
 70
     0
  9
$SPLINETYPE
 70
     6
  9
$SPLINESEGS
 70
     8
  9
$HANDSEED
  5
118
  9
$SURFTAB1
 70
     6
  9
$SURFTAB2
 70
     6
  9
$SURFTYPE
 70
     6
  9
$SURFU
 70
     6
  9
$SURFV
 70
     6
  9
$UCSBASE
  2

  9
$UCSNAME
  2

  9
$UCSORG
 10
0.0
 20
0.0
 30
0.0
  9
$UCSXDIR
 10
1.0
 20
0.0
 30
0.0
  9
$UCSYDIR
 10
0.0
 20
1.0
 30
0.0
  9
$UCSORTHOREF
  2

  9
$UCSORTHOVIEW
 70
     0
  9
$UCSORGTOP
 10
0.0
 20
0.0
 30
0.0
  9
$UCSORGBOTTOM
 10
0.0
 20
0.0
 30
0.0
  9
$UCSORGLEFT
 10
0.0
 20
0.0
 30
0.0
  9
$UCSORGRIGHT
 10
0.0
 20
0.0
 30
0.0
  9
$UCSORGFRONT
 10
0.0
 20
0.0
 30
0.0
  9
$UCSORGBACK
 10
0.0
 20
0.0
 30
0.0
  9
$PUCSBASE
  2

  9
$PUCSNAME
  2

  9
$PUCSORG
 10
0.0
 20
0.0
 30
0.0
  9
$PUCSXDIR
 10
1.0
 20
0.0
 30
0.0
  9
$PUCSYDIR
 10
0.0
 20
1.0
 30
0.0
  9
$PUCSORTHOREF
  2

  9
$PUCSORTHOVIEW
 70
     0
  9
$PUCSORGTOP
 10
0.0
 20
0.0
 30
0.0
  9
$PUCSORGBOTTOM
 10
0.0
 20
0.0
 30
0.0
  9
$PUCSORGLEFT
 10
0.0
 20
0.0
 30
0.0
  9
$PUCSORGRIGHT
 10
0.0
 20
0.0
 30
0.0
  9
$PUCSORGFRONT
 10
0.0
 20
0.0
 30
0.0
  9
$PUCSORGBACK
 10
0.0
 20
0.0
 30
0.0
  9
$USERI1
 70
     0
  9
$USERI2
 70
     0
  9
$USERI3
 70
     0
  9
$USERI4
 70
     0
  9
$USERI5
 70
     0
  9
$USERR1
 40
0.0
  9
$USERR2
 40
0.0
  9
$USERR3
 40
0.0
  9
$USERR4
 40
0.0
  9
$USERR5
 40
0.0
  9
$WORLDVIEW
 70
     1
  9
$SHADEDGE
 70
     3
  9
$SHADEDIF
 70
    70
  9
$TILEMODE
 70
     1
  9
$MAXACTVP
 70
    64
  9
$PINSBASE
 10
0.0
 20
0.0
 30
0.0
  9
$PLIMCHECK
 70
     0
  9
$PEXTMIN
 10
-38.5
 20
-38.5
 30
0.0
  9
$PEXTMAX
 10
38.5
 20
55.65
 30
0.0
  9
$PLIMMIN
 10
-48.1564102564
 20
-42.1211538462
  9
$PLIMMAX
 10
95.2412820513
 20
59.2711538462
  9
$UNITMODE
 70
     0
  9
$VISRETAIN
 70
     1
  9
$PLINEGEN
 70
     0
  9
$PSLTSCALE
 70
     1
  9
$TREEDEPTH
 70
  3020
  9
$CMLSTYLE
  2
Standard
  9
$CMLJUST
 70
     0
  9
$CMLSCALE
 40
20.0
  9
$PROXYGRAPHICS
 70
     1
  9
$MEASUREMENT
 70
     1
  9
$CELWEIGHT
370
    -1
  9
$ENDCAPS
280
     0
  9
$JOINSTYLE
280
     0
  9
$LWDISPLAY
290
     1
  9
$INSUNITS
 70
     4
  9
$HYPERLINKBASE
  1

  9
$STYLESHEET
  1

  9
$XEDIT
290
     1
  9
$CEPSNTYPE
380
     0
  9
$PSTYLEMODE
290
     1
  9
$FINGERPRINTGUID
  2
{90FDAC3C-FF4D-481B-8244-6C92DAA656B2}
  9
$VERSIONGUID
  2
{FAEB1C32-E019-11D5-929B-00C0DF256EC4}
  9
$EXTNAMES
290
     1
  9
$PSVPSCALE
 40
0.0
  9
$OLESTARTUP
290
     0
  0
ENDSEC
  0
SECTION
  2
CLASSES
  0
CLASS
  1
ACDBDICTIONARYWDFLT
  2
AcDbDictionaryWithDefault
  3
ObjectDBX Classes
 90
        0
280
     0
281
     0
  0
CLASS
  1
VISUALSTYLE
  2
AcDbVisualStyle
  3
ObjectDBX Classes
 90
     4095
280
     0
281
     0
  0
CLASS
  1
MATERIAL
  2
AcDbMaterial
  3
ObjectDBX Classes
 90
     1153
280
     0
281
     0
  0
CLASS
  1
SCALE
  2
AcDbScale
  3
ObjectDBX Classes
 90
     1153
280
     0
281
     0
  0
CLASS
  1
TABLESTYLE
  2
AcDbTableStyle
  3
ObjectDBX Classes
 90
     4095
280
     0
281
     0
  0
CLASS
  1
MLEADERSTYLE
  2
AcDbMLeaderStyle
  3
ACDB_MLEADERSTYLE_CLASS
 90
     4095
280
     0
281
     0
  0
CLASS
  1
SUN
  2
AcDbSun
  3
SCENEOE
 90
     1153
280
     0
281
     0
  0
CLASS
  1
ACDBPLACEHOLDER
  2
AcDbPlaceHolder
  3
ObjectDBX Classes
 90
        0
280
     0
281
     0
  0
CLASS
  1
LAYOUT
  2
AcDbLayout
  3
ObjectDBX Classes
 90
        0
280
     0
281
     0
  0
ENDSEC
  0
SECTION
  2
TABLES
  0
TABLE
  2
VPORT
  5
8
330
0
100
AcDbSymbolTable
 70
     1
  0
VPORT
  5
29
330
8
100
AcDbSymbolTableRecord
100
AcDbViewportTableRecord
  2
*Active
 70
     0
 10
0.0
 20
0.0
 11
1.0
 21
1.0
 12
-51.0
 22
8.575
 13
0.0
 23
0.0
 14
10.0
 24
10.0
 15
10.0
 25
10.0
 16
0.0
 26
0.0
 36
1.0
 17
0.0
 27
0.0
 37
0.0
 40
96.033
 41
1.083377589
 42
50.0
 43
0.0
 44
0.0
 50
0.0
 51
0.0
 71
     0
 72
   100
 73
     1
 74
     3
 75
     0
 76
     0
 77
     0
 78
     0
281
     0
 65
     1
110
0.0
120
0.0
130
0.0
111
1.0
121
0.0
131
0.0
112
0.0
122
1.0
132
0.0
 79
     0
146
0.0
  0
ENDTAB
  0
TABLE
  2
LTYPE
  5
5
330
0
100
AcDbSymbolTable
 70
     6
  0
LTYPE
  5
14
330
5
100
AcDbSymbolTableRecord
100
AcDbLinetypeTableRecord
  2
ByBlock
 70
     0
  3

 72
    65
 73
     0
 40
0.0
  0
LTYPE
  5
15
330
5
100
AcDbSymbolTableRecord
100
AcDbLinetypeTableRecord
  2
ByLayer
 70
     0
  3

 72
    65
 73
     0
 40
0.0
  0
LTYPE
  5
16
330
5
100
AcDbSymbolTableRecord
100
AcDbLinetypeTableRecord
  2
Continuous
 70
     0
  3
Solid line
 72
    65
 73
     0
 40
0.0
  0
LTYPE
  5
6E
330
5
100
AcDbSymbolTableRecord
100
AcDbLinetypeTableRecord
  2
HIDDEN
 70
     0
  3
Hidden __ __ __ __ __ __ __ __ __ __ __ __ __ __
 72
    65
 73
     2
 40
1.905
 49
1.27
 74
     0
 49
-0.635
 74
     0
  0
LTYPE
  5
6F
330
5
100
AcDbSymbolTableRecord
100
AcDbLinetypeTableRecord
  2
PHANTOM
 70
     0
  3
Phantom ______  __  __  ______  __  __  ______
 72
    65
 73
     6
 40
12.7
 49
6.35
 74
     0
 49
-1.27
 74
     0
 49
1.27
 74
     0
 49
-1.27
 74
     0
 49
1.27
 74
     0
 49
-1.27
 74
     0
  0
LTYPE
  5
70
330
5
100
AcDbSymbolTableRecord
100
AcDbLinetypeTableRecord
  2
CENTER
 70
     0
  3
Center ____ _ ____ _ ____ _ ____ _ ____ _ ____
 72
    65
 73
     4
 40
10.16
 49
6.35
 74
     0
 49
-1.27
 74
     0
 49
1.27
 74
     0
 49
-1.27
 74
     0
  0
LTYPE
  5
71
330
5
100
AcDbSymbolTableRecord
100
AcDbLinetypeTableRecord
  2
CENTERX2
 70
     0
  3
Center (2x) ________  __  ________  __  _____
 72
    65
 73
     4
 40
20.32
 49
12.7
 74
     0
 49
-2.54
 74
     0
 49
2.54
 74
     0
 49
-2.54
 74
     0
  0
LTYPE
  5
72
330
5
100
AcDbSymbolTableRecord
100
AcDbLinetypeTableRecord
  2
DOT2
 70
     0
  3
Dot (.5x) ........................................
 72
    65
 73
     2
 40
0.635
 49
0.0
 74
     0
 49
-0.635
 74
     0
  0
ENDTAB
  0
TABLE
  2
LAYER
  5
2
330
0
100
AcDbSymbolTable
 70
     1
  0
LAYER
  5
10
330
2
100
AcDbSymbolTableRecord
100
AcDbLayerTableRecord
  2
0
 70
     0
 62
     7
  6
Continuous
370
    -3
390
F
  0
ENDTAB
  0
TABLE
  2
STYLE
  5
3
330
0
100
AcDbSymbolTable
 70
     1
  0
STYLE
  5
11
330
3
100
AcDbSymbolTableRecord
100
AcDbTextStyleTableRecord
  2
Standard
 70
     0
 40
0.0
 41
1.0
 50
0.0
 71
     0
 42
6.35
  3
txt
  4

  0
ENDTAB
  0
TABLE
  2
VIEW
  5
6
330
0
100
AcDbSymbolTable
 70
     0
  0
ENDTAB
  0
TABLE
  2
UCS
  5
7
330
0
100
AcDbSymbolTable
 70
     0
  0
ENDTAB
  0
TABLE
  2
APPID
  5
9
330
0
100
AcDbSymbolTable
 70
     1
  0
APPID
  5
12
330
9
100
AcDbSymbolTableRecord
100
AcDbRegAppTableRecord
  2
ACAD
 70
     0
  0
ENDTAB
  0
TABLE
  2
DIMSTYLE
  5
A
330
0
100
AcDbSymbolTable
 70
     1
100
AcDbDimStyleTable
  0
DIMSTYLE
105
27
330
A
100
AcDbSymbolTableRecord
100
AcDbDimStyleTableRecord
  2
ISO-25
 70
     0
 41
2.5
 42
0.625
 43
3.75
 44
1.25
 73
     0
 74
     0
 77
     1
 78
     8
140
2.5
141
2.5
143
0.0393700787
147
0.625
171
     3
172
     1
178
     0
271
     2
272
     2
274
     3
278
    44
283
     0
284
     8
340
11
  0
ENDTAB
  0
TABLE
  2
BLOCK_RECORD
  5
1
330
0
100
AcDbSymbolTable
 70
     1
  0
BLOCK_RECORD
  5
1F
330
1
100
AcDbSymbolTableRecord
100
AcDbBlockTableRecord
  2
*Model_Space
340
22
  0
BLOCK_RECORD
  5
1B
330
1
100
AcDbSymbolTableRecord
100
AcDbBlockTableRecord
  2
*Paper_Space
340
1E
  0
BLOCK_RECORD
  5
23
330
1
100
AcDbSymbolTableRecord
100
AcDbBlockTableRecord
  2
*Paper_Space0
340
26
  0
ENDTAB
  0
ENDSEC
  0
SECTION
  2
BLOCKS
  0
BLOCK
  5
20
330
1F
100
AcDbEntity
  8
0
100
AcDbBlockBegin
  2
*Model_Space
 70
     0
 10
0.0
 20
0.0
 30
0.0
  3
*Model_Space
  1

  0
ENDBLK
  5
21
330
1F
100
AcDbEntity
  8
0
100
AcDbBlockEnd
  0
BLOCK
  5
1C
330
1B
100
AcDbEntity
 67
     1
  8
0
100
AcDbBlockBegin
  2
*Paper_Space
 70
     0
 10
0.0
 20
0.0
 30
0.0
  3
*Paper_Space
  1

  0
ENDBLK
  5
1D
330
1B
100
AcDbEntity
 67
     1
  8
0
100
AcDbBlockEnd
  0
BLOCK
  5
24
330
23
100
AcDbEntity
  8
0
100
AcDbBlockBegin
  2
*Paper_Space0
 70
     0
 10
0.0
 20
0.0
 30
0.0
  3
*Paper_Space0
  1

  0
CIRCLE
  5
DC
330
23
100
AcDbEntity
  8
0
  6
Continuous
 62
     7
370
    25
100
AcDbCircle
 10
-8.5
 20
0.0
 30
0.0
 40
4.999999999999896
  0
CIRCLE
  5
DD
330
23
100
AcDbEntity
  8
0
  6
Continuous
 62
     7
370
    25
100
AcDbCircle
 10
-8.5
 20
0.0
 30
0.0
 40
7.499999999999393
  0
CIRCLE
  5
DE
330
23
100
AcDbEntity
  8
0
  6
Continuous
 62
     7
370
    25
100
AcDbCircle
 10
-93.5
 20
0.0
 30
0.0
 40
4.999999999999894
  0
CIRCLE
  5
DF
330
23
100
AcDbEntity
  8
0
  6
Continuous
 62
     7
370
    25
100
AcDbCircle
 10
-93.5
 20
0.0
 30
0.0
 40
7.49999999999936
  0
CIRCLE
  5
E0
330
23
100
AcDbEntity
  8
0
  6
Continuous
 62
     7
370
    25
100
AcDbCircle
 10
-8.5
 20
0.0
 30
0.0
 40
2.352499999999759
  0
CIRCLE
  5
E1
330
23
100
AcDbEntity
  8
0
  6
Continuous
 62
     7
370
    25
100
AcDbCircle
 10
-8.5
 20
0.0
 30
0.0
 40
1.852499999999592
  0
CIRCLE
  5
E2
330
23
100
AcDbEntity
  8
0
  6
Continuous
 62
     7
370
    25
100
AcDbCircle
 10
-93.5
 20
0.0
 30
0.0
 40
1.85249999999959
  0
CIRCLE
  5
E3
330
23
100
AcDbEntity
  8
0
  6
Continuous
 62
     7
370
    25
100
AcDbCircle
 10
-93.5
 20
0.0
 30
0.0
 40
2.352499999999755
  0
CIRCLE
  5
E4
330
23
100
AcDbEntity
  8
0
  6
Continuous
 62
     7
370
    25
100
AcDbCircle
 10
-8.5
 20
0.0
 30
0.0
 40
2.552499999999737
  0
CIRCLE
  5
E5
330
23
100
AcDbEntity
  8
0
  6
Continuous
 62
     7
370
    25
100
AcDbCircle
 10
-93.5
 20
0.0
 30
0.0
 40
2.552499999999736
  0
CIRCLE
  5
E6
330
23
100
AcDbEntity
  8
0
  6
Continuous
 62
     7
370
    25
100
AcDbCircle
 10
-8.5
 20
0.0
 30
0.0
 40
2.799999999999693
  0
CIRCLE
  5
E7
330
23
100
AcDbEntity
  8
0
  6
Continuous
 62
     7
370
    25
100
AcDbCircle
 10
-8.5
 20
0.0
 30
0.0
 40
2.999999999999671
  0
CIRCLE
  5
E8
330
23
100
AcDbEntity
  8
0
  6
Continuous
 62
     7
370
    25
100
AcDbCircle
 10
-93.5
 20
0.0
 30
0.0
 40
2.999999999999698
  0
CIRCLE
  5
E9
330
23
100
AcDbEntity
  8
0
  6
Continuous
 62
     7
370
    25
100
AcDbCircle
 10
-93.5
 20
0.0
 30
0.0
 40
2.799999999999689
  0
SPLINE
  5
EA
330
23
100
AcDbEntity
  8
0
  6
Continuous
 62
     7
370
    25
100
AcDbSpline
210
0.0
220
0.0
230
1.0
 70
     8
 71
     3
 72
    86
 73
    82
 74
     0
 42
0.000000001
 43
0.00000001
 40
0.0
 40
0.0
 40
0.0
 40
0.0
 40
0.0312499999999994
 40
0.0312499999999994
 40
0.0624999999999987
 40
0.0624999999999987
 40
0.0937499999999981
 40
0.0937499999999981
 40
0.1249999999999974
 40
0.1249999999999974
 40
0.1562499999999968
 40
0.1562499999999968
 40
0.1718749999999964
 40
0.1718749999999964
 40
0.1874999999999961
 40
0.1874999999999961
 40
0.2187499999999954
 40
0.2187499999999954
 40
0.2499999999999948
 40
0.2499999999999948
 40
0.2812499999999941
 40
0.2812499999999941
 40
0.3124999999999935
 40
0.3124999999999935
 40
0.3281249999999936
 40
0.3281249999999936
 40
0.3437499999999936
 40
0.3437499999999936
 40
0.3749999999999937
 40
0.3749999999999937
 40
0.3906249999999938
 40
0.3906249999999938
 40
0.4062499999999938
 40
0.4062499999999938
 40
0.4374999999999945
 40
0.4374999999999945
 40
0.4531249999999948
 40
0.4531249999999948
 40
0.4687499999999952
 40
0.4687499999999952
 40
0.4999999999999959
 40
0.4999999999999959
 40
0.5312499999999966
 40
0.5312499999999966
 40
0.5624999999999972
 40
0.5624999999999972
 40
0.5781249999999976
 40
0.5781249999999976
 40
0.593749999999998
 40
0.593749999999998
 40
0.6093749999999983
 40
0.6093749999999983
 40
0.6249999999999987
 40
0.6249999999999987
 40
0.6562499999999988
 40
0.6562499999999988
 40
0.6874999999999989
 40
0.6874999999999989
 40
0.718749999999999
 40
0.718749999999999
 40
0.7499999999999991
 40
0.7499999999999991
 40
0.7812499999999993
 40
0.7812499999999993
 40
0.8124999999999994
 40
0.8124999999999994
 40
0.8437499999999996
 40
0.8437499999999996
 40
0.8749999999999997
 40
0.8749999999999997
 40
0.9062499999999998
 40
0.9062499999999998
 40
0.921875
 40
0.921875
 40
0.9375000000000001
 40
0.9375000000000001
 40
0.9687500000000002
 40
0.9687500000000002
 40
0.9843750000000001
 40
0.9843750000000001
 40
1.0
 40
1.0
 40
1.0
 40
1.0
 10
-101.543577871374
 20
2.412805258491648
 30
0.0
 10
-101.3942150681258
 20
2.889965050819601
 30
0.0
 10
-101.2024167260557
 20
3.349291660850845
 30
0.0
 10
-100.7348626810453
 20
4.23283904198354
 30
0.0
 10
-100.457136395401
 20
4.65826821314058
 30
0.0
 10
-99.83529646938457
 20
5.44437829319991
 30
0.0
 10
-99.48763449654612
 20
5.810588750861582
 30
0.0
 10
-98.73043872014267
 20
6.476602872834458
 30
0.0
 10
-98.32257748868071
 20
6.774698844108176
 30
0.0
 10
-97.46973864420056
 20
7.290694185352192
 30
0.0
 10
-97.02236723892526
 20
7.510832382104641
 30
0.0
 10
-96.3193694423062
 20
7.783429410488082
 30
0.0
 10
-96.07934529547394
 20
7.86460125091823
 30
0.0
 10
-95.59804870991037
 20
8.004425203518567
 30
0.0
 10
-95.35562158729682
 20
8.063572783524227
 30
0.0
 10
-94.6231451227885
 20
8.20944319574265
 30
0.0
 10
-94.12794349204553
 20
8.264837432245635
 30
0.0
 10
-93.12348355474099
 20
8.289851421820677
 30
0.0
 10
-92.62476864284393
 20
8.258882236539993
 30
0.0
 10
-91.6454796462271
 20
8.11430662272944
 30
0.0
 10
-91.16148405762142
 20
8.000253885596365
 30
0.0
 10
-90.21434275632976
 20
7.688387655757523
 30
0.0
 10
-89.76119975591922
 20
7.49416844364813
 30
0.0
 10
-89.1107131296008
 20
7.147071979427535
 30
0.0
 10
-88.89878500233324
 20
7.022020917004142
 30
0.0
 10
-88.48484582684797
 20
6.752793973013366
 30
0.0
 10
-88.28191593520548
 20
6.607853733587517
 30
0.0
 10
-87.69712910245563
 20
6.149955654748219
 30
0.0
 10
-87.33842644394063
 20
5.814309908561381
 30
0.0
 10
-86.84627547287734
 20
5.265242971988143
 30
0.0
 10
-86.6899225153787
 20
5.074575321719093
 30
0.0
 10
-86.39306216100181
 20
4.677362352657672
 30
0.0
 10
-86.25207081787335
 20
4.469873181124961
 30
0.0
 10
-85.86158000722874
 20
3.834979127897407
 30
0.0
 10
-85.64176790915639
 20
3.392475939773817
 30
0.0
 10
-85.37282499137285
 20
2.699505085530338
 30
0.0
 10
-85.2933675889006
 20
2.463617441771069
 30
0.0
 10
-85.15562187066097
 20
1.98162250692249
 30
0.0
 10
-85.09747121417342
 20
1.735324039797273
 30
0.0
 10
-84.95914686371617
 20
0.997756972330161
 30
0.0
 10
-84.91303344116969
 20
0.5022826602775636
 30
0.0
 10
-84.91265622572016
 20
-0.496182087566608
 30
0.0
 10
-84.95996191629327
 20
-1.003710541410913
 30
0.0
 10
-85.1445472356743
 20
-1.984717538451004
 30
0.0
 10
-85.2810198955368
 20
-2.46240896226995
 30
0.0
 10
-85.55145086643545
 20
-3.160031615296977
 30
0.0
 10
-85.65316198739922
 20
-3.390393286954923
 30
0.0
 10
-85.87577587865755
 20
-3.837795739809893
 30
0.0
 10
-85.99670301809648
 20
-4.055225265229926
 30
0.0
 10
-86.25736472705603
 20
-4.4779069871912
 30
0.0
 10
-86.39710010373838
 20
-4.683158529853475
 30
0.0
 10
-86.69543269240607
 20
-5.081542174889682
 30
0.0
 10
-86.8541517209644
 20
-5.274620022056797
 30
0.0
 10
-87.35007105972977
 20
-5.826071000881531
 30
0.0
 10
-87.70941345248713
 20
-6.16049277836442
 30
0.0
 10
-88.4844138158962
 20
-6.765470922236552
 30
0.0
 10
-88.9044279639038
 20
-7.037928700160684
 30
0.0
 10
-89.77614496090838
 20
-7.501186067096545
 30
0.0
 10
-90.2286272813163
 20
-7.693713986311892
 30
0.0
 10
-91.16710072667975
 20
-8.001467090035284
 30
0.0
 10
-91.65768122231108
 20
-8.11691163023428
 30
0.0
 10
-92.64054615837483
 20
-8.260384662486096
 30
0.0
 10
-93.13511669420615
 20
-8.289968301180748
 30
0.0
 10
-94.13065459198438
 20
-8.264357438732878
 30
0.0
 10
-94.63552719427645
 20
-8.207789398019752
 30
0.0
 10
-95.61500232611739
 20
-8.011082653153665
 30
0.0
 10
-96.09332630902836
 20
-7.871500029932263
 30
0.0
 10
-97.02674389739121
 20
-7.508710247975644
 30
0.0
 10
-97.48295240943472
 20
-7.283758791019621
 30
0.0
 10
-98.3363309318982
 20
-6.765284203161272
 30
0.0
 10
-98.73822749156179
 20
-6.470343516212195
 30
0.0
 10
-99.30290977462596
 20
-5.972766442580655
 30
0.0
 10
-99.48531806608075
 20
-5.796921273593276
 30
0.0
 10
-99.83029969379264
 20
-5.432990422469866
 30
0.0
 10
-99.99366805956409
 20
-5.244312061450437
 30
0.0
 10
-100.4568215633968
 20
-4.658379563888062
 30
0.0
 10
-100.7298864963713
 20
-4.241398672600113
 30
0.0
 10
-101.0835283047451
 20
-3.574371781439332
 30
0.0
 10
-101.1914015094638
 20
-3.345965375168743
 30
0.0
 10
-101.3839712684082
 20
-2.884450690173372
 30
0.0
 10
-101.4692335508054
 20
-2.650308303370255
 30
0.0
 10
-101.5435778713692
 20
-2.41280525850695
 30
0.0
  0
SPLINE
  5
ED
330
23
100
AcDbEntity
  8
0
  6
Continuous
 62
     7
370
    25
100
AcDbSpline
210
0.0
220
0.0
230
1.0
 70
     8
 71
     3
 72
    92
 73
    88
 74
     0
 42
0.000000001
 43
0.00000001
 40
0.0
 40
0.0
 40
0.0
 40
0.0
 40
0.0156250000000001
 40
0.0156250000000001
 40
0.0312500000000001
 40
0.0312500000000001
 40
0.0625000000000002
 40
0.0625000000000002
 40
0.0781250000000003
 40
0.0781250000000003
 40
0.0937500000000004
 40
0.0937500000000004
 40
0.1250000000000005
 40
0.1250000000000005
 40
0.1406250000000006
 40
0.1406250000000006
 40
0.1562500000000006
 40
0.1562500000000006
 40
0.1875000000000008
 40
0.1875000000000008
 40
0.2187500000000009
 40
0.2187500000000009
 40
0.2500000000000011
 40
0.2500000000000011
 40
0.2812500000000013
 40
0.2812500000000013
 40
0.2968750000000014
 40
0.2968750000000014
 40
0.3125000000000015
 40
0.3125000000000015
 40
0.3437500000000015
 40
0.3437500000000015
 40
0.3593750000000015
 40
0.3593750000000015
 40
0.3750000000000016
 40
0.3750000000000016
 40
0.4062500000000016
 40
0.4062500000000016
 40
0.4218750000000015
 40
0.4218750000000015
 40
0.4375000000000014
 40
0.4375000000000014
 40
0.4687500000000013
 40
0.4687500000000013
 40
0.5000000000000012
 40
0.5000000000000012
 40
0.5312500000000011
 40
0.5312500000000011
 40
0.5468750000000011
 40
0.5468750000000011
 40
0.562500000000001
 40
0.562500000000001
 40
0.5937500000000009
 40
0.5937500000000009
 40
0.6250000000000008
 40
0.6250000000000008
 40
0.6562500000000007
 40
0.6562500000000007
 40
0.6875000000000006
 40
0.6875000000000006
 40
0.7031250000000004
 40
0.7031250000000004
 40
0.7187500000000002
 40
0.7187500000000002
 40
0.7500000000000001
 40
0.7500000000000001
 40
0.7656250000000002
 40
0.7656250000000002
 40
0.7812500000000003
 40
0.7812500000000003
 40
0.8125000000000003
 40
0.8125000000000003
 40
0.8281250000000003
 40
0.8281250000000003
 40
0.8437500000000004
 40
0.8437500000000004
 40
0.8750000000000004
 40
0.8750000000000004
 40
0.8906250000000003
 40
0.8906250000000003
 40
0.9062500000000003
 40
0.9062500000000003
 40
0.9375000000000002
 40
0.9375000000000002
 40
0.9687500000000001
 40
0.9687500000000001
 40
1.0
 40
1.0
 40
1.0
 40
1.0
 10
-0.4564221286323597
 20
-2.412805258513449
 30
0.0
 10
-0.5308017500384941
 20
-2.650421076718593
 30
0.0
 10
-0.616168661838834
 20
-2.884862162681474
 30
0.0
 10
-0.8091947547806191
 20
-3.347317983137022
 30
0.0
 10
-0.9174293857712318
 20
-3.576293566309442
 30
0.0
 10
-1.270687346585003
 20
-4.242248966111414
 30
0.0
 10
-1.544525434309531
 20
-4.660733778368647
 30
0.0
 10
-2.011914214690686
 20
-5.251042518505048
 30
0.0
 10
-2.17795373584094
 20
-5.442229631044609
 30
0.0
 10
-2.5236941460322
 20
-5.805868785330194
 30
0.0
 10
-2.70375074451297
 20
-5.978918900299367
 30
0.0
 10
-3.264905246307695
 20
-6.472524400293389
 30
0.0
 10
-3.666821611987524
 20
-6.76773731569033
 30
0.0
 10
-4.312217843546143
 20
-7.159038164364093
 30
0.0
 10
-4.534312209423192
 20
-7.280569006239212
 30
0.0
 10
-4.983952397425467
 20
-7.501652669311047
 30
0.0
 10
-5.212561007662146
 20
-7.601881734838231
 30
0.0
 10
-5.909507392463737
 20
-7.87227369450966
 30
0.0
 10
-6.388877888990987
 20
-8.01237933400541
 30
0.0
 10
-7.377914243621123
 20
-8.209962259712313
 30
0.0
 10
-7.875201468674785
 20
-8.2647760939343
 30
0.0
 10
-8.868480645234564
 20
-8.289790277961611
 30
0.0
 10
-9.36774742732447
 20
-8.259866020831948
 30
0.0
 10
-10.35788888054762
 20
-8.113929906479067
 30
0.0
 10
-10.83940932147939
 20
-7.99970285848978
 30
0.0
 10
-11.54235566925806
 20
-7.768626600739385
 30
0.0
 10
-11.77343034402517
 20
-7.681584202074336
 30
0.0
 10
-12.2290453530611
 20
-7.487092349317511
 30
0.0
 10
-12.45448805648028
 20
-7.379097262629251
 30
0.0
 10
-13.10991559875409
 20
-7.029307960382421
 30
0.0
 10
-13.52163966805558
 20
-6.761270830308532
 30
0.0
 10
-14.10229649080251
 20
-6.307206642730708
 30
0.0
 10
-14.28965688601845
 20
-6.147131584802497
 30
0.0
 10
-14.65168328509776
 20
-5.808920218283413
 30
0.0
 10
-14.82647270956523
 20
-5.630457255511467
 30
0.0
 10
-15.32136648863227
 20
-5.077978470858058
 30
0.0
 10
-15.61590346848491
 20
-4.683838392862807
 30
0.0
 10
-16.00444922396035
 20
-4.053141050772214
 30
0.0
 10
-16.12503434325381
 20
-3.836288980945381
 30
0.0
 10
-16.34761491797009
 20
-3.388709416942759
 30
0.0
 10
-16.4491209442497
 20
-3.158643703419022
 30
0.0
 10
-16.71895727764214
 20
-2.462292961836058
 30
0.0
 10
-16.85526568065686
 20
-1.985319110139968
 30
0.0
 10
-17.03978950932867
 20
-1.005423414787204
 30
0.0
 10
-17.08728049721998
 20
-0.497703540110923
 30
0.0
 10
-17.08703048303782
 20
0.5017429598390714
 30
0.0
 10
-17.04089039316219
 20
0.9975947311297286
 30
0.0
 10
-16.90248014129912
 20
1.735565204946308
 30
0.0
 10
-16.84430979248881
 20
1.981909185346933
 30
0.0
 10
-16.70646804330828
 20
2.464144954816024
 30
0.0
 10
-16.62691007381608
 20
2.700292596419244
 30
0.0
 10
-16.35740573690583
 20
3.394394633074727
 30
0.0
 10
-16.13687833531516
 20
3.838118754117991
 30
0.0
 10
-15.61353440745873
 20
4.687743848958513
 30
0.0
 10
-15.31460229558025
 20
5.086449743874925
 30
0.0
 10
-14.65428078429197
 20
5.821745415927046
 30
0.0
 10
-14.28903541525755
 20
6.162269066467878
 30
0.0
 10
-13.50507931275948
 20
6.773098544067407
 30
0.0
 10
-13.09185401869638
 20
7.040027247627388
 30
0.0
 10
-12.44113652524621
 20
7.385654272522346
 30
0.0
 10
-12.21905203957856
 20
7.491675497692537
 30
0.0
 10
-11.76431653106957
 20
7.685143839405841
 30
0.0
 10
-11.53066174760872
 20
7.772906338378193
 30
0.0
 10
-10.82055607556768
 20
8.004989022329088
 30
0.0
 10
-10.3391603713133
 20
8.117433072079896
 30
0.0
 10
-9.60518569737854
 20
8.22448382962665
 30
0.0
 10
-9.358537122451201
 20
8.2498364285507
 30
0.0
 10
-8.861154210310758
 20
8.279440379891984
 30
0.0
 10
-8.609174877093707
 20
8.28363341512513
 30
0.0
 10
-7.857159683263705
 20
8.263544432438684
 30
0.0
 10
-7.362413431053781
 20
8.207409496029575
 30
0.0
 10
-6.630046961017488
 20
8.060278720685915
 30
0.0
 10
-6.387560346297616
 20
8.000686728206416
 30
0.0
 10
-5.905958490414524
 20
7.859861927559641
 30
0.0
 10
-5.665908099884348
 20
7.778185956322786
 30
0.0
 10
-4.964003207214712
 20
7.504572395916144
 30
0.0
 10
-4.516846335410135
 20
7.283642597626106
 30
0.0
 10
-3.877000232136475
 20
6.894891627506496
 30
0.0
 10
-3.668896123368154
 20
6.755693214456551
 30
0.0
 10
-3.263373917514779
 20
6.457434694667715
 30
0.0
 10
-3.066720319555842
 20
6.298787980854441
 30
0.0
 10
-2.504160183082568
 20
5.8021134446574
 30
0.0
 10
-2.161712497503708
 20
5.440866995094313
 30
0.0
 10
-1.542387238153933
 20
4.657394621168653
 30
0.0
 10
-1.264452347106995
 20
4.231601614178595
 30
0.0
 10
-0.7978581915389915
 20
3.349754149831016
 30
0.0
 10
-0.6059904816172607
 20
2.890621707435268
 30
0.0
 10
-0.4564221286260453
 20
2.412805258493276
 30
0.0
  0
CIRCLE
  5
F2
330
23
100
AcDbEntity
  8
0
  6
Continuous
 62
     7
370
    25
100
AcDbCircle
 10
-93.5
 20
0.0
 30
0.0
 40
3.830245019246452
  0
CIRCLE
  5
F3
330
23
100
AcDbEntity
  8
0
  6
Continuous
 62
     7
370
    25
100
AcDbCircle
 10
-93.5
 20
0.0
 30
0.0
 40
4.007596123493395
  0
CIRCLE
  5
F4
330
23
100
AcDbEntity
  8
0
  6
Continuous
 62
     7
370
    25
100
AcDbCircle
 10
-8.5
 20
0.0
 30
0.0
 40
3.830245019246443
  0
CIRCLE
  5
F5
330
23
100
AcDbEntity
  8
0
  6
Continuous
 62
     7
370
    25
100
AcDbCircle
 10
-8.5
 20
0.0
 30
0.0
 40
4.007596123493398
  0
SPLINE
  5
F6
330
23
100
AcDbEntity
  8
0
  6
Continuous
 62
     7
370
    25
100
AcDbSpline
210
0.0
220
0.0
230
1.0
 70
     8
 71
     3
 72
    12
 73
     8
 74
     0
 42
0.000000001
 43
0.00000001
 40
0.0
 40
0.0
 40
0.0
 40
0.0
 40
0.5
 40
0.5
 40
0.75
 40
0.75
 40
1.0
 40
1.0
 40
1.0
 40
1.0
 10
-0.4564221286260384
 20
2.412805258493265
 30
0.0
 10
-0.372685284603276
 20
1.611239966287415
 30
0.0
 10
-0.3333523243379752
 20
0.8068802515459177
 30
0.0
 10
-0.3333238479072478
 20
-0.4025840157419681
 30
0.0
 10
-0.3433280532347746
 20
-0.805891027941577
 30
0.0
 10
-0.3839407699433584
 20
-1.610479720317295
 30
0.0
 10
-0.4145600540376854
 20
-2.012083372672731
 30
0.0
 10
-0.4564221286283907
 20
-2.412805258515306
 30
0.0
  0
SPLINE
  5
F7
330
23
100
AcDbEntity
  8
0
  6
Continuous
 62
     7
370
    25
100
AcDbSpline
210
0.0
220
0.0
230
1.0
 70
     8
 71
     3
 72
    12
 73
     8
 74
     0
 42
0.000000001
 43
0.00000001
 40
0.0
 40
0.0
 40
0.0
 40
0.0
 40
0.5
 40
0.5
 40
0.75
 40
0.75
 40
1.0
 40
1.0
 40
1.0
 40
1.0
 10
-101.5435778713688
 20
-2.412805258508408
 30
0.0
 10
-101.627314715392
 20
-1.61123996630415
 30
0.0
 10
-101.6666476756614
 20
-0.8068802515640011
 30
0.0
 10
-101.6666761520931
 20
0.4025840157218112
 30
0.0
 10
-101.656671946766
 20
0.8058910279207346
 30
0.0
 10
-101.6160592300582
 20
1.610479720295122
 30
0.0
 10
-101.5854399459644
 20
2.012083372649701
 30
0.0
 10
-101.5435778713741
 20
2.412805258491655
 30
0.0
  0
LINE
  5
FE
330
23
100
AcDbEntity
  8
0
  6
Continuous
 62
     7
370
    25
100
AcDbLine
 10
-82.0
 20
38.5
 30
0.0
 11
-101.5435778714
 21
36.7901584915
 31
0.0
  0
LINE
  5
FF
330
23
100
AcDbEntity
  8
0
  6
Continuous
 62
     7
370
    25
100
AcDbLine
 10
-101.5435778714
 20
-36.7901584915
 30
0.0
 11
-82.0
 21
-38.5
 31
0.0
  0
LINE
  5
100
330
23
100
AcDbEntity
  8
0
  6
Continuous
 62
     7
370
    25
100
AcDbLine
 10
-20.0
 20
-38.5
 30
0.0
 11
-0.4564221286
 21
-36.7901584915
 31
0.0
  0
LINE
  5
101
330
23
100
AcDbEntity
  8
0
  6
Continuous
 62
     7
370
    25
100
AcDbLine
 10
-0.4564221286
 20
36.7901584915
 30
0.0
 11
-20.0
 21
38.5
 31
0.0
  0
LINE
  5
102
330
23
100
AcDbEntity
  8
0
  6
Continuous
 62
     7
370
    25
100
AcDbLine
 10
-82.0
 20
-38.5
 30
0.0
 11
-20.0
 21
-38.5
 31
0.0
  0
LINE
  5
103
330
23
100
AcDbEntity
  8
0
  6
Continuous
 62
     7
370
    25
100
AcDbLine
 10
-20.0
 20
38.5
 30
0.0
 11
-82.0
 21
38.5
 31
0.0
  0
LINE
  5
104
330
23
100
AcDbEntity
  8
0
  6
Continuous
 62
     7
370
    25
100
AcDbLine
 10
-82.0
 20
-38.5
 30
0.0
 11
-82.0
 21
38.5
 31
0.0
  0
LINE
  5
105
330
23
100
AcDbEntity
  8
0
  6
Continuous
 62
     7
370
    25
100
AcDbLine
 10
-20.0
 20
-38.5
 30
0.0
 11
-20.0
 21
38.5
 31
0.0
  0
LINE
  5
106
330
23
100
AcDbEntity
  8
0
  6
Continuous
 62
     7
370
    25
100
AcDbLine
 10
-102.0
 20
-36.2920611425
 30
0.0
 11
-102.0
 21
36.2920611425
 31
0.0
  0
LINE
  5
107
330
23
100
AcDbEntity
  8
0
  6
Continuous
 62
     7
370
    25
100
AcDbLine
 10
0.0
 20
-36.2920611425
 30
0.0
 11
0.0
 21
36.2920611425
 31
0.0
  0
LINE
  5
108
330
23
100
AcDbEntity
  8
0
  6
Continuous
 62
     8
370
    25
100
AcDbLine
 10
-101.5435778714
 20
2.4128052585
 30
0.0
 11
-101.5435778714
 21
36.7901584915
 31
0.0
  0
LINE
  5
109
330
23
100
AcDbEntity
  8
0
  6
Continuous
 62
     8
370
    25
100
AcDbLine
 10
-101.5435778714
 20
-36.7901584915
 30
0.0
 11
-101.5435778714
 21
-2.4128052585
 31
0.0
  0
LINE
  5
10A
330
23
100
AcDbEntity
  8
0
  6
Continuous
 62
     8
370
    25
100
AcDbLine
 10
-0.4564221286
 20
2.4128052585
 30
0.0
 11
-0.4564221286
 21
36.7901584915
 31
0.0
  0
LINE
  5
10B
330
23
100
AcDbEntity
  8
0
  6
Continuous
 62
     8
370
    25
100
AcDbLine
 10
-0.4564221286
 20
-36.7901584915
 30
0.0
 11
-0.4564221286
 21
-2.4128052585
 31
0.0
  0
ARC
  5
10C
330
23
100
AcDbEntity
  8
0
  6
Continuous
 62
     7
370
    25
100
AcDbCircle
 10
-101.5
 20
-36.2920611425
 30
0.0
 40
0.4999999999999858
100
AcDbArc
 50
180.0
 51
265.0
  0
ARC
  5
10D
330
23
100
AcDbEntity
  8
0
  6
Continuous
 62
     7
370
    25
100
AcDbCircle
 10
-101.5
 20
36.2920611425
 30
0.0
 40
0.4999999999999748
100
AcDbArc
 50
95.0
 51
180.0
  0
ARC
  5
10E
330
23
100
AcDbEntity
  8
0
  6
Continuous
 62
     7
370
    25
100
AcDbCircle
 10
-0.5
 20
-36.2920611425
 30
0.0
 40
0.5000000000000757
100
AcDbArc
 50
275.0
 51
0.0
  0
ARC
  5
10F
330
23
100
AcDbEntity
  8
0
  6
Continuous
 62
     7
370
    25
100
AcDbCircle
 10
-0.5
 20
36.2920611425
 30
0.0
 40
0.5000000000000671
100
AcDbArc
 50
360.0
 51
85.0
  0
ARC
  5
110
330
23
100
AcDbEntity
  8
0
  6
Continuous
 62
     7
370
    25
100
AcDbCircle
 10
-99.6467099626
 20
-7.9192410299
 30
0.0
 40
5.82399714692513
100
AcDbArc
 50
100.1612757344
 51
109.0079068165
  0
ARC
  5
111
330
23
100
AcDbEntity
  8
0
  6
Continuous
 62
     7
370
    25
100
AcDbCircle
 10
-99.6467099625
 20
7.9192410301
 30
0.0
 40
5.823997147199537
100
AcDbArc
 50
250.9920931838
 51
259.8387242654
  0
ARC
  5
112
330
23
100
AcDbEntity
  8
0
  6
Continuous
 62
     7
370
    25
100
AcDbCircle
 10
-2.3532900375
 20
7.9192410301
 30
0.0
 40
5.823997147195753
100
AcDbArc
 50
280.1612757346
 51
289.0079068162
  0
ARC
  5
113
330
23
100
AcDbEntity
  8
0
  6
Continuous
 62
     7
370
    25
100
AcDbCircle
 10
-2.3532900376
 20
-7.9192410306
 30
0.0
 40
5.823997147642628
100
AcDbArc
 50
70.992093184
 51
79.8387242651
  0
VIEWPORT
  5
116
330
23
100
AcDbEntity
  8
0
100
AcDbViewport
 10
0.0
 20
0.0
 30
0.0
 40
205.6
 41
156.0
 68
     1
 69
     1
 12
-51.0
 22
8.575
 13
0.0
 23
0.0
 14
10.0
 24
10.0
 15
10.0
 25
10.0
 16
0.0
 26
0.0
 36
1.0
 17
0.0
 27
0.0
 37
0.0
 42
50.0
 43
0.0
 44
0.0
 45
96.033
 50
0.0
 51
0.0
 72
   100
 90
   557152
  1

281
     0
 71
     1
 74
     0
110
0.0
120
0.0
130
0.0
111
1.0
121
0.0
131
0.0
112
0.0
122
1.0
132
0.0
 79
     0
146
0.0
  0
ENDBLK
  5
25
330
23
100
AcDbEntity
  8
0
100
AcDbBlockEnd
  0
ENDSEC
  0
SECTION
  2
ENTITIES
  0
SPLINE
  5
7D
330
1F
100
AcDbEntity
  8
0
  6
Continuous
 62
     7
370
    25
100
AcDbSpline
210
0.0
220
0.0
230
1.0
 70
     8
 71
     3
 72
    13
 73
     9
 74
     0
 42
0.000000001
 43
0.00000001
 40
0.0
 40
0.0
 40
0.0
 40
0.0
 40
0.1459417641583557
 40
0.3339327377600537
 40
0.5215890784556236
 40
0.6985481279524027
 40
0.8824105187214359
 40
1.0
 40
1.0
 40
1.0
 40
1.0
 10
-84.94275030469058
 20
38.24930060638009
 30
0.0
 10
-85.02179852958484
 20
38.24752585515724
 30
0.0
 10
-85.20267060761032
 20
38.24346500569371
 30
0.0
 10
-85.47249468651276
 20
38.3434774723943
 30
0.0
 10
-85.71635509940533
 20
38.52083185121921
 30
0.0
 10
-85.89228671972066
 20
38.76160729902617
 30
0.0
 10
-85.99045418908716
 20
39.00712395341111
 30
0.0
 10
-85.99053965980414
 20
39.17034291107662
 30
0.0
 10
-85.99057299997618
 20
39.23401089375108
 30
0.0
  0
SPLINE
  5
7E
330
1F
100
AcDbEntity
  8
0
  6
Continuous
 62
     7
370
    25
100
AcDbSpline
210
0.0
220
0.0
230
1.0
 70
     8
 71
     3
 72
    16
 73
    12
 74
     0
 42
0.000000001
 43
0.00000001
 40
0.0
 40
0.0
 40
0.0
 40
0.0
 40
0.0003676504505221
 40
0.1826298825654513
 40
0.3739391800390795
 40
0.5346898804906819
 40
0.6747844806202868
 40
0.7977544265259779
 40
0.903958572939448
 40
0.9923252151576868
 40
1.0
 40
1.0
 40
1.0
 40
1.0
 10
-15.99954278484014
 20
39.23581625362464
 30
0.0
 10
-15.99951616493455
 20
39.2356194008331
 30
0.0
 10
-15.98629276149807
 20
39.13783303296677
 30
0.0
 10
-16.03817545718132
 20
38.93343722520604
 30
0.0
 10
-16.15975277708601
 20
38.67092790893071
 30
0.0
 10
-16.34385367907309
 20
38.47297637315643
 30
0.0
 10
-16.53639579144976
 20
38.34624599996422
 30
0.0
 10
-16.72391359607592
 20
38.27337440343196
 30
0.0
 10
-16.89328855104736
 20
38.24377853349248
 30
0.0
 10
-17.0032606254666
 20
38.23749356742802
 30
0.0
 10
-17.05482712526211
 20
38.24303813470677
 30
0.0
 10
-17.05894786568751
 20
38.24348120768276
 30
0.0
  0
SPLINE
  5
83
330
1F
100
AcDbEntity
  8
0
  6
Continuous
 62
     7
370
    25
100
AcDbSpline
210
0.0
220
0.0
230
1.0
 70
     8
 71
     3
 72
    13
 73
     9
 74
     0
 42
0.000000001
 43
0.00000001
 40
0.0
 40
0.0
 40
0.0
 40
0.0
 40
0.0122665992147152
 40
0.1310661204500838
 40
0.2758711076190623
 40
0.5317854077352674
 40
0.7685351467361775
 40
1.0
 40
1.0
 40
1.0
 40
1.0
 10
-0.3471020106327327
 20
36.76936380826493
 30
0.0
 10
-0.350491260929231
 20
36.77049776647213
 30
0.0
 10
-0.386704711765988
 20
36.78261387953402
 30
0.0
 10
-0.4938547867436929
 20
36.83232257747287
 30
0.0
 10
-0.6665999357271801
 20
36.94763580759457
 30
0.0
 10
-0.845670425451077
 20
37.14558672271047
 30
0.0
 10
-0.9759586106490927
 20
37.41837758261455
 30
0.0
 10
-0.9918780845021846
 20
37.61093383480896
 30
0.0
 10
-0.9997479773682303
 20
37.70612523933914
 30
0.0
  0
SPLINE
  5
84
330
1F
100
AcDbEntity
  8
0
  6
Continuous
 62
     7
370
    25
100
AcDbSpline
210
0.0
220
0.0
230
1.0
 70
     8
 71
     3
 72
    14
 73
    10
 74
     0
 42
0.000000001
 43
0.00000001
 40
0.0
 40
0.0
 40
0.0
 40
0.0
 40
0.0740766248444162
 40
0.2898026919496184
 40
0.4774963081946152
 40
0.6427718515684806
 40
0.7865998122025575
 40
0.9076625628933905
 40
1.0
 40
1.0
 40
1.0
 40
1.0
 10
-101.0102827135868
 20
37.70631698101958
 30
0.0
 10
-101.0071963823794
 20
37.67596020819549
 30
0.0
 10
-100.9951220324206
 20
37.55719839228117
 30
0.0
 10
-101.0528725229526
 20
37.36343665344314
 30
0.0
 10
-101.1561933710376
 20
37.15416854739598
 30
0.0
 10
-101.2880715973789
 20
36.99596625476231
 30
0.0
 10
-101.4236411870729
 20
36.88414066108824
 30
0.0
 10
-101.5512026978303
 20
36.80955860040192
 30
0.0
 10
-101.6229753634498
 20
36.78107541307875
 30
0.0
 10
-101.6540311186766
 20
36.76875084792631
 30
0.0
  0
SPLINE
  5
94
330
1F
100
AcDbEntity
  8
0
  6
Continuous
 62
     8
370
    25
100
AcDbSpline
210
0.0
220
0.0
230
1.0
 70
     8
 71
     3
 72
    25
 73
    21
 74
     0
 42
0.000000001
 43
0.00000001
 40
0.0
 40
0.0
 40
0.0
 40
0.0
 40
0.0322626832426766
 40
0.0873185750758789
 40
0.1440138559699985
 40
0.1865146409520686
 40
0.229684986945846
 40
0.2893909197358758
 40
0.3508296895088172
 40
0.4110155509713721
 40
0.4729150252630042
 40
0.5328391762571165
 40
0.5945167794023878
 40
0.6525515630660096
 40
0.7122259866049827
 40
0.7692920031239495
 40
0.8279298588952829
 40
0.8852916741774738
 40
0.9443005497650712
 40
1.0
 40
1.0
 40
1.0
 40
1.0
 10
-84.94304808824121
 20
38.23615118467942
 30
0.0
 10
-84.93840867872736
 20
38.23753084050716
 30
0.0
 10
-84.92585217110847
 20
38.24126486287805
 30
0.0
 10
-85.15834670500716
 20
38.17208217894806
 30
0.0
 10
-85.56582427155791
 20
38.05412859692166
 30
0.0
 10
-86.0988392714509
 20
37.90606073914444
 30
0.0
 10
-86.76071636388656
 20
37.73051832053983
 30
0.0
 10
-87.6572411309106
 20
37.50849830698211
 30
0.0
 10
-88.80742103627608
 20
37.25354472675588
 30
0.0
 10
-90.10234743921373
 20
37.00578462927303
 30
0.0
 10
-91.48327589661987
 20
36.78829941005554
 30
0.0
 10
-92.93432272262567
 20
36.61266661822005
 30
0.0
 10
-94.37393780605407
 20
36.49295935615725
 30
0.0
 10
-95.7877470652621
 20
36.4285219423487
 30
0.0
 10
-97.10512306716309
 20
36.41598867994577
 30
0.0
 10
-98.32843061706765
 20
36.44539109686244
 30
0.0
 10
-99.40821809818472
 20
36.50415268111059
 30
0.0
 10
-100.3338184980532
 20
36.57876331886875
 30
0.0
 10
-101.0736619516348
 20
36.65462982257564
 30
0.0
 10
-101.3899812515972
 20
36.69254379046762
 30
0.0
 10
-101.543577871374
 20
36.71095385052791
 30
0.0
  0
SPLINE
  5
96
330
1F
100
AcDbEntity
  8
0
  6
Continuous
 62
     8
370
    25
100
AcDbSpline
210
0.0
220
0.0
230
1.0
 70
     8
 71
     3
 72
    25
 73
    21
 74
     0
 42
0.000000001
 43
0.00000001
 40
0.0
 40
0.0
 40
0.0
 40
0.0
 40
0.0492361465584205
 40
0.0954427164351033
 40
0.1425091536829853
 40
0.200254759227496
 40
0.2596444618390879
 40
0.3178581112856521
 40
0.3777348804729889
 40
0.4354431079253735
 40
0.4947386881298435
 40
0.5523901097179827
 40
0.6115597346444148
 40
0.6703826463966048
 40
0.7308108134911886
 40
0.7902928109845118
 40
0.8515822213182572
 40
0.9095631135874748
 40
0.9694368777830313
 40
0.9999999999999999
 40
0.9999999999999999
 40
0.9999999999999999
 40
0.9999999999999999
 10
-0.4564221286260661
 20
36.71095385052741
 30
0.0
 10
-0.589945272859195
 20
36.69491774853996
 30
0.0
 10
-0.8487756745732058
 20
36.6638322708636
 30
0.0
 10
-1.421460076726763
 20
36.60324400350814
 30
0.0
 10
-2.15335963648592
 20
36.53751517692583
 30
0.0
 10
-3.102464335349657
 20
36.47241953987961
 30
0.0
 10
-4.263912182584193
 20
36.42605204307679
 30
0.0
 10
-5.556829770965916
 20
36.41642916302887
 30
0.0
 10
-6.917993657514346
 20
36.45424677070119
 30
0.0
 10
-8.32836261659283
 20
36.54510531628521
 30
0.0
 10
-9.72396451921126
 20
36.68628253432031
 30
0.0
 10
-11.09609870911774
 20
36.87429189180142
 30
0.0
 10
-12.3959792656788
 20
37.09661271040917
 30
0.0
 10
-13.61260995405623
 20
37.34307372956035
 30
0.0
 10
-14.69583577732739
 20
37.59329967899858
 30
0.0
 10
-15.62349895530699
 20
37.83003621553366
 30
0.0
 10
-16.34457920318257
 20
38.02838104875335
 30
0.0
 10
-16.83318853012995
 20
38.16951425191823
 30
0.0
 10
-17.07594336223239
 20
38.24180555966201
 30
0.0
 10
-17.06382688750966
 20
38.23819843352733
 30
0.0
 10
-17.05973212803175
 20
38.23697940618927
 30
0.0
  0
SPLINE
  5
99
330
1F
100
AcDbEntity
  8
0
  6
Continuous
 62
     8
370
    25
100
AcDbSpline
210
0.0
220
0.0
230
1.0
 70
    24
 71
     3
 72
     9
 73
     5
 74
     0
 42
0.000000001
 43
0.00000001
 40
0.0
 40
0.0
 40
0.0
 40
0.0
 40
0.0981969585525758
 40
1.0
 40
1.0
 40
1.0
 40
1.0
 10
-0.3454006474335886
 20
36.75844389329253
 30
0.0
 10
-0.341369237134681
 20
36.76016835098699
 30
0.0
 10
-0.3003149075675587
 20
36.77772956387878
 30
0.0
 10
-0.3823987078646132
 20
36.74261777159742
 30
0.0
 10
-0.4564221286260661
 20
36.71095385052741
 30
0.0
  0
SPLINE
  5
9A
330
1F
100
AcDbEntity
  8
0
  6
Continuous
 62
     8
370
    25
100
AcDbSpline
210
0.0
220
0.0
230
1.0
 70
     8
 71
     3
 72
    25
 73
    21
 74
     0
 42
0.000000001
 43
0.00000001
 40
0.0
 40
0.0
 40
0.0
 40
0.0
 40
0.0562842119407266
 40
0.1147509127456153
 40
0.1732175671062465
 40
0.2308359356345301
 40
0.2884484982142771
 40
0.3466753179315952
 40
0.4048998239346611
 40
0.4650266330847351
 40
0.5251633584731433
 40
0.5858969817286223
 40
0.6466408822033755
 40
0.7074073423489599
 40
0.7681692927685798
 40
0.8113867647383911
 40
0.8546001177815139
 40
0.9111480036334064
 40
0.9676854626542132
 40
1.0
 40
1.0
 40
1.0
 40
1.0
 10
-100.6741767183379
 20
37.70500386518698
 30
0.0
 10
-100.5388845817798
 20
37.68575903326624
 30
0.0
 10
-100.263054191302
 20
37.64652312762958
 30
0.0
 10
-99.61137391892136
 20
37.56695485566085
 30
0.0
 10
-98.80197715741241
 20
37.48846988667239
 30
0.0
 10
-97.84413608086159
 20
37.42547198993377
 30
0.0
 10
-96.77159295648033
 20
37.39163032197649
 30
0.0
 10
-95.60245283103116
 20
37.40209717652293
 30
0.0
 10
-94.36013915253616
 20
37.46327576075684
 30
0.0
 10
-93.0828245596936
 20
37.58437704209318
 30
0.0
 10
-91.80587114568213
 20
37.75947904398259
 30
0.0
 10
-90.58206987710699
 20
37.98117641274452
 30
0.0
 10
-89.44248785759372
 20
38.23101869325534
 30
0.0
 10
-88.4245593875229
 20
38.49103857504807
 30
0.0
 10
-87.63364890525217
 20
38.71650431153763
 30
0.0
 10
-87.0474979185477
 20
38.89576532475776
 30
0.0
 10
-86.57874417914088
 20
39.04604285279426
 30
0.0
 10
-86.21912837994869
 20
39.16586473201748
 30
0.0
 10
-86.0118115696979
 20
39.23734124288872
 30
0.0
 10
-86.02241632708316
 20
39.23358790184076
 30
0.0
 10
-86.02627316590036
 20
39.23222285114493
 30
0.0
  0
SPLINE
  5
9B
330
1F
100
AcDbEntity
  8
0
  6
Continuous
 62
     8
370
    25
100
AcDbSpline
210
0.0
220
0.0
230
1.0
 70
     8
 71
     3
 72
    25
 73
    21
 74
     0
 42
0.000000001
 43
0.00000001
 40
0.0
 40
0.0
 40
0.0
 40
0.0
 40
0.0306000155140019
 40
0.0902210688257365
 40
0.1498550902800991
 40
0.2107019425648716
 40
0.2715630898649392
 40
0.3312266651288062
 40
0.3908894293808726
 40
0.4488871068570557
 40
0.5068745161936435
 40
0.5646992994796093
 40
0.6225178920610558
 40
0.680995301618224
 40
0.7394771781674733
 40
0.7979306664547913
 40
0.8563892831477573
 40
0.9033143787062354
 40
0.9502390571054324
 40
1.0
 40
1.0
 40
1.0
 40
1.0
 10
-15.97477116909263
 20
39.23259171823005
 30
0.0
 10
-15.97875244285005
 20
39.23399672388839
 30
0.0
 10
-15.99049082819562
 20
39.23813924179473
 30
0.0
 10
-15.77606668415723
 20
39.16413407977675
 30
0.0
 10
-15.35198105042599
 20
39.0230212765888
 30
0.0
 10
-14.71251380140397
 20
38.81995618297939
 30
0.0
 10
-13.9015800900085
 20
38.58107459643473
 30
0.0
 10
-12.94092873203912
 20
38.32553674811306
 30
0.0
 10
-11.87443529192846
 20
38.07610746638781
 30
0.0
 10
-10.72128905115761
 20
37.85000222784266
 30
0.0
 10
-9.516254097059223
 20
37.65971374541018
 30
0.0
 10
-8.278005540440523
 20
37.51779537364397
 30
0.0
 10
-7.037218779282456
 20
37.42656455799287
 30
0.0
 10
-5.830184937729556
 20
37.39134243973822
 30
0.0
 10
-4.691586406827826
 20
37.40311427262559
 30
0.0
 10
-3.663106602397437
 20
37.45393383602303
 30
0.0
 10
-2.826021776706537
 20
37.52254920253279
 30
0.0
 10
-2.178281761059442
 20
37.59198763909318
 30
0.0
 10
-1.672149765791324
 20
37.65565512272783
 30
0.0
 10
-1.443501238091345
 20
37.68823570152904
 30
0.0
 10
-1.325823281663516
 20
37.70500386518671
 30
0.0
  0
SPLINE
  5
9C
330
1F
100
AcDbEntity
  8
0
  6
Continuous
 62
     8
370
    25
100
AcDbSpline
210
0.0
220
0.0
230
1.0
 70
     8
 71
     3
 72
    10
 73
     6
 74
     0
 42
0.000000001
 43
0.00000001
 40
0.0
 40
0.0
 40
0.0
 40
0.0
 40
0.4474576990428866
 40
0.9033832603345854
 40
1.0
 40
1.0
 40
1.0
 40
1.0
 10
-1.325823281663516
 20
37.70500386518671
 30
0.0
 10
-1.244064918187279
 20
37.71108912444145
 30
0.0
 10
-1.07900096439955
 20
37.72337480274643
 30
0.0
 10
-0.9840844736303465
 20
37.70424119863695
 30
0.0
 10
-1.009616637032286
 20
37.70740144077808
 30
0.0
 10
-1.014081153830775
 20
37.70795403610281
 30
0.0
  0
SPLINE
  5
9D
330
1F
100
AcDbEntity
  8
0
  6
Continuous
 62
     8
370
    25
100
AcDbSpline
210
0.0
220
0.0
230
1.0
 70
     8
 71
     3
 72
     9
 73
     5
 74
     0
 42
0.000000001
 43
0.00000001
 40
0.0
 40
0.0
 40
0.0
 40
0.0
 40
0.4444509810201375
 40
1.0
 40
1.0
 40
1.0
 40
1.0
 10
-100.98591884617
 20
37.70795403610282
 30
0.0
 10
-100.9807620597243
 20
37.71078599996904
 30
0.0
 10
-100.9691594608644
 20
37.71715782495575
 30
0.0
 10
-100.7795269009596
 20
37.70934453227228
 30
0.0
 10
-100.6741767183379
 20
37.70500386518698
 30
0.0
  0
LINE
  5
9E
330
1F
100
AcDbEntity
  8
0
  6
Continuous
 62
     7
370
    25
100
AcDbLine
 10
-82.0
 20
38.5
 30
0.0
 11
-84.9436007645
 21
38.2424683032
 31
0.0
  0
LINE
  5
9F
330
1F
100
AcDbEntity
  8
0
  6
Continuous
 62
     7
370
    25
100
AcDbLine
 10
-101.5435778714
 20
-36.7901584915
 30
0.0
 11
-82.0
 21
-38.5
 31
0.0
  0
LINE
  5
A0
330
1F
100
AcDbEntity
  8
0
  6
Continuous
 62
     7
370
    25
100
AcDbLine
 10
-20.0
 20
-38.5
 30
0.0
 11
-0.4564221286
 21
-36.7901584915
 31
0.0
  0
LINE
  5
A1
330
1F
100
AcDbEntity
  8
0
  6
Continuous
 62
     7
370
    25
100
AcDbLine
 10
-17.0592302425
 20
38.2427159842
 30
0.0
 11
-20.0
 21
38.5
 31
0.0
  0
LINE
  5
A2
330
1F
100
AcDbEntity
  8
0
  6
Continuous
 62
     7
370
    25
100
AcDbLine
 10
-82.0
 20
-38.5
 30
0.0
 11
-20.0
 21
-38.5
 31
0.0
  0
LINE
  5
A3
330
1F
100
AcDbEntity
  8
0
  6
Continuous
 62
     7
370
    25
100
AcDbLine
 10
-20.0
 20
38.5
 30
0.0
 11
-82.0
 21
38.5
 31
0.0
  0
LINE
  5
A4
330
1F
100
AcDbEntity
  8
0
  6
Continuous
 62
     7
370
    25
100
AcDbLine
 10
-16.0
 20
55.65
 30
0.0
 11
-16.0
 21
39.2326083116
 31
0.0
  0
LINE
  5
A5
330
1F
100
AcDbEntity
  8
0
  6
Continuous
 62
     7
370
    25
100
AcDbLine
 10
-1.0
 20
37.7079540361
 30
0.0
 11
-1.0
 21
55.65
 31
0.0
  0
LINE
  5
A6
330
1F
100
AcDbEntity
  8
0
  6
Continuous
 62
     7
370
    25
100
AcDbLine
 10
-101.0
 20
55.65
 30
0.0
 11
-101.0
 21
37.7079540361
 31
0.0
  0
LINE
  5
A7
330
1F
100
AcDbEntity
  8
0
  6
Continuous
 62
     7
370
    25
100
AcDbLine
 10
-86.0
 20
39.2322483288
 30
0.0
 11
-86.0
 21
55.65
 31
0.0
  0
LINE
  5
A8
330
1F
100
AcDbEntity
  8
0
  6
Continuous
 62
     7
370
    25
100
AcDbLine
 10
-82.0
 20
-38.5
 30
0.0
 11
-82.0
 21
38.5
 31
0.0
  0
LINE
  5
A9
330
1F
100
AcDbEntity
  8
0
  6
Continuous
 62
     7
370
    25
100
AcDbLine
 10
-20.0
 20
-38.5
 30
0.0
 11
-20.0
 21
38.5
 31
0.0
  0
LINE
  5
AA
330
1F
100
AcDbEntity
  8
0
  6
Continuous
 62
     7
370
    25
100
AcDbLine
 10
-102.0
 20
-36.2920611425
 30
0.0
 11
-102.0
 21
36.2920611425
 31
0.0
  0
LINE
  5
AB
330
1F
100
AcDbEntity
  8
0
  6
Continuous
 62
     7
370
    25
100
AcDbLine
 10
-101.5435778714
 20
36.7109538505
 30
0.0
 11
-101.6545947547
 21
36.7584419265
 31
0.0
  0
LINE
  5
AC
330
1F
100
AcDbEntity
  8
0
  6
Continuous
 62
     7
370
    25
100
AcDbLine
 10
0.0
 20
-36.2920611425
 30
0.0
 11
0.0
 21
36.2920611425
 31
0.0
  0
LINE
  5
AD
330
1F
100
AcDbEntity
  8
0
  6
Continuous
 62
     7
370
    25
100
AcDbLine
 10
-16.0
 20
55.65
 30
0.0
 11
-1.0
 21
55.65
 31
0.0
  0
LINE
  5
AE
330
1F
100
AcDbEntity
  8
0
  6
Continuous
 62
     7
370
    25
100
AcDbLine
 10
-86.0
 20
55.65
 30
0.0
 11
-101.0
 21
55.65
 31
0.0
  0
LINE
  5
AF
330
1F
100
AcDbEntity
  8
0
  6
Continuous
 62
     8
370
    25
100
AcDbLine
 10
-101.5435778714
 20
-36.7901584915
 30
0.0
 11
-101.5435778714
 21
36.7109538505
 31
0.0
  0
LINE
  5
B0
330
1F
100
AcDbEntity
  8
0
  6
Continuous
 62
     8
370
    25
100
AcDbLine
 10
-0.4564221286
 20
-36.7901584915
 30
0.0
 11
-0.4564221286
 21
36.7109538505
 31
0.0
  0
ARC
  5
B1
330
1F
100
AcDbEntity
  8
0
  6
Continuous
 62
     7
370
    25
100
AcDbCircle
 10
-101.5
 20
-36.2920611425
 30
0.0
 40
0.4999999999999858
100
AcDbArc
 50
180.0
 51
265.0
  0
ARC
  5
B2
330
1F
100
AcDbEntity
  8
0
  6
Continuous
 62
     7
370
    25
100
AcDbCircle
 10
-101.5
 20
36.2920611425
 30
0.0
 40
0.5000000000000152
100
AcDbArc
 50
108.2788032158
 51
180.0
  0
ARC
  5
B3
330
1F
100
AcDbEntity
  8
0
  6
Continuous
 62
     7
370
    25
100
AcDbCircle
 10
-0.5
 20
-36.2920611425
 30
0.0
 40
0.5000000000000757
100
AcDbArc
 50
275.0
 51
0.0
  0
ARC
  5
B4
330
1F
100
AcDbEntity
  8
0
  6
Continuous
 62
     7
370
    25
100
AcDbCircle
 10
-0.5
 20
36.2920611425
 30
0.0
 40
0.5000000000000555
100
AcDbArc
 50
360.0
 51
71.7863842518
  0
ARC
  5
B5
330
1F
100
AcDbEntity
  8
0
  6
Continuous
 62
     7
370
    25
100
AcDbCircle
 10
-101.6711139575
 20
37.6997138768
 30
0.0
 40
0.9969512740581288
100
AcDbArc
 50
277.349765825
 51
0.3040223106
  0
ARC
  5
B6
330
1F
100
AcDbEntity
  8
0
  6
Continuous
 62
     7
370
    25
100
AcDbCircle
 10
-0.3288860425
 20
37.6997138768
 30
0.0
 40
0.9969512740570619
100
AcDbArc
 50
179.6959776893
 51
262.6502341751
  0
SPLINE
  5
B7
330
1B
100
AcDbEntity
 67
     1
  8
0
  6
Continuous
 62
     7
370
    25
100
AcDbSpline
210
0.0
220
0.0
230
1.0
 70
     8
 71
     3
 72
    13
 73
     9
 74
     0
 42
0.000000001
 43
0.00000001
 40
0.0
 40
0.0
 40
0.0
 40
0.0
 40
0.0664254856471149
 40
0.2976360363097659
 40
0.4985947271311639
 40
0.6911881013802963
 40
0.8865720091865315
 40
1.0
 40
1.0
 40
1.0
 40
1.0
 10
7.774732671608572
 20
36.90550470080288
 30
0.0
 10
7.776511678575096
 20
36.90434937921952
 30
0.0
 10
7.7844829651517
 20
36.89917267131315
 30
0.0
 10
7.749052572236203
 20
36.92538770564123
 30
0.0
 10
7.672087283837486
 20
37.00662609221272
 30
0.0
 10
7.576276770816905
 20
37.16318086954326
 30
0.0
 10
7.503297517839053
 20
37.35835820317172
 30
0.0
 10
7.507761983713724
 20
37.50077479036312
 30
0.0
 10
7.509401801986539
 20
37.55308503946891
 30
0.0
  0
SPLINE
  5
B8
330
1B
100
AcDbEntity
 67
     1
  8
0
  6
Continuous
 62
     7
370
    25
100
AcDbSpline
210
0.0
220
0.0
230
1.0
 70
     8
 71
     3
 72
    13
 73
     9
 74
     0
 42
0.000000001
 43
0.00000001
 40
0.0
 40
0.0
 40
0.0
 40
0.0
 40
0.1428624579829785
 40
0.3269687596362564
 40
0.5050295158744039
 40
0.6911633902633462
 40
0.9009101782844295
 40
1.0
 40
1.0
 40
1.0
 40
1.0
 10
-7.50850499327894
 20
37.55084464848303
 30
0.0
 10
-7.509071264983057
 20
37.48498223180849
 30
0.0
 10
-7.510367288860332
 20
37.33424317138099
 30
0.0
 10
-7.586582001191646
 20
37.14474864315974
 30
0.0
 10
-7.675048596292459
 20
37.00455426682987
 30
0.0
 10
-7.745727615806244
 20
36.92897954402818
 30
0.0
 10
-7.780807697215241
 20
36.9013661408437
 30
0.0
 10
-7.775973377565922
 20
36.90470794675472
 30
0.0
 10
-7.774422292438496
 20
36.90578016080413
 30
0.0
  0
CIRCLE
  5
C0
330
1B
100
AcDbEntity
 67
     1
  8
0
  6
Continuous
 62
     7
370
    25
100
AcDbCircle
 10
0.0
 20
0.0
 30
0.0
 40
36.29206114247281
  0
SPLINE
  5
C1
330
1B
100
AcDbEntity
 67
     1
  8
0
  6
Continuous
 62
     7
370
    25
100
AcDbSpline
210
0.0
220
0.0
230
1.0
 70
     8
 71
     3
 72
    12
 73
     8
 74
     0
 42
0.000000001
 43
0.00000001
 40
0.0
 40
0.0
 40
0.0
 40
0.0
 40
0.5
 40
0.5
 40
0.75
 40
0.75
 40
1.0
 40
1.0
 40
1.0
 40
1.0
 10
2.412805258508408
 20
36.71095385052838
 30
0.0
 10
1.61123996630415
 20
36.75629441437702
 30
0.0
 10
0.8068802515640011
 20
36.76345985549429
 30
0.0
 10
-0.4025840157218112
 20
36.7634685640686
 30
0.0
 10
-0.8058910279207346
 20
36.76071844089579
 30
0.0
 10
-1.610479720295122
 20
36.74578831141012
 30
0.0
 10
-2.012083372649701
 20
36.73362069554683
 30
0.0
 10
-2.412805258491655
 20
36.71095385052898
 30
0.0
  0
CIRCLE
  5
C2
330
1B
100
AcDbEntity
 67
     1
  8
0
  6
Continuous
 62
     7
370
    25
100
AcDbCircle
 10
0.0
 20
0.0
 30
0.0
 40
33.12185742572788
  0
CIRCLE
  5
C3
330
1B
100
AcDbEntity
 67
     1
  8
0
  6
Continuous
 62
     7
370
    25
100
AcDbCircle
 10
0.0
 20
0.0
 30
0.0
 40
32.60440767737658
  0
SPLINE
  5
C4
330
1B
100
AcDbEntity
 67
     1
  8
0
  6
Continuous
 62
     7
370
    25
100
AcDbSpline
210
0.0
220
0.0
230
1.0
 70
     8
 71
     3
 72
    14
 73
    10
 74
     0
 42
0.000000001
 43
0.00000001
 40
0.0
 40
0.0
 40
0.0
 40
0.0
 40
0.2499999999999999
 40
0.2499999999999999
 40
0.4999999999999999
 40
0.4999999999999999
 40
0.7499999999999998
 40
0.7499999999999998
 40
1.0
 40
1.0
 40
1.0
 40
1.0
 10
-2.186592877967906
 20
37.70500386518762
 30
0.0
 10
-1.830191992041948
 20
37.72075738739039
 30
0.0
 10
-1.469276526306112
 20
37.71858839205566
 30
0.0
 10
-0.7386784931144602
 20
37.7112625707391
 30
0.0
 10
-0.3667054752643109
 20
37.70624411518261
 30
0.0
 10
0.3752724134891908
 20
37.70630564975377
 30
0.0
 10
0.7425857137678621
 20
37.71131128412062
 30
0.0
 10
1.470043039620505
 20
37.71858648159728
 30
0.0
 10
1.830187462096115
 20
37.72075758762222
 30
0.0
 10
2.18659287798309
 20
37.705003865187
 30
0.0
  0
CIRCLE
  5
C5
330
1B
100
AcDbEntity
 67
     1
  8
0
  6
Continuous
 62
     7
370
    25
100
AcDbCircle
 10
0.0
 20
0.0
 30
0.0
 40
32.05000000000002
  0
SPLINE
  5
C7
330
1B
100
AcDbEntity
 67
     1
  8
0
  6
Continuous
 62
     8
370
    25
100
AcDbSpline
210
0.0
220
0.0
230
1.0
 70
     8
 71
     3
 72
    19
 73
    15
 74
     0
 42
0.000000001
 43
0.00000001
 40
0.0
 40
0.0
 40
0.0
 40
0.0
 40
0.0772388898124706
 40
0.1558049022707809
 40
0.2291933400190198
 40
0.3036692773497039
 40
0.3624814575803802
 40
0.4655188369785848
 40
0.5715468043049773
 40
0.6737494497290344
 40
0.7788362369755182
 40
0.8800261280228832
 40
0.9839165914837844
 40
1.0
 40
1.0
 40
1.0
 40
1.0
 10
-2.412805258491654
 20
36.71095385052902
 30
0.0
 10
-2.744071831136695
 20
36.69681742540354
 30
0.0
 10
-3.412296816009588
 20
36.6683016823565
 30
0.0
 10
-4.326992196117208
 20
36.61383872222595
 30
0.0
 10
-5.164114538709098
 20
36.55793214964284
 30
0.0
 10
-5.855768623237168
 20
36.50901213517776
 30
0.0
 10
-6.562839388116631
 20
36.46101824706518
 30
0.0
 10
-7.24095136473632
 20
36.42316321149179
 30
0.0
 10
-7.822197525240406
 20
36.41778545263273
 30
0.0
 10
-8.183982697875232
 20
36.46147970071418
 30
0.0
 10
-8.320167808299844
 20
36.55644223148423
 30
0.0
 10
-8.210933106007246
 20
36.70606104846036
 30
0.0
 10
-8.027319982144794
 20
36.8376743002252
 30
0.0
 10
-7.818899537950048
 20
36.92479848644103
 30
0.0
 10
-7.790959194841387
 20
36.93647814514888
 30
0.0
  0
SPLINE
  5
C8
330
1B
100
AcDbEntity
 67
     1
  8
0
  6
Continuous
 62
     8
370
    25
100
AcDbSpline
210
0.0
220
0.0
230
1.0
 70
     8
 71
     3
 72
    17
 73
    13
 74
     0
 42
0.000000001
 43
0.00000001
 40
0.0
 40
0.0
 40
0.0
 40
0.0
 40
0.0689934609300348
 40
0.1748393474525494
 40
0.2837824108951422
 40
0.3862910493007481
 40
0.4916958344736446
 40
0.592493309424136
 40
0.6960671727986198
 40
0.7973871262791582
 40
0.9016163334627474
 40
1.0
 40
1.0
 40
1.0
 40
1.0
 10
7.792054972195052
 20
36.93179115295629
 30
0.0
 10
7.893323485913994
 20
36.88420542356732
 30
0.0
 10
8.149952456506801
 20
36.76361634509136
 30
0.0
 10
8.301684648853126
 20
36.61358395638645
 30
0.0
 10
8.267769425779415
 20
36.49272705479895
 30
0.0
 10
7.988736314791889
 20
36.42858458016276
 30
0.0
 10
7.498738521591529
 20
36.41597253681322
 30
0.0
 10
6.798807905325089
 20
36.44539547373808
 30
0.0
 10
5.921837890886573
 20
36.50415152491939
 30
0.0
 10
4.866640970033775
 20
36.57876363472893
 30
0.0
 10
3.695256528853425
 20
36.65462974788233
 30
0.0
 10
2.831987013965484
 20
36.6925437660534
 30
0.0
 10
2.412805258508378
 20
36.71095385052792
 30
0.0
  0
SPLINE
  5
C9
330
1B
100
AcDbEntity
 67
     1
  8
0
  6
Continuous
 62
     8
370
    25
100
AcDbSpline
210
0.0
220
0.0
230
1.0
 70
     8
 71
     3
 72
    15
 73
    11
 74
     0
 42
0.000000001
 43
0.00000001
 40
0.0
 40
0.0
 40
0.0
 40
0.0
 40
0.1263757781351268
 40
0.2576519309751568
 40
0.3889279795332045
 40
0.5182993592960877
 40
0.6476577028763749
 40
0.7783952471429463
 40
0.9091275963924972
 40
1.0
 40
1.0
 40
1.0
 40
1.0
 10
2.186592877983089
 20
37.70500386518698
 30
0.0
 10
2.566283924604389
 20
37.68575851567582
 30
0.0
 10
3.340389000589391
 20
37.64652155478812
 30
0.0
 10
4.401388841442785
 20
37.56696143267694
 30
0.0
 10
5.355172624799279
 20
37.48844540509492
 30
0.0
 10
6.153320065298523
 20
37.42556190061996
 30
0.0
 10
6.789341520752725
 20
37.39129312631709
 30
0.0
 10
7.228908916759986
 20
37.40337058330035
 30
0.0
 10
7.475536237338964
 20
37.45232768861553
 30
0.0
 10
7.475274280417356
 20
37.52409610486103
 30
0.0
 10
7.47516686099245
 20
37.55352583686474
 30
0.0
  0
SPLINE
  5
CA
330
1B
100
AcDbEntity
 67
     1
  8
0
  6
Continuous
 62
     8
370
    25
100
AcDbSpline
210
0.0
220
0.0
230
1.0
 70
     8
 71
     3
 72
    17
 73
    13
 74
     0
 42
0.000000001
 43
0.00000001
 40
0.0
 40
0.0
 40
0.0
 40
0.0
 40
0.0093780269298455
 40
0.1399843178970986
 40
0.2705879874226634
 40
0.4029729129228473
 40
0.5353727915734354
 40
0.61028046366343
 40
0.7048793373501581
 40
0.7994788515253008
 40
0.8997406144720843
 40
1.0
 40
1.0
 40
1.0
 40
1.0
 10
-7.493175894760395
 20
37.54922767706987
 30
0.0
 10
-7.495420127572053
 20
37.5456429192948
 30
0.0
 10
-7.528919434163123
 20
37.49213380957227
 30
0.0
 10
-7.399931555841614
 20
37.4378527894062
 30
0.0
 10
-7.094006114643769
 20
37.39066780266123
 30
0.0
 10
-6.55957880676679
 20
37.40094906837265
 30
0.0
 10
-5.949086146918264
 20
37.44121949604239
 30
0.0
 10
-5.306333808424545
 20
37.49269035575141
 30
0.0
 10
-4.67956570022354
 20
37.54435654331638
 30
0.0
 10
-3.923473730271851
 20
37.60309840746245
 30
0.0
 10
-3.093087143448719
 20
37.66018926963464
 30
0.0
 10
-2.488755244768197
 20
37.69006578474395
 30
0.0
 10
-2.186592877967906
 20
37.70500386518762
 30
0.0
  0
LINE
  5
CB
330
1B
100
AcDbEntity
 67
     1
  8
0
  6
Continuous
 62
     7
370
    25
100
AcDbLine
 10
-7.5
 20
55.65
 30
0.0
 11
-7.5
 21
37.5493195433
 31
0.0
  0
LINE
  5
CC
330
1B
100
AcDbEntity
 67
     1
  8
0
  6
Continuous
 62
     7
370
    25
100
AcDbLine
 10
7.5
 20
37.5541322787
 30
0.0
 11
7.5
 21
55.65
 31
0.0
  0
LINE
  5
CD
330
1B
100
AcDbEntity
 67
     1
  8
0
  6
Continuous
 62
     7
370
    25
100
AcDbLine
 10
7.5
 20
55.65
 30
0.0
 11
-7.5
 21
55.65
 31
0.0
  0
ARC
  5
CE
330
1B
100
AcDbEntity
 67
     1
  8
0
  6
Continuous
 62
     7
370
    25
100
AcDbCircle
 10
0.0
 20
0.0
 30
0.0
 40
38.5
100
AcDbArc
 50
101.2333438429
 51
78.7666561571
  0
ARC
  5
CF
330
1B
100
AcDbEntity
 67
     1
  8
0
  6
Continuous
 62
     7
370
    25
100
AcDbCircle
 10
0.0
 20
0.0
 30
0.0
 40
36.79015849151891
100
AcDbArc
 50
93.7603222261
 51
86.2396777738
  0
ARC
  5
D0
330
1B
100
AcDbEntity
 67
     1
  8
0
  6
Continuous
 62
     7
370
    25
100
AcDbCircle
 10
3.4140991747
 20
37.4615788752
 30
0.0
 40
1.251410178231514
100
AcDbArc
 50
168.7832834609
 51
216.8572458854
  0
ARC
  5
D1
330
1B
100
AcDbEntity
 67
     1
  8
0
  6
Continuous
 62
     7
370
    25
100
AcDbCircle
 10
-3.4140991747
 20
37.4615788752
 30
0.0
 40
1.251410178249415
100
AcDbArc
 50
323.1427541151
 51
11.2167165388
  0
VIEWPORT
  5
114
330
1B
100
AcDbEntity
 67
     1
  8
0
100
AcDbViewport
 10
0.0
 20
0.0
 30
0.0
 40
205.6
 41
156.0
 68
     1
 69
     1
 12
-51.0
 22
8.575
 13
0.0
 23
0.0
 14
10.0
 24
10.0
 15
10.0
 25
10.0
 16
0.0
 26
0.0
 36
1.0
 17
0.0
 27
0.0
 37
0.0
 42
50.0
 43
0.0
 44
0.0
 45
96.033
 50
0.0
 51
0.0
 72
   100
 90
   557152
  1

281
     0
 71
     1
 74
     0
110
0.0
120
0.0
130
0.0
111
1.0
121
0.0
131
0.0
112
0.0
122
1.0
132
0.0
 79
     0
146
0.0
  0
ENDSEC
  0
SECTION
  2
OBJECTS
  0
DICTIONARY
  5
C
330
0
100
AcDbDictionary
281
     1
  3
ACAD_GROUP
350
D
  3
ACAD_LAYOUT
350
1A
  3
ACAD_MLINESTYLE
350
17
  3
ACAD_PLOTSETTINGS
350
19
  3
ACAD_PLOTSTYLENAME
350
E
  3
ACAD_SCALELIST
350
47
  0
DICTIONARY
  5
D
102
{ACAD_REACTORS
330
C
102
}
330
C
100
AcDbDictionary
281
     1
  0
DICTIONARY
  5
1A
102
{ACAD_REACTORS
330
C
102
}
330
C
100
AcDbDictionary
281
     1
  3
_Left
350
1E
  3
_Top
350
26
  3
Model
350
22
  0
DICTIONARY
  5
17
102
{ACAD_REACTORS
330
C
102
}
330
C
100
AcDbDictionary
281
     1
  3
Standard
350
18
  0
DICTIONARY
  5
19
102
{ACAD_REACTORS
330
C
102
}
330
C
100
AcDbDictionary
281
     1
  0
ACDBDICTIONARYWDFLT
  5
E
102
{ACAD_REACTORS
330
C
102
}
330
C
100
AcDbDictionary
281
     1
  3
Normal
350
F
100
AcDbDictionaryWithDefault
340
F
  0
DICTIONARY
  5
47
102
{ACAD_REACTORS
330
C
102
}
330
C
100
AcDbDictionary
281
     1
  3
A0
350
48
  3
A1
350
49
  3
A2
350
4A
  3
A3
350
4B
  3
A4
350
4C
  3
A5
350
4D
  3
A6
350
4E
  3
A7
350
4F
  3
A8
350
50
  3
A9
350
51
  3
B0
350
52
  3
B1
350
53
  3
B2
350
54
  3
B3
350
55
  3
B4
350
56
  3
B5
350
57
  3
B6
350
58
  3
B7
350
59
  3
B8
350
5A
  3
B9
350
5B
  3
C0
350
5C
  3
C1
350
5D
  3
C2
350
5E
  3
C3
350
5F
  3
C4
350
60
  3
C5
350
61
  3
C6
350
62
  3
C7
350
63
  3
C8
350
64
  3
C9
350
65
  3
D0
350
66
  3
D1
350
67
  3
D2
350
68
  0
LAYOUT
  5
1E
102
{ACAD_REACTORS
330
1A
102
}
330
1A
100
AcDbPlotSettings
  1

  2
none_device
  4
ISO_A4_(210.00_x_297.00_MM)
  6

 40
7.5
 41
20.0
 42
7.5
 43
20.0
 44
210.0
 45
297.0
 46
0.0
 47
0.0
 48
0.0
 49
0.0
140
0.0
141
0.0
142
1.0
143
0.4828205128
 70
   688
 72
     1
 73
     1
 74
     1
  7

 75
     0
147
2.0711630377
148
38.5
149
38.5
100
AcDbLayout
  1
_Left
 70
     1
 71
     1
 10
-48.1564102564
 20
-42.1211538462
 11
95.2412820513
 21
59.2711538462
 12
0.0
 22
0.0
 32
0.0
 14
-38.5
 24
-38.5
 34
0.0
 15
38.5
 25
55.65
 35
0.0
146
0.0
 13
0.0
 23
0.0
 33
0.0
 16
1.0
 26
0.0
 36
0.0
 17
0.0
 27
1.0
 37
0.0
 76
     0
330
1B
331
114
  0
LAYOUT
  5
26
102
{ACAD_REACTORS
330
1A
102
}
330
1A
100
AcDbPlotSettings
  1

  2
none_device
  4
ISO_A4_(210.00_x_297.00_MM)
  6

 40
7.5
 41
20.0
 42
7.5
 43
20.0
 44
210.0
 45
297.0
 46
0.0
 47
0.0
 48
0.0
 49
0.0
140
0.0
141
0.0
142
1.0
143
0.4828205128
 70
   688
 72
     1
 73
     1
 74
     1
  7

 75
     0
147
2.0711630377
148
38.5
149
38.5
100
AcDbLayout
  1
_Top
 70
     1
 71
     2
 10
0.0
 20
0.0
 11
0.0
 21
0.0
 12
0.0
 22
0.0
 32
0.0
 14
0.0
 24
0.0
 34
0.0
 15
0.0
 25
0.0
 35
0.0
146
0.0
 13
0.0
 23
0.0
 33
0.0
 16
1.0
 26
0.0
 36
0.0
 17
0.0
 27
1.0
 37
0.0
 76
     0
330
23
331
116
  0
LAYOUT
  5
22
102
{ACAD_REACTORS
330
1A
102
}
330
1A
100
AcDbPlotSettings
  1

  2
none_device
  4
ANSI_A_(11.00_x_8.50_Inches)
  6

 40
6.35
 41
19.05
 42
6.35000508
 43
19.05000254
 44
279.4
 45
215.9
 46
249.1311020803
 47
69.4328816296
 48
0.0
 49
0.0
140
0.0
141
0.0
142
0.0893786511
143
1.0
 70
  1696
 72
     0
 73
     0
 74
     0
  7

 75
     0
147
0.0179189148
148
-1300.4909072572
149
0.0
100
AcDbLayout
  1
Model
 70
     1
 71
     0
 10
0.0
 20
0.0
 11
420.0
 21
297.0
 12
0.0
 22
0.0
 32
0.0
 14
-102.0
 24
-38.5
 34
0.0
 15
0.0
 25
55.65
 35
0.0
146
0.0
 13
0.0
 23
0.0
 33
0.0
 16
1.0
 26
0.0
 36
0.0
 17
0.0
 27
1.0
 37
0.0
 76
     0
330
1F
331
29
  0
MLINESTYLE
  5
18
102
{ACAD_REACTORS
330
17
102
}
330
17
100
AcDbMlineStyle
  2
Standard
 70
     0
  3

 62
   256
 51
90.0
 52
90.0
 71
     2
 49
0.5
 62
   256
  6
BYLAYER
 49
-0.5
 62
   256
  6
BYLAYER
  0
ACDBPLACEHOLDER
  5
F
102
{ACAD_REACTORS
330
E
102
}
330
E
  0
SCALE
  5
48
102
{ACAD_REACTORS
330
47
102
}
330
47
100
AcDbScale
 70
     0
300
1:1
140
1.0
141
1.0
290
     1
  0
SCALE
  5
49
102
{ACAD_REACTORS
330
47
102
}
330
47
100
AcDbScale
 70
     0
300
1:2
140
1.0
141
2.0
290
     0
  0
SCALE
  5
4A
102
{ACAD_REACTORS
330
47
102
}
330
47
100
AcDbScale
 70
     0
300
1:4
140
1.0
141
4.0
290
     0
  0
SCALE
  5
4B
102
{ACAD_REACTORS
330
47
102
}
330
47
100
AcDbScale
 70
     0
300
1:5
140
1.0
141
5.0
290
     0
  0
SCALE
  5
4C
102
{ACAD_REACTORS
330
47
102
}
330
47
100
AcDbScale
 70
     0
300
1:8
140
1.0
141
8.0
290
     0
  0
SCALE
  5
4D
102
{ACAD_REACTORS
330
47
102
}
330
47
100
AcDbScale
 70
     0
300
1:10
140
1.0
141
10.0
290
     0
  0
SCALE
  5
4E
102
{ACAD_REACTORS
330
47
102
}
330
47
100
AcDbScale
 70
     0
300
1:16
140
1.0
141
16.0
290
     0
  0
SCALE
  5
4F
102
{ACAD_REACTORS
330
47
102
}
330
47
100
AcDbScale
 70
     0
300
1:20
140
1.0
141
20.0
290
     0
  0
SCALE
  5
50
102
{ACAD_REACTORS
330
47
102
}
330
47
100
AcDbScale
 70
     0
300
1:30
140
1.0
141
30.0
290
     0
  0
SCALE
  5
51
102
{ACAD_REACTORS
330
47
102
}
330
47
100
AcDbScale
 70
     0
300
1:40
140
1.0
141
40.0
290
     0
  0
SCALE
  5
52
102
{ACAD_REACTORS
330
47
102
}
330
47
100
AcDbScale
 70
     0
300
1:50
140
1.0
141
50.0
290
     0
  0
SCALE
  5
53
102
{ACAD_REACTORS
330
47
102
}
330
47
100
AcDbScale
 70
     0
300
1:100
140
1.0
141
100.0
290
     0
  0
SCALE
  5
54
102
{ACAD_REACTORS
330
47
102
}
330
47
100
AcDbScale
 70
     0
300
2:1
140
2.0
141
1.0
290
     0
  0
SCALE
  5
55
102
{ACAD_REACTORS
330
47
102
}
330
47
100
AcDbScale
 70
     0
300
4:1
140
4.0
141
1.0
290
     0
  0
SCALE
  5
56
102
{ACAD_REACTORS
330
47
102
}
330
47
100
AcDbScale
 70
     0
300
8:1
140
8.0
141
1.0
290
     0
  0
SCALE
  5
57
102
{ACAD_REACTORS
330
47
102
}
330
47
100
AcDbScale
 70
     0
300
10:1
140
10.0
141
1.0
290
     0
  0
SCALE
  5
58
102
{ACAD_REACTORS
330
47
102
}
330
47
100
AcDbScale
 70
     0
300
100:1
140
100.0
141
1.0
290
     0
  0
SCALE
  5
59
102
{ACAD_REACTORS
330
47
102
}
330
47
100
AcDbScale
 70
     0
300
1/128" = 1'-0"
140
0.0078125
141
12.0
290
     0
  0
SCALE
  5
5A
102
{ACAD_REACTORS
330
47
102
}
330
47
100
AcDbScale
 70
     0
300
1/64" = 1'-0"
140
0.015625
141
12.0
290
     0
  0
SCALE
  5
5B
102
{ACAD_REACTORS
330
47
102
}
330
47
100
AcDbScale
 70
     0
300
1/32" = 1'-0"
140
0.03125
141
12.0
290
     0
  0
SCALE
  5
5C
102
{ACAD_REACTORS
330
47
102
}
330
47
100
AcDbScale
 70
     0
300
1/16" = 1'-0"
140
0.0625
141
12.0
290
     0
  0
SCALE
  5
5D
102
{ACAD_REACTORS
330
47
102
}
330
47
100
AcDbScale
 70
     0
300
3/32" = 1'-0"
140
0.09375
141
12.0
290
     0
  0
SCALE
  5
5E
102
{ACAD_REACTORS
330
47
102
}
330
47
100
AcDbScale
 70
     0
300
1/8" = 1'-0"
140
0.125
141
12.0
290
     0
  0
SCALE
  5
5F
102
{ACAD_REACTORS
330
47
102
}
330
47
100
AcDbScale
 70
     0
300
3/16" = 1'-0"
140
0.1875
141
12.0
290
     0
  0
SCALE
  5
60
102
{ACAD_REACTORS
330
47
102
}
330
47
100
AcDbScale
 70
     0
300
1/4" = 1'-0"
140
0.25
141
12.0
290
     0
  0
SCALE
  5
61
102
{ACAD_REACTORS
330
47
102
}
330
47
100
AcDbScale
 70
     0
300
3/8" = 1'-0"
140
0.375
141
12.0
290
     0
  0
SCALE
  5
62
102
{ACAD_REACTORS
330
47
102
}
330
47
100
AcDbScale
 70
     0
300
1/2" = 1'-0"
140
0.5
141
12.0
290
     0
  0
SCALE
  5
63
102
{ACAD_REACTORS
330
47
102
}
330
47
100
AcDbScale
 70
     0
300
3/4" = 1'-0"
140
0.75
141
12.0
290
     0
  0
SCALE
  5
64
102
{ACAD_REACTORS
330
47
102
}
330
47
100
AcDbScale
 70
     0
300
1" = 1'-0"
140
1.0
141
12.0
290
     0
  0
SCALE
  5
65
102
{ACAD_REACTORS
330
47
102
}
330
47
100
AcDbScale
 70
     0
300
1-1/2" = 1'-0"
140
1.5
141
12.0
290
     0
  0
SCALE
  5
66
102
{ACAD_REACTORS
330
47
102
}
330
47
100
AcDbScale
 70
     0
300
3" = 1'-0"
140
3.0
141
12.0
290
     0
  0
SCALE
  5
67
102
{ACAD_REACTORS
330
47
102
}
330
47
100
AcDbScale
 70
     0
300
6" = 1'-0"
140
6.0
141
12.0
290
     0
  0
SCALE
  5
68
102
{ACAD_REACTORS
330
47
102
}
330
47
100
AcDbScale
 70
     0
300
1'-0" = 1'-0"
140
12.0
141
12.0
290
     0
  0
ENDSEC
  0
EOF
